ISO-10303-21;
HEADER;
FILE_DESCRIPTION(('STEP AP214'),'1');
FILE_NAME(' ','  ',('TraceParts'),('TraceParts S.A.'),'XStep 1.0',' ',' ');
FILE_SCHEMA(('automotive_design'));
ENDSEC;
DATA;
#1=MECHANICAL_DESIGN_GEOMETRIC_PRESENTATION_REPRESENTATION(' ',(#10,#11,#12,#13,#14,#15,#16,#17,#18,#19,#20,#21,#22,#23,#24,#25,#26,#27,#28,#29,#30,#31,#32,#33,#34,#35,#36,#37,#38,#39,#40,#41,#42,#43,#44,#45),#6);
#2=PRODUCT_DEFINITION_CONTEXT('',#46,'design');
#3=APPLICATION_PROTOCOL_DEFINITION('INTERNATIONAL STANDARD','automotive_design',1994,#46);
#4=PRODUCT_CATEGORY_RELATIONSHIP('NONE','NONE',#47,#48);
#5=SHAPE_DEFINITION_REPRESENTATION(#49,#50);
#6= (GEOMETRIC_REPRESENTATION_CONTEXT(3)GLOBAL_UNCERTAINTY_ASSIGNED_CONTEXT((#53))GLOBAL_UNIT_ASSIGNED_CONTEXT((#55,#56,#57))REPRESENTATION_CONTEXT('NONE','WORKSPACE'));
#10=STYLED_ITEM('',(#59),#60);
#11=STYLED_ITEM('',(#61),#62);
#12=STYLED_ITEM('',(#63),#64);
#13=STYLED_ITEM('',(#65),#66);
#14=STYLED_ITEM('',(#67),#68);
#15=STYLED_ITEM('',(#69),#70);
#16=STYLED_ITEM('',(#71),#72);
#17=STYLED_ITEM('',(#73),#74);
#18=STYLED_ITEM('',(#75),#76);
#19=STYLED_ITEM('',(#77),#78);
#20=STYLED_ITEM('',(#79),#80);
#21=STYLED_ITEM('',(#81),#82);
#22=STYLED_ITEM('',(#83),#84);
#23=STYLED_ITEM('',(#85),#86);
#24=STYLED_ITEM('',(#87),#88);
#25=STYLED_ITEM('',(#89),#90);
#26=STYLED_ITEM('',(#91),#92);
#27=STYLED_ITEM('',(#93),#94);
#28=STYLED_ITEM('',(#95),#96);
#29=STYLED_ITEM('',(#97),#98);
#30=STYLED_ITEM('',(#99),#100);
#31=STYLED_ITEM('',(#101),#102);
#32=STYLED_ITEM('',(#103),#104);
#33=STYLED_ITEM('',(#105),#106);
#34=STYLED_ITEM('',(#107),#108);
#35=STYLED_ITEM('',(#109),#110);
#36=STYLED_ITEM('',(#111),#112);
#37=STYLED_ITEM('',(#113),#114);
#38=STYLED_ITEM('',(#115),#116);
#39=STYLED_ITEM('',(#117),#118);
#40=STYLED_ITEM('',(#119),#120);
#41=STYLED_ITEM('',(#121),#122);
#42=STYLED_ITEM('',(#123),#124);
#43=STYLED_ITEM('',(#125),#126);
#44=STYLED_ITEM('',(#127),#128);
#45=STYLED_ITEM('',(#129),#130);
#46=APPLICATION_CONTEXT(' ');
#47=PRODUCT_CATEGORY('part','NONE');
#48=PRODUCT_RELATED_PRODUCT_CATEGORY('detail',' ',(#131));
#49=PRODUCT_DEFINITION_SHAPE('NONE','NONE',#132);
#50=ADVANCED_BREP_SHAPE_REPRESENTATION('1',(#82,#133),#6);
#53=UNCERTAINTY_MEASURE_WITH_UNIT(LENGTH_MEASURE(1.0E-006),#55,'','');
#55= (CONVERSION_BASED_UNIT('MILLIMETRE',#136)LENGTH_UNIT()NAMED_UNIT(#139));
#56= (NAMED_UNIT(#141)PLANE_ANGLE_UNIT()SI_UNIT($,.RADIAN.));
#57= (NAMED_UNIT(#141)SOLID_ANGLE_UNIT()SI_UNIT($,.STERADIAN.));
#59=PRESENTATION_STYLE_ASSIGNMENT((#147));
#60=EDGE_CURVE('',#116,#84,#148,.T.);
#61=PRESENTATION_STYLE_ASSIGNMENT((#149));
#62=EDGE_CURVE('',#120,#92,#150,.T.);
#63=PRESENTATION_STYLE_ASSIGNMENT((#151));
#64=EDGE_CURVE('',#116,#106,#152,.T.);
#65=PRESENTATION_STYLE_ASSIGNMENT((#153));
#66=ADVANCED_FACE('',(#154),#155,.F.);
#67=PRESENTATION_STYLE_ASSIGNMENT((#156));
#68=EDGE_CURVE('',#106,#118,#157,.T.);
#69=PRESENTATION_STYLE_ASSIGNMENT((#158));
#70=ADVANCED_FACE('',(#159),#160,.F.);
#71=PRESENTATION_STYLE_ASSIGNMENT((#161));
#72=EDGE_CURVE('',#92,#120,#162,.T.);
#73=PRESENTATION_STYLE_ASSIGNMENT((#163));
#74=EDGE_CURVE('',#98,#110,#164,.T.);
#75=PRESENTATION_STYLE_ASSIGNMENT((#165));
#76=EDGE_CURVE('',#84,#92,#166,.T.);
#77=PRESENTATION_STYLE_ASSIGNMENT((#167));
#78=ADVANCED_FACE('',(#168,#169),#170,.T.);
#79=PRESENTATION_STYLE_ASSIGNMENT((#171));
#80=EDGE_CURVE('',#110,#98,#172,.T.);
#81=PRESENTATION_STYLE_ASSIGNMENT((#173));
#82=MANIFOLD_SOLID_BREP('1',#174);
#83=PRESENTATION_STYLE_ASSIGNMENT((#175));
#84=VERTEX_POINT('',#176);
#85=PRESENTATION_STYLE_ASSIGNMENT((#177));
#86=ADVANCED_FACE('',(#178),#179,.T.);
#87=PRESENTATION_STYLE_ASSIGNMENT((#180));
#88=EDGE_CURVE('',#120,#116,#181,.T.);
#89=PRESENTATION_STYLE_ASSIGNMENT((#182));
#90=EDGE_CURVE('',#118,#84,#183,.T.);
#91=PRESENTATION_STYLE_ASSIGNMENT((#184));
#92=VERTEX_POINT('',#185);
#93=PRESENTATION_STYLE_ASSIGNMENT((#186));
#94=EDGE_CURVE('',#118,#106,#187,.T.);
#95=PRESENTATION_STYLE_ASSIGNMENT((#188));
#96=EDGE_CURVE('',#98,#122,#189,.T.);
#97=PRESENTATION_STYLE_ASSIGNMENT((#190));
#98=VERTEX_POINT('',#191);
#99=PRESENTATION_STYLE_ASSIGNMENT((#192));
#100=EDGE_CURVE('',#92,#104,#193,.T.);
#101=PRESENTATION_STYLE_ASSIGNMENT((#194));
#102=EDGE_CURVE('',#122,#110,#195,.T.);
#103=PRESENTATION_STYLE_ASSIGNMENT((#196));
#104=VERTEX_POINT('',#197);
#105=PRESENTATION_STYLE_ASSIGNMENT((#198));
#106=VERTEX_POINT('',#199);
#107=PRESENTATION_STYLE_ASSIGNMENT((#200));
#108=ADVANCED_FACE('',(#201),#202,.T.);
#109=PRESENTATION_STYLE_ASSIGNMENT((#203));
#110=VERTEX_POINT('',#204);
#111=PRESENTATION_STYLE_ASSIGNMENT((#205));
#112=ADVANCED_FACE('',(#206),#207,.F.);
#113=PRESENTATION_STYLE_ASSIGNMENT((#208));
#114=ADVANCED_FACE('',(#209),#210,.F.);
#115=PRESENTATION_STYLE_ASSIGNMENT((#211));
#116=VERTEX_POINT('',#212);
#117=PRESENTATION_STYLE_ASSIGNMENT((#213));
#118=VERTEX_POINT('',#214);
#119=PRESENTATION_STYLE_ASSIGNMENT((#215));
#120=VERTEX_POINT('',#216);
#121=PRESENTATION_STYLE_ASSIGNMENT((#217));
#122=VERTEX_POINT('',#218);
#123=PRESENTATION_STYLE_ASSIGNMENT((#219));
#124=ADVANCED_FACE('',(#220),#221,.F.);
#125=PRESENTATION_STYLE_ASSIGNMENT((#222));
#126=ADVANCED_FACE('',(#223),#224,.F.);
#127=PRESENTATION_STYLE_ASSIGNMENT((#225));
#128=EDGE_CURVE('',#84,#116,#226,.T.);
#129=PRESENTATION_STYLE_ASSIGNMENT((#227));
#130=EDGE_CURVE('',#104,#120,#228,.T.);
#131=PRODUCT('1','1','PART-1-DESC',(#229));
#132=PRODUCT_DEFINITION('NONE','NONE',#230,#2);
#133=AXIS2_PLACEMENT_3D('',#231,#232,#233);
#136=LENGTH_MEASURE_WITH_UNIT(LENGTH_MEASURE(1.0),#234);
#139=DIMENSIONAL_EXPONENTS(1.0,0.0,0.0,0.0,0.0,0.0,0.0);
#141=DIMENSIONAL_EXPONENTS(0.0,0.0,0.0,0.0,0.0,0.0,0.0);
#147=CURVE_STYLE('',#235,POSITIVE_LENGTH_MEASURE(1.0E-006),#236);
#148=CIRCLE('',#237,5.15000000000001);
#149=CURVE_STYLE('',#238,POSITIVE_LENGTH_MEASURE(1.0E-006),#239);
#150=CIRCLE('',#240,5.15000000000001);
#151=CURVE_STYLE('',#241,POSITIVE_LENGTH_MEASURE(1.0E-006),#242);
#152=LINE('',#243,#244);
#153=SURFACE_STYLE_USAGE(.BOTH.,#245);
#154=FACE_OUTER_BOUND('',#246,.T.);
#155=CYLINDRICAL_SURFACE('',#247,5.15000000000001);
#156=CURVE_STYLE('',#248,POSITIVE_LENGTH_MEASURE(1.0E-006),#249);
#157=CIRCLE('',#250,5.99999999999997);
#158=SURFACE_STYLE_USAGE(.BOTH.,#251);
#159=FACE_OUTER_BOUND('',#252,.T.);
#160=CONICAL_SURFACE('',#253,5.57499999999999,0.78539816339744);
#161=CURVE_STYLE('',#254,POSITIVE_LENGTH_MEASURE(1.0E-006),#255);
#162=CIRCLE('',#256,5.15000000000001);
#163=CURVE_STYLE('',#257,POSITIVE_LENGTH_MEASURE(1.0E-006),#258);
#164=CIRCLE('',#259,13.5646599662505);
#165=CURVE_STYLE('',#260,POSITIVE_LENGTH_MEASURE(1.0E-006),#261);
#166=LINE('',#262,#263);
#167=SURFACE_STYLE_USAGE(.BOTH.,#264);
#168=FACE_BOUND('',#265,.T.);
#169=FACE_OUTER_BOUND('',#266,.T.);
#170=PLANE('',#267);
#171=CURVE_STYLE('',#268,POSITIVE_LENGTH_MEASURE(1.0E-006),#269);
#172=CIRCLE('',#270,13.5646599662505);
#173=SURFACE_STYLE_USAGE(.BOTH.,#271);
#174=CLOSED_SHELL('',(#124,#114,#126,#86,#108,#78,#70,#66,#112));
#175=POINT_STYLE(' ',#272,POSITIVE_LENGTH_MEASURE(1.0E-006),#273);
#176=CARTESIAN_POINT('',(-5.15000000000006,2.04660736949927E-014,0.849999999999952));
#177=SURFACE_STYLE_USAGE(.BOTH.,#274);
#178=FACE_OUTER_BOUND('',#275,.T.);
#179=SPHERICAL_SURFACE('',#276,25.0);
#180=CURVE_STYLE('',#277,POSITIVE_LENGTH_MEASURE(1.0E-006),#278);
#181=LINE('',#279,#280);
#182=CURVE_STYLE('',#281,POSITIVE_LENGTH_MEASURE(1.0E-006),#282);
#183=LINE('',#283,#284);
#184=POINT_STYLE(' ',#285,POSITIVE_LENGTH_MEASURE(1.0E-006),#286);
#185=CARTESIAN_POINT('',(-5.15000000000006,2.04660736949927E-014,20.1999999999999));
#186=CURVE_STYLE('',#287,POSITIVE_LENGTH_MEASURE(1.0E-006),#288);
#187=CIRCLE('',#289,5.99999999999997);
#188=CURVE_STYLE('',#290,POSITIVE_LENGTH_MEASURE(1.0E-006),#291);
#189=CIRCLE('',#292,25.0);
#190=POINT_STYLE(' ',#293,POSITIVE_LENGTH_MEASURE(1.0E-006),#294);
#191=CARTESIAN_POINT('',(13.5646599662505,2.39138386135104E-014,-1.4210854715202E-014));
#192=CURVE_STYLE('',#295,POSITIVE_LENGTH_MEASURE(1.0E-006),#296);
#193=LINE('',#297,#298);
#194=CURVE_STYLE('',#299,POSITIVE_LENGTH_MEASURE(1.0E-006),#300);
#195=CIRCLE('',#301,25.0);
#196=POINT_STYLE(' ',#302,POSITIVE_LENGTH_MEASURE(1.0E-006),#303);
#197=CARTESIAN_POINT('',(-5.6843418860808E-014,2.24949267930819E-014,23.1733538863265));
#198=POINT_STYLE(' ',#304,POSITIVE_LENGTH_MEASURE(1.0E-006),#305);
#199=CARTESIAN_POINT('',(5.99999999999991,2.39138386135104E-014,-2.8421709430404E-014));
#200=SURFACE_STYLE_USAGE(.BOTH.,#306);
#201=FACE_OUTER_BOUND('',#307,.T.);
#202=SPHERICAL_SURFACE('',#308,25.0);
#203=POINT_STYLE(' ',#309,POSITIVE_LENGTH_MEASURE(1.0E-006),#310);
#204=CARTESIAN_POINT('',(-13.5646599662506,2.09668650637858E-014,-1.4210854715202E-014));
#205=SURFACE_STYLE_USAGE(.BOTH.,#311);
#206=FACE_OUTER_BOUND('',#312,.T.);
#207=CONICAL_SURFACE('',#313,2.575,1.04719755119659);
#208=SURFACE_STYLE_USAGE(.BOTH.,#314);
#209=FACE_OUTER_BOUND('',#315,.T.);
#210=CYLINDRICAL_SURFACE('',#316,5.15000000000001);
#211=POINT_STYLE(' ',#317,POSITIVE_LENGTH_MEASURE(1.0E-006),#318);
#212=CARTESIAN_POINT('',(5.14999999999995,2.38617928434729E-014,0.849999999999952));
#213=POINT_STYLE(' ',#319,POSITIVE_LENGTH_MEASURE(1.0E-006),#320);
#214=CARTESIAN_POINT('',(-6.00000000000003,2.03618999553777E-014,-2.8421709430404E-014));
#215=POINT_STYLE(' ',#321,POSITIVE_LENGTH_MEASURE(1.0E-006),#322);
#216=CARTESIAN_POINT('',(5.14999999999995,2.26769861961498E-014,20.1999999999999));
#217=POINT_STYLE(' ',#323,POSITIVE_LENGTH_MEASURE(1.0E-006),#324);
#218=CARTESIAN_POINT('',(-5.6843418860808E-014,2.10972439997189E-014,46.0));
#219=SURFACE_STYLE_USAGE(.BOTH.,#325);
#220=FACE_OUTER_BOUND('',#326,.T.);
#221=CONICAL_SURFACE('',#327,2.575,1.04719755119659);
#222=SURFACE_STYLE_USAGE(.BOTH.,#328);
#223=FACE_OUTER_BOUND('',#329,.T.);
#224=CONICAL_SURFACE('',#330,5.57499999999999,0.78539816339744);
#225=CURVE_STYLE('',#331,POSITIVE_LENGTH_MEASURE(1.0E-006),#332);
#226=CIRCLE('',#333,5.15000000000001);
#227=CURVE_STYLE('',#334,POSITIVE_LENGTH_MEASURE(1.0E-006),#335);
#228=LINE('',#336,#337);
#229=PRODUCT_CONTEXT('',#46,'mechanical');
#230=PRODUCT_DEFINITION_FORMATION_WITH_SPECIFIED_SOURCE(' ','NONE',#131,.NOT_KNOWN.);
#231=CARTESIAN_POINT('',(0.0,0.0,0.0));
#232=DIRECTION('',(0.0,0.0,1.0));
#233=DIRECTION('',(1.0,0.0,0.0));
#234= (NAMED_UNIT(#139)LENGTH_UNIT()SI_UNIT(.MILLI.,.METRE.));
#235=DRAUGHTING_PRE_DEFINED_CURVE_FONT('continuous');
#236=COLOUR_RGB('',0.509803950786591,0.509803950786591,0.588235318660736);
#237=AXIS2_PLACEMENT_3D('',#339,#340,#341);
#238=DRAUGHTING_PRE_DEFINED_CURVE_FONT('continuous');
#239=COLOUR_RGB('',0.509803950786591,0.509803950786591,0.588235318660736);
#240=AXIS2_PLACEMENT_3D('',#342,#343,#344);
#241=DRAUGHTING_PRE_DEFINED_CURVE_FONT('continuous');
#242=COLOUR_RGB('',0.509803950786591,0.509803950786591,0.588235318660736);
#243=CARTESIAN_POINT('',(5.57499999999993,2.17805011742526E-014,0.424999999999962));
#244=VECTOR('',#345,1.0);
#245=SURFACE_SIDE_STYLE('',(#346));
#246=EDGE_LOOP('',(#347,#348,#349,#350));
#247=AXIS2_PLACEMENT_3D('',#351,#352,#353);
#248=DRAUGHTING_PRE_DEFINED_CURVE_FONT('continuous');
#249=COLOUR_RGB('',0.509803950786591,0.509803950786591,0.588235318660736);
#250=AXIS2_PLACEMENT_3D('',#354,#355,#356);
#251=SURFACE_SIDE_STYLE('',(#357));
#252=EDGE_LOOP('',(#358,#359,#360,#361));
#253=AXIS2_PLACEMENT_3D('',#362,#363,#364);
#254=DRAUGHTING_PRE_DEFINED_CURVE_FONT('continuous');
#255=COLOUR_RGB('',0.509803950786591,0.509803950786591,0.588235318660736);
#256=AXIS2_PLACEMENT_3D('',#365,#366,#367);
#257=DRAUGHTING_PRE_DEFINED_CURVE_FONT('continuous');
#258=COLOUR_RGB('',0.509803950786591,0.509803950786591,0.588235318660736);
#259=AXIS2_PLACEMENT_3D('',#368,#369,#370);
#260=DRAUGHTING_PRE_DEFINED_CURVE_FONT('continuous');
#261=COLOUR_RGB('',0.509803950786591,0.509803950786591,0.588235318660736);
#262=CARTESIAN_POINT('',(-5.15000000000006,2.04660736949927E-014,10.5249999999999));
#263=VECTOR('',#371,1.0);
#264=SURFACE_SIDE_STYLE('',(#372));
#265=EDGE_LOOP('',(#373,#374));
#266=EDGE_LOOP('',(#375,#376));
#267=AXIS2_PLACEMENT_3D('',#377,#378,#379);
#268=DRAUGHTING_PRE_DEFINED_CURVE_FONT('continuous');
#269=COLOUR_RGB('',0.509803950786591,0.509803950786591,0.588235318660736);
#270=AXIS2_PLACEMENT_3D('',#380,#381,#382);
#271=SURFACE_SIDE_STYLE('',(#383));
#272=PRE_DEFINED_MARKER('');
#273=COLOUR_RGB('',0.509803950786591,0.509803950786591,0.588235318660736);
#274=SURFACE_SIDE_STYLE('',(#384));
#275=EDGE_LOOP('',(#385,#386,#387));
#276=AXIS2_PLACEMENT_3D('',#388,#389,#390);
#277=DRAUGHTING_PRE_DEFINED_CURVE_FONT('continuous');
#278=COLOUR_RGB('',0.509803950786591,0.509803950786591,0.588235318660736);
#279=CARTESIAN_POINT('',(5.14999999999995,2.17284143044451E-014,10.5249999999999));
#280=VECTOR('',#391,1.0);
#281=DRAUGHTING_PRE_DEFINED_CURVE_FONT('continuous');
#282=COLOUR_RGB('',0.509803950786591,0.509803950786591,0.588235318660736);
#283=CARTESIAN_POINT('',(-5.57500000000005,2.04139868251852E-014,0.424999999999962));
#284=VECTOR('',#392,1.0);
#285=PRE_DEFINED_MARKER('');
#286=COLOUR_RGB('',0.509803950786591,0.509803950786591,0.588235318660736);
#287=DRAUGHTING_PRE_DEFINED_CURVE_FONT('continuous');
#288=COLOUR_RGB('',0.509803950786591,0.509803950786591,0.588235318660736);
#289=AXIS2_PLACEMENT_3D('',#393,#394,#395);
#290=DRAUGHTING_PRE_DEFINED_CURVE_FONT('continuous');
#291=COLOUR_RGB('',0.509803950786591,0.509803950786591,0.588235318660736);
#292=AXIS2_PLACEMENT_3D('',#396,#397,#398);
#293=PRE_DEFINED_MARKER('');
#294=COLOUR_RGB('',0.509803950786591,0.509803950786591,0.588235318660736);
#295=DRAUGHTING_PRE_DEFINED_CURVE_FONT('continuous');
#296=COLOUR_RGB('',0.509803950786591,0.509803950786591,0.588235318660736);
#297=CARTESIAN_POINT('',(-2.57500000000006,2.07816588473558E-014,21.6866769431632));
#298=VECTOR('',#399,1.0);
#299=DRAUGHTING_PRE_DEFINED_CURVE_FONT('continuous');
#300=COLOUR_RGB('',0.509803950786591,0.509803950786591,0.588235318660736);
#301=AXIS2_PLACEMENT_3D('',#400,#401,#402);
#302=PRE_DEFINED_MARKER('');
#303=COLOUR_RGB('',0.509803950786591,0.509803950786591,0.588235318660736);
#304=PRE_DEFINED_MARKER('');
#305=COLOUR_RGB('',0.509803950786591,0.509803950786591,0.588235318660736);
#306=SURFACE_SIDE_STYLE('',(#403));
#307=EDGE_LOOP('',(#404,#405,#406));
#308=AXIS2_PLACEMENT_3D('',#407,#408,#409);
#309=PRE_DEFINED_MARKER('');
#310=COLOUR_RGB('',0.509803950786591,0.509803950786591,0.588235318660736);
#311=SURFACE_SIDE_STYLE('',(#410));
#312=EDGE_LOOP('',(#411,#412,#413));
#313=AXIS2_PLACEMENT_3D('',#414,#415,#416);
#314=SURFACE_SIDE_STYLE('',(#417));
#315=EDGE_LOOP('',(#418,#419,#420,#421));
#316=AXIS2_PLACEMENT_3D('',#422,#423,#424);
#317=PRE_DEFINED_MARKER('');
#318=COLOUR_RGB('',0.509803950786591,0.509803950786591,0.588235318660736);
#319=PRE_DEFINED_MARKER('');
#320=COLOUR_RGB('',0.509803950786591,0.509803950786591,0.588235318660736);
#321=PRE_DEFINED_MARKER('');
#322=COLOUR_RGB('',0.509803950786591,0.509803950786591,0.588235318660736);
#323=PRE_DEFINED_MARKER('');
#324=COLOUR_RGB('',0.509803950786591,0.509803950786591,0.588235318660736);
#325=SURFACE_SIDE_STYLE('',(#425));
#326=EDGE_LOOP('',(#426,#427,#428));
#327=AXIS2_PLACEMENT_3D('',#429,#430,#431);
#328=SURFACE_SIDE_STYLE('',(#432));
#329=EDGE_LOOP('',(#433,#434,#435,#436));
#330=AXIS2_PLACEMENT_3D('',#437,#438,#439);
#331=DRAUGHTING_PRE_DEFINED_CURVE_FONT('continuous');
#332=COLOUR_RGB('',0.509803950786591,0.509803950786591,0.588235318660736);
#333=AXIS2_PLACEMENT_3D('',#440,#441,#442);
#334=DRAUGHTING_PRE_DEFINED_CURVE_FONT('continuous');
#335=COLOUR_RGB('',0.509803950786591,0.509803950786591,0.588235318660736);
#336=CARTESIAN_POINT('',(2.57499999999995,2.1412829152082E-014,21.6866769431632));
#337=VECTOR('',#443,1.0);
#339=CARTESIAN_POINT('',(-5.6843418860808E-014,2.10972439997189E-014,0.849999999999952));
#340=DIRECTION('',(0.0,0.0,-1.0));
#341=DIRECTION('',(1.0,9.67053412983025E-020,0.0));
#342=CARTESIAN_POINT('',(-5.6843418860808E-014,2.10972439997189E-014,20.1999999999999));
#343=DIRECTION('',(0.0,0.0,-1.0));
#344=DIRECTION('',(1.0,9.67053412983025E-020,0.0));
#345=DIRECTION('',(0.707106781186542,8.66611267098018E-017,-0.707106781186553));
#346=SURFACE_STYLE_FILL_AREA(#444);
#347=ORIENTED_EDGE('',*,*,#88,.T.);
#348=ORIENTED_EDGE('',*,*,#60,.T.);
#349=ORIENTED_EDGE('',*,*,#76,.T.);
#350=ORIENTED_EDGE('',*,*,#62,.F.);
#351=CARTESIAN_POINT('',(-5.6843418860808E-014,2.10972439997189E-014,10.5249999999999));
#352=DIRECTION('',(-0.0,-0.0,1.0));
#353=DIRECTION('',(1.0,9.67053412983025E-020,0.0));
#354=CARTESIAN_POINT('',(-5.6843418860808E-014,2.10972439997189E-014,-2.8421709430404E-014));
#355=DIRECTION('',(0.0,0.0,-1.0));
#356=DIRECTION('',(1.0,9.67053412983025E-020,0.0));
#357=SURFACE_STYLE_FILL_AREA(#445);
#358=ORIENTED_EDGE('',*,*,#64,.T.);
#359=ORIENTED_EDGE('',*,*,#68,.T.);
#360=ORIENTED_EDGE('',*,*,#90,.T.);
#361=ORIENTED_EDGE('',*,*,#60,.F.);
#362=CARTESIAN_POINT('',(-5.6843418860808E-014,2.10972439997189E-014,0.424999999999962));
#363=DIRECTION('',(0.0,-0.0,-1.0));
#364=DIRECTION('',(1.0,9.67053412983025E-020,0.0));
#365=CARTESIAN_POINT('',(-5.6843418860808E-014,2.10972439997189E-014,20.1999999999999));
#366=DIRECTION('',(0.0,0.0,-1.0));
#367=DIRECTION('',(1.0,9.67053412983025E-020,0.0));
#368=CARTESIAN_POINT('',(-5.6843418860808E-014,2.10972439997189E-014,-1.4210854715202E-014));
#369=DIRECTION('',(0.0,0.0,-1.0));
#370=DIRECTION('',(1.0,9.67053412983025E-020,0.0));
#371=DIRECTION('',(-0.0,-0.0,1.0));
#372=SURFACE_STYLE_FILL_AREA(#446);
#373=ORIENTED_EDGE('',*,*,#68,.F.);
#374=ORIENTED_EDGE('',*,*,#94,.F.);
#375=ORIENTED_EDGE('',*,*,#74,.T.);
#376=ORIENTED_EDGE('',*,*,#80,.T.);
#377=CARTESIAN_POINT('',(9.78232998312519,2.39138386135104E-014,-2.1316282072803E-014));
#378=DIRECTION('',(0.0,0.0,-1.0));
#379=DIRECTION('',(-1.0,0.0,0.0));
#380=CARTESIAN_POINT('',(-5.6843418860808E-014,2.10972439997189E-014,-1.4210854715202E-014));
#381=DIRECTION('',(0.0,0.0,-1.0));
#382=DIRECTION('',(1.0,9.67053412983025E-020,0.0));
#383=SURFACE_STYLE_FILL_AREA(#447);
#384=SURFACE_STYLE_FILL_AREA(#448);
#385=ORIENTED_EDGE('',*,*,#102,.F.);
#386=ORIENTED_EDGE('',*,*,#96,.F.);
#387=ORIENTED_EDGE('',*,*,#80,.F.);
#388=CARTESIAN_POINT('',(-5.52934162812221E-014,2.26280019419969E-014,21.0));
#389=DIRECTION('',(0.0,0.0,-1.0));
#390=DIRECTION('',(-1.0,0.0,0.0));
#391=DIRECTION('',(-0.0,-0.0,-1.0));
#392=DIRECTION('',(0.707106781186542,8.66611267098018E-017,0.707106781186553));
#393=CARTESIAN_POINT('',(-5.6843418860808E-014,2.10972439997189E-014,-2.8421709430404E-014));
#394=DIRECTION('',(0.0,0.0,-1.0));
#395=DIRECTION('',(1.0,9.67053412983025E-020,0.0));
#396=CARTESIAN_POINT('',(-5.52934162812221E-014,2.26280019419969E-014,21.0));
#397=DIRECTION('',(1.22460635382238E-016,-1.0,0.0));
#398=DIRECTION('',(0.0,0.0,1.0));
#399=DIRECTION('',(0.866025403784436,1.06137770486847E-016,0.500000000000004));
#400=CARTESIAN_POINT('',(-5.52934162812221E-014,2.26280019419969E-014,21.0));
#401=DIRECTION('',(1.22460635382238E-016,-1.0,0.0));
#402=DIRECTION('',(0.0,0.0,1.0));
#403=SURFACE_STYLE_FILL_AREA(#449);
#404=ORIENTED_EDGE('',*,*,#102,.T.);
#405=ORIENTED_EDGE('',*,*,#74,.F.);
#406=ORIENTED_EDGE('',*,*,#96,.T.);
#407=CARTESIAN_POINT('',(-5.52934162812221E-014,2.26280019419969E-014,21.0));
#408=DIRECTION('',(0.0,0.0,-1.0));
#409=DIRECTION('',(-1.0,0.0,0.0));
#410=SURFACE_STYLE_FILL_AREA(#450);
#411=ORIENTED_EDGE('',*,*,#100,.F.);
#412=ORIENTED_EDGE('',*,*,#72,.T.);
#413=ORIENTED_EDGE('',*,*,#130,.F.);
#414=CARTESIAN_POINT('',(-5.6843418860808E-014,2.10972439997189E-014,21.6866769431632));
#415=DIRECTION('',(0.0,-0.0,-1.0));
#416=DIRECTION('',(1.0,9.67053412983025E-020,0.0));
#417=SURFACE_STYLE_FILL_AREA(#451);
#418=ORIENTED_EDGE('',*,*,#88,.F.);
#419=ORIENTED_EDGE('',*,*,#72,.F.);
#420=ORIENTED_EDGE('',*,*,#76,.F.);
#421=ORIENTED_EDGE('',*,*,#128,.T.);
#422=CARTESIAN_POINT('',(-5.6843418860808E-014,2.10972439997189E-014,10.5249999999999));
#423=DIRECTION('',(-0.0,-0.0,1.0));
#424=DIRECTION('',(1.0,9.67053412983025E-020,0.0));
#425=SURFACE_STYLE_FILL_AREA(#452);
#426=ORIENTED_EDGE('',*,*,#100,.T.);
#427=ORIENTED_EDGE('',*,*,#130,.T.);
#428=ORIENTED_EDGE('',*,*,#62,.T.);
#429=CARTESIAN_POINT('',(-5.6843418860808E-014,2.10972439997189E-014,21.6866769431632));
#430=DIRECTION('',(0.0,-0.0,-1.0));
#431=DIRECTION('',(1.0,9.67053412983025E-020,0.0));
#432=SURFACE_STYLE_FILL_AREA(#453);
#433=ORIENTED_EDGE('',*,*,#64,.F.);
#434=ORIENTED_EDGE('',*,*,#128,.F.);
#435=ORIENTED_EDGE('',*,*,#90,.F.);
#436=ORIENTED_EDGE('',*,*,#94,.T.);
#437=CARTESIAN_POINT('',(-5.6843418860808E-014,2.10972439997189E-014,0.424999999999962));
#438=DIRECTION('',(0.0,-0.0,-1.0));
#439=DIRECTION('',(1.0,9.67053412983025E-020,0.0));
#440=CARTESIAN_POINT('',(-5.6843418860808E-014,2.10972439997189E-014,0.849999999999952));
#441=DIRECTION('',(0.0,0.0,-1.0));
#442=DIRECTION('',(1.0,9.67053412983025E-020,0.0));
#443=DIRECTION('',(0.866025403784436,1.06137770486847E-016,-0.500000000000004));
#444=FILL_AREA_STYLE('',(#454));
#445=FILL_AREA_STYLE('',(#455));
#446=FILL_AREA_STYLE('',(#456));
#447=FILL_AREA_STYLE('',(#457));
#448=FILL_AREA_STYLE('',(#458));
#449=FILL_AREA_STYLE('',(#459));
#450=FILL_AREA_STYLE('',(#460));
#451=FILL_AREA_STYLE('',(#461));
#452=FILL_AREA_STYLE('',(#462));
#453=FILL_AREA_STYLE('',(#463));
#454=FILL_AREA_STYLE_COLOUR('',#464);
#455=FILL_AREA_STYLE_COLOUR('',#465);
#456=FILL_AREA_STYLE_COLOUR('',#466);
#457=FILL_AREA_STYLE_COLOUR('',#467);
#458=FILL_AREA_STYLE_COLOUR('',#468);
#459=FILL_AREA_STYLE_COLOUR('',#469);
#460=FILL_AREA_STYLE_COLOUR('',#470);
#461=FILL_AREA_STYLE_COLOUR('',#471);
#462=FILL_AREA_STYLE_COLOUR('',#472);
#463=FILL_AREA_STYLE_COLOUR('',#473);
#464=COLOUR_RGB('',0.509803950786591,0.509803950786591,0.588235318660736);
#465=COLOUR_RGB('',0.509803950786591,0.509803950786591,0.588235318660736);
#466=COLOUR_RGB('',0.509803950786591,0.509803950786591,0.588235318660736);
#467=COLOUR_RGB('',0.509803950786591,0.509803950786591,0.588235318660736);
#468=COLOUR_RGB('',0.509803950786591,0.509803950786591,0.588235318660736);
#469=COLOUR_RGB('',0.509803950786591,0.509803950786591,0.588235318660736);
#470=COLOUR_RGB('',0.509803950786591,0.509803950786591,0.588235318660736);
#471=COLOUR_RGB('',0.509803950786591,0.509803950786591,0.588235318660736);
#472=COLOUR_RGB('',0.509803950786591,0.509803950786591,0.588235318660736);
#473=COLOUR_RGB('',0.509803950786591,0.509803950786591,0.588235318660736);
ENDSEC;
END-ISO-10303-21;
