ISO-10303-21;
HEADER;
FILE_DESCRIPTION(('STEP AP214'),'1');
FILE_NAME(' ','  ',('TraceParts'),('TraceParts S.A.'),'XStep 1.0',' ',' ');
FILE_SCHEMA(('automotive_design'));
ENDSEC;
DATA;
#1=MECHANICAL_DESIGN_GEOMETRIC_PRESENTATION_REPRESENTATION(' ',(#10,#11,#12,#13,#14,#15,#16,#17,#18,#19,#20,#21,#22,#23,#24,#25,#26,#27,#28,#29,#30,#31,#32,#33,#34,#35,#36,#37,#38,#39,#40,#41,#42,#43,#44,#45),#6);
#2=PRODUCT_DEFINITION_CONTEXT('',#46,'design');
#3=APPLICATION_PROTOCOL_DEFINITION('INTERNATIONAL STANDARD','automotive_design',1994,#46);
#4=PRODUCT_CATEGORY_RELATIONSHIP('NONE','NONE',#47,#48);
#5=SHAPE_DEFINITION_REPRESENTATION(#49,#50);
#6= (GEOMETRIC_REPRESENTATION_CONTEXT(3)GLOBAL_UNCERTAINTY_ASSIGNED_CONTEXT((#53))GLOBAL_UNIT_ASSIGNED_CONTEXT((#55,#56,#57))REPRESENTATION_CONTEXT('NONE','WORKSPACE'));
#10=STYLED_ITEM('',(#59),#60);
#11=STYLED_ITEM('',(#61),#62);
#12=STYLED_ITEM('',(#63),#64);
#13=STYLED_ITEM('',(#65),#66);
#14=STYLED_ITEM('',(#67),#68);
#15=STYLED_ITEM('',(#69),#70);
#16=STYLED_ITEM('',(#71),#72);
#17=STYLED_ITEM('',(#73),#74);
#18=STYLED_ITEM('',(#75),#76);
#19=STYLED_ITEM('',(#77),#78);
#20=STYLED_ITEM('',(#79),#80);
#21=STYLED_ITEM('',(#81),#82);
#22=STYLED_ITEM('',(#83),#84);
#23=STYLED_ITEM('',(#85),#86);
#24=STYLED_ITEM('',(#87),#88);
#25=STYLED_ITEM('',(#89),#90);
#26=STYLED_ITEM('',(#91),#92);
#27=STYLED_ITEM('',(#93),#94);
#28=STYLED_ITEM('',(#95),#96);
#29=STYLED_ITEM('',(#97),#98);
#30=STYLED_ITEM('',(#99),#100);
#31=STYLED_ITEM('',(#101),#102);
#32=STYLED_ITEM('',(#103),#104);
#33=STYLED_ITEM('',(#105),#106);
#34=STYLED_ITEM('',(#107),#108);
#35=STYLED_ITEM('',(#109),#110);
#36=STYLED_ITEM('',(#111),#112);
#37=STYLED_ITEM('',(#113),#114);
#38=STYLED_ITEM('',(#115),#116);
#39=STYLED_ITEM('',(#117),#118);
#40=STYLED_ITEM('',(#119),#120);
#41=STYLED_ITEM('',(#121),#122);
#42=STYLED_ITEM('',(#123),#124);
#43=STYLED_ITEM('',(#125),#126);
#44=STYLED_ITEM('',(#127),#128);
#45=STYLED_ITEM('',(#129),#130);
#46=APPLICATION_CONTEXT(' ');
#47=PRODUCT_CATEGORY('part','NONE');
#48=PRODUCT_RELATED_PRODUCT_CATEGORY('detail',' ',(#131));
#49=PRODUCT_DEFINITION_SHAPE('NONE','NONE',#132);
#50=ADVANCED_BREP_SHAPE_REPRESENTATION('1',(#92,#133),#6);
#53=UNCERTAINTY_MEASURE_WITH_UNIT(LENGTH_MEASURE(1.0E-006),#55,'','');
#55= (CONVERSION_BASED_UNIT('MILLIMETRE',#136)LENGTH_UNIT()NAMED_UNIT(#139));
#56= (NAMED_UNIT(#141)PLANE_ANGLE_UNIT()SI_UNIT($,.RADIAN.));
#57= (NAMED_UNIT(#141)SOLID_ANGLE_UNIT()SI_UNIT($,.STERADIAN.));
#59=PRESENTATION_STYLE_ASSIGNMENT((#147));
#60=EDGE_CURVE('',#66,#114,#148,.T.);
#61=PRESENTATION_STYLE_ASSIGNMENT((#149));
#62=EDGE_CURVE('',#114,#130,#150,.T.);
#63=PRESENTATION_STYLE_ASSIGNMENT((#151));
#64=EDGE_CURVE('',#130,#96,#152,.T.);
#65=PRESENTATION_STYLE_ASSIGNMENT((#153));
#66=VERTEX_POINT('',#154);
#67=PRESENTATION_STYLE_ASSIGNMENT((#155));
#68=ADVANCED_FACE('',(#156),#157,.T.);
#69=PRESENTATION_STYLE_ASSIGNMENT((#158));
#70=EDGE_CURVE('',#88,#90,#159,.T.);
#71=PRESENTATION_STYLE_ASSIGNMENT((#160));
#72=ADVANCED_FACE('',(#161),#162,.F.);
#73=PRESENTATION_STYLE_ASSIGNMENT((#163));
#74=ADVANCED_FACE('',(#164,#165),#166,.T.);
#75=PRESENTATION_STYLE_ASSIGNMENT((#167));
#76=EDGE_CURVE('',#108,#122,#168,.T.);
#77=PRESENTATION_STYLE_ASSIGNMENT((#169));
#78=EDGE_CURVE('',#130,#86,#170,.T.);
#79=PRESENTATION_STYLE_ASSIGNMENT((#171));
#80=ADVANCED_FACE('',(#172),#173,.F.);
#81=PRESENTATION_STYLE_ASSIGNMENT((#174));
#82=ADVANCED_FACE('',(#175),#176,.F.);
#83=PRESENTATION_STYLE_ASSIGNMENT((#177));
#84=EDGE_CURVE('',#122,#108,#178,.T.);
#85=PRESENTATION_STYLE_ASSIGNMENT((#179));
#86=VERTEX_POINT('',#180);
#87=PRESENTATION_STYLE_ASSIGNMENT((#181));
#88=VERTEX_POINT('',#182);
#89=PRESENTATION_STYLE_ASSIGNMENT((#183));
#90=VERTEX_POINT('',#184);
#91=PRESENTATION_STYLE_ASSIGNMENT((#185));
#92=MANIFOLD_SOLID_BREP('1',#186);
#93=PRESENTATION_STYLE_ASSIGNMENT((#187));
#94=ADVANCED_FACE('',(#188),#189,.F.);
#95=PRESENTATION_STYLE_ASSIGNMENT((#190));
#96=VERTEX_POINT('',#191);
#97=PRESENTATION_STYLE_ASSIGNMENT((#192));
#98=EDGE_CURVE('',#96,#86,#193,.T.);
#99=PRESENTATION_STYLE_ASSIGNMENT((#194));
#100=ADVANCED_FACE('',(#195),#196,.F.);
#101=PRESENTATION_STYLE_ASSIGNMENT((#197));
#102=EDGE_CURVE('',#108,#128,#198,.T.);
#103=PRESENTATION_STYLE_ASSIGNMENT((#199));
#104=ADVANCED_FACE('',(#200),#201,.F.);
#105=PRESENTATION_STYLE_ASSIGNMENT((#202));
#106=EDGE_CURVE('',#90,#88,#203,.T.);
#107=PRESENTATION_STYLE_ASSIGNMENT((#204));
#108=VERTEX_POINT('',#205);
#109=PRESENTATION_STYLE_ASSIGNMENT((#206));
#110=EDGE_CURVE('',#66,#88,#207,.T.);
#111=PRESENTATION_STYLE_ASSIGNMENT((#208));
#112=EDGE_CURVE('',#90,#114,#209,.T.);
#113=PRESENTATION_STYLE_ASSIGNMENT((#210));
#114=VERTEX_POINT('',#211);
#115=PRESENTATION_STYLE_ASSIGNMENT((#212));
#116=EDGE_CURVE('',#128,#122,#213,.T.);
#117=PRESENTATION_STYLE_ASSIGNMENT((#214));
#118=ADVANCED_FACE('',(#215),#216,.T.);
#119=PRESENTATION_STYLE_ASSIGNMENT((#217));
#120=EDGE_CURVE('',#86,#130,#218,.T.);
#121=PRESENTATION_STYLE_ASSIGNMENT((#219));
#122=VERTEX_POINT('',#220);
#123=PRESENTATION_STYLE_ASSIGNMENT((#221));
#124=EDGE_CURVE('',#86,#66,#222,.T.);
#125=PRESENTATION_STYLE_ASSIGNMENT((#223));
#126=EDGE_CURVE('',#114,#66,#224,.T.);
#127=PRESENTATION_STYLE_ASSIGNMENT((#225));
#128=VERTEX_POINT('',#226);
#129=PRESENTATION_STYLE_ASSIGNMENT((#227));
#130=VERTEX_POINT('',#228);
#131=PRODUCT('1','1','PART-1-DESC',(#229));
#132=PRODUCT_DEFINITION('NONE','NONE',#230,#2);
#133=AXIS2_PLACEMENT_3D('',#231,#232,#233);
#136=LENGTH_MEASURE_WITH_UNIT(LENGTH_MEASURE(1.0),#234);
#139=DIMENSIONAL_EXPONENTS(1.0,0.0,0.0,0.0,0.0,0.0,0.0);
#141=DIMENSIONAL_EXPONENTS(0.0,0.0,0.0,0.0,0.0,0.0,0.0);
#147=CURVE_STYLE('',#235,POSITIVE_LENGTH_MEASURE(1.0E-006),#236);
#148=CIRCLE('',#237,4.25);
#149=CURVE_STYLE('',#238,POSITIVE_LENGTH_MEASURE(1.0E-006),#239);
#150=LINE('',#240,#241);
#151=CURVE_STYLE('',#242,POSITIVE_LENGTH_MEASURE(1.0E-006),#243);
#152=LINE('',#244,#245);
#153=POINT_STYLE(' ',#246,POSITIVE_LENGTH_MEASURE(1.0E-006),#247);
#154=CARTESIAN_POINT('',(4.24999999999994,2.3316843016022E-014,0.749999999999915));
#155=SURFACE_STYLE_USAGE(.BOTH.,#248);
#156=FACE_OUTER_BOUND('',#249,.T.);
#157=SPHERICAL_SURFACE('',#250,20.0);
#158=CURVE_STYLE('',#251,POSITIVE_LENGTH_MEASURE(1.0E-006),#252);
#159=CIRCLE('',#253,4.99999999999997);
#160=SURFACE_STYLE_USAGE(.BOTH.,#254);
#161=FACE_OUTER_BOUND('',#255,.T.);
#162=CONICAL_SURFACE('',#256,4.62499999999999,0.785398163397467);
#163=SURFACE_STYLE_USAGE(.BOTH.,#257);
#164=FACE_BOUND('',#258,.T.);
#165=FACE_OUTER_BOUND('',#259,.T.);
#166=PLANE('',#260);
#167=CURVE_STYLE('',#261,POSITIVE_LENGTH_MEASURE(1.0E-006),#262);
#168=CIRCLE('',#263,10.5356537528528);
#169=CURVE_STYLE('',#264,POSITIVE_LENGTH_MEASURE(1.0E-006),#265);
#170=CIRCLE('',#266,4.25);
#171=SURFACE_STYLE_USAGE(.BOTH.,#267);
#172=FACE_OUTER_BOUND('',#268,.T.);
#173=CONICAL_SURFACE('',#269,2.125,1.0471975511966);
#174=SURFACE_STYLE_USAGE(.BOTH.,#270);
#175=FACE_OUTER_BOUND('',#271,.T.);
#176=CYLINDRICAL_SURFACE('',#272,4.25);
#177=CURVE_STYLE('',#273,POSITIVE_LENGTH_MEASURE(1.0E-006),#274);
#178=CIRCLE('',#275,10.5356537528528);
#179=POINT_STYLE(' ',#276,POSITIVE_LENGTH_MEASURE(1.0E-006),#277);
#180=CARTESIAN_POINT('',(4.24999999999994,2.23218503535413E-014,17.0));
#181=POINT_STYLE(' ',#278,POSITIVE_LENGTH_MEASURE(1.0E-006),#279);
#182=CARTESIAN_POINT('',(4.99999999999991,2.33627657542903E-014,-2.8421709430404E-014));
#183=POINT_STYLE(' ',#280,POSITIVE_LENGTH_MEASURE(1.0E-006),#281);
#184=CARTESIAN_POINT('',(-5.00000000000003,2.0484453774806E-014,-2.8421709430404E-014));
#185=SURFACE_STYLE_USAGE(.BOTH.,#282);
#186=CLOSED_SHELL('',(#104,#100,#94,#68,#118,#74,#72,#82,#80));
#187=SURFACE_STYLE_USAGE(.BOTH.,#283);
#188=FACE_OUTER_BOUND('',#284,.T.);
#189=CONICAL_SURFACE('',#285,4.62499999999999,0.785398163397467);
#190=POINT_STYLE(' ',#286,POSITIVE_LENGTH_MEASURE(1.0E-006),#287);
#191=CARTESIAN_POINT('',(-5.6843418860808E-014,2.21716071568347E-014,19.4537386440559));
#192=CURVE_STYLE('',#288,POSITIVE_LENGTH_MEASURE(1.0E-006),#289);
#193=LINE('',#290,#291);
#194=SURFACE_STYLE_USAGE(.BOTH.,#292);
#195=FACE_OUTER_BOUND('',#293,.T.);
#196=CYLINDRICAL_SURFACE('',#294,4.25);
#197=CURVE_STYLE('',#295,POSITIVE_LENGTH_MEASURE(1.0E-006),#296);
#198=CIRCLE('',#297,20.0);
#199=SURFACE_STYLE_USAGE(.BOTH.,#298);
#200=FACE_OUTER_BOUND('',#299,.T.);
#201=CONICAL_SURFACE('',#300,2.125,1.0471975511966);
#202=CURVE_STYLE('',#301,POSITIVE_LENGTH_MEASURE(1.0E-006),#302);
#203=CIRCLE('',#303,4.99999999999997);
#204=POINT_STYLE(' ',#304,POSITIVE_LENGTH_MEASURE(1.0E-006),#305);
#205=CARTESIAN_POINT('',(10.5356537528527,2.33627657542903E-014,-5.6843418860808E-014));
#206=CURVE_STYLE('',#306,POSITIVE_LENGTH_MEASURE(1.0E-006),#307);
#207=LINE('',#308,#309);
#208=CURVE_STYLE('',#310,POSITIVE_LENGTH_MEASURE(1.0E-006),#311);
#209=LINE('',#312,#313);
#210=POINT_STYLE(' ',#314,POSITIVE_LENGTH_MEASURE(1.0E-006),#315);
#211=CARTESIAN_POINT('',(-4.25000000000006,2.05763723085429E-014,0.749999999999915));
#212=CURVE_STYLE('',#316,POSITIVE_LENGTH_MEASURE(1.0E-006),#317);
#213=CIRCLE('',#318,20.0);
#214=SURFACE_STYLE_USAGE(.BOTH.,#319);
#215=FACE_OUTER_BOUND('',#320,.T.);
#216=SPHERICAL_SURFACE('',#321,20.0);
#217=CURVE_STYLE('',#322,POSITIVE_LENGTH_MEASURE(1.0E-006),#323);
#218=CIRCLE('',#324,4.25);
#219=POINT_STYLE(' ',#325,POSITIVE_LENGTH_MEASURE(1.0E-006),#326);
#220=CARTESIAN_POINT('',(-10.5356537528528,2.10316475007997E-014,-5.6843418860808E-014));
#221=CURVE_STYLE('',#327,POSITIVE_LENGTH_MEASURE(1.0E-006),#328);
#222=LINE('',#329,#330);
#223=CURVE_STYLE('',#331,POSITIVE_LENGTH_MEASURE(1.0E-006),#332);
#224=CIRCLE('',#333,4.25);
#225=POINT_STYLE(' ',#334,POSITIVE_LENGTH_MEASURE(1.0E-006),#335);
#226=CARTESIAN_POINT('',(-5.6843418860808E-014,2.10972439997189E-014,37.0));
#227=POINT_STYLE(' ',#336,POSITIVE_LENGTH_MEASURE(1.0E-006),#337);
#228=CARTESIAN_POINT('',(-4.25000000000006,2.05763723085429E-014,17.0));
#229=PRODUCT_CONTEXT('',#46,'mechanical');
#230=PRODUCT_DEFINITION_FORMATION_WITH_SPECIFIED_SOURCE(' ','NONE',#131,.NOT_KNOWN.);
#231=CARTESIAN_POINT('',(0.0,0.0,0.0));
#232=DIRECTION('',(0.0,0.0,1.0));
#233=DIRECTION('',(1.0,0.0,0.0));
#234= (NAMED_UNIT(#139)LENGTH_UNIT()SI_UNIT(.MILLI.,.METRE.));
#235=DRAUGHTING_PRE_DEFINED_CURVE_FONT('continuous');
#236=COLOUR_RGB('',0.509803950786591,0.509803950786591,0.588235318660736);
#237=AXIS2_PLACEMENT_3D('',#339,#340,#341);
#238=DRAUGHTING_PRE_DEFINED_CURVE_FONT('continuous');
#239=COLOUR_RGB('',0.509803950786591,0.509803950786591,0.588235318660736);
#240=CARTESIAN_POINT('',(-4.25000000000006,2.05763723085429E-014,8.87499999999994));
#241=VECTOR('',#342,1.0);
#242=DRAUGHTING_PRE_DEFINED_CURVE_FONT('continuous');
#243=COLOUR_RGB('',0.509803950786591,0.509803950786591,0.588235318660736);
#244=CARTESIAN_POINT('',(-2.12500000000006,2.08368081541309E-014,18.2268693220279));
#245=VECTOR('',#343,1.0);
#246=PRE_DEFINED_MARKER('');
#247=COLOUR_RGB('',0.509803950786591,0.509803950786591,0.588235318660736);
#248=SURFACE_SIDE_STYLE('',(#344));
#249=EDGE_LOOP('',(#345,#346,#347));
#250=AXIS2_PLACEMENT_3D('',#348,#349,#350);
#251=DRAUGHTING_PRE_DEFINED_CURVE_FONT('continuous');
#252=COLOUR_RGB('',0.509803950786591,0.509803950786591,0.588235318660736);
#253=AXIS2_PLACEMENT_3D('',#351,#352,#353);
#254=SURFACE_SIDE_STYLE('',(#354));
#255=EDGE_LOOP('',(#355,#356,#357,#358));
#256=AXIS2_PLACEMENT_3D('',#359,#360,#361);
#257=SURFACE_SIDE_STYLE('',(#362));
#258=EDGE_LOOP('',(#363,#364));
#259=EDGE_LOOP('',(#365,#366));
#260=AXIS2_PLACEMENT_3D('',#367,#368,#369);
#261=DRAUGHTING_PRE_DEFINED_CURVE_FONT('continuous');
#262=COLOUR_RGB('',0.509803950786591,0.509803950786591,0.588235318660736);
#263=AXIS2_PLACEMENT_3D('',#370,#371,#372);
#264=DRAUGHTING_PRE_DEFINED_CURVE_FONT('continuous');
#265=COLOUR_RGB('',0.509803950786591,0.509803950786591,0.588235318660736);
#266=AXIS2_PLACEMENT_3D('',#373,#374,#375);
#267=SURFACE_SIDE_STYLE('',(#376));
#268=EDGE_LOOP('',(#377,#378,#379));
#269=AXIS2_PLACEMENT_3D('',#380,#381,#382);
#270=SURFACE_SIDE_STYLE('',(#383));
#271=EDGE_LOOP('',(#384,#385,#386,#387));
#272=AXIS2_PLACEMENT_3D('',#388,#389,#390);
#273=DRAUGHTING_PRE_DEFINED_CURVE_FONT('continuous');
#274=COLOUR_RGB('',0.509803950786591,0.509803950786591,0.588235318660736);
#275=AXIS2_PLACEMENT_3D('',#391,#392,#393);
#276=PRE_DEFINED_MARKER('');
#277=COLOUR_RGB('',0.509803950786591,0.509803950786591,0.588235318660736);
#278=PRE_DEFINED_MARKER('');
#279=COLOUR_RGB('',0.509803950786591,0.509803950786591,0.588235318660736);
#280=PRE_DEFINED_MARKER('');
#281=COLOUR_RGB('',0.509803950786591,0.509803950786591,0.588235318660736);
#282=SURFACE_SIDE_STYLE('',(#394));
#283=SURFACE_SIDE_STYLE('',(#395));
#284=EDGE_LOOP('',(#396,#397,#398,#399));
#285=AXIS2_PLACEMENT_3D('',#400,#401,#402);
#286=PRE_DEFINED_MARKER('');
#287=COLOUR_RGB('',0.509803950786591,0.509803950786591,0.588235318660736);
#288=DRAUGHTING_PRE_DEFINED_CURVE_FONT('continuous');
#289=COLOUR_RGB('',0.509803950786591,0.509803950786591,0.588235318660736);
#290=CARTESIAN_POINT('',(2.12499999999994,2.13576798453069E-014,18.2268693220279));
#291=VECTOR('',#403,1.0);
#292=SURFACE_SIDE_STYLE('',(#404));
#293=EDGE_LOOP('',(#405,#406,#407,#408));
#294=AXIS2_PLACEMENT_3D('',#409,#410,#411);
#295=DRAUGHTING_PRE_DEFINED_CURVE_FONT('continuous');
#296=COLOUR_RGB('',0.509803950786591,0.509803950786591,0.588235318660736);
#297=AXIS2_PLACEMENT_3D('',#412,#413,#414);
#298=SURFACE_SIDE_STYLE('',(#415));
#299=EDGE_LOOP('',(#416,#417,#418));
#300=AXIS2_PLACEMENT_3D('',#419,#420,#421);
#301=DRAUGHTING_PRE_DEFINED_CURVE_FONT('continuous');
#302=COLOUR_RGB('',0.509803950786591,0.509803950786591,0.588235318660736);
#303=AXIS2_PLACEMENT_3D('',#422,#423,#424);
#304=PRE_DEFINED_MARKER('');
#305=COLOUR_RGB('',0.509803950786591,0.509803950786591,0.588235318660736);
#306=DRAUGHTING_PRE_DEFINED_CURVE_FONT('continuous');
#307=COLOUR_RGB('',0.509803950786591,0.509803950786591,0.588235318660736);
#308=CARTESIAN_POINT('',(4.62499999999993,2.16640749577633E-014,0.374999999999943));
#309=VECTOR('',#425,1.0);
#310=DRAUGHTING_PRE_DEFINED_CURVE_FONT('continuous');
#311=COLOUR_RGB('',0.509803950786591,0.509803950786591,0.588235318660736);
#312=CARTESIAN_POINT('',(-4.62500000000004,2.05304130416745E-014,0.374999999999943));
#313=VECTOR('',#426,1.0);
#314=PRE_DEFINED_MARKER('');
#315=COLOUR_RGB('',0.509803950786591,0.509803950786591,0.588235318660736);
#316=DRAUGHTING_PRE_DEFINED_CURVE_FONT('continuous');
#317=COLOUR_RGB('',0.509803950786591,0.509803950786591,0.588235318660736);
#318=AXIS2_PLACEMENT_3D('',#427,#428,#429);
#319=SURFACE_SIDE_STYLE('',(#430));
#320=EDGE_LOOP('',(#431,#432,#433));
#321=AXIS2_PLACEMENT_3D('',#434,#435,#436);
#322=DRAUGHTING_PRE_DEFINED_CURVE_FONT('continuous');
#323=COLOUR_RGB('',0.509803950786591,0.509803950786591,0.588235318660736);
#324=AXIS2_PLACEMENT_3D('',#437,#438,#439);
#325=PRE_DEFINED_MARKER('');
#326=COLOUR_RGB('',0.509803950786591,0.509803950786591,0.588235318660736);
#327=DRAUGHTING_PRE_DEFINED_CURVE_FONT('continuous');
#328=COLOUR_RGB('',0.509803950786591,0.509803950786591,0.588235318660736);
#329=CARTESIAN_POINT('',(4.24999999999994,2.16181156908949E-014,8.87499999999994));
#330=VECTOR('',#440,1.0);
#331=DRAUGHTING_PRE_DEFINED_CURVE_FONT('continuous');
#332=COLOUR_RGB('',0.509803950786591,0.509803950786591,0.588235318660736);
#333=AXIS2_PLACEMENT_3D('',#441,#442,#443);
#334=PRE_DEFINED_MARKER('');
#335=COLOUR_RGB('',0.509803950786591,0.509803950786591,0.588235318660736);
#336=PRE_DEFINED_MARKER('');
#337=COLOUR_RGB('',0.509803950786591,0.509803950786591,0.588235318660736);
#339=CARTESIAN_POINT('',(-5.6843418860808E-014,2.10972439997189E-014,0.749999999999915));
#340=DIRECTION('',(0.0,0.0,-1.0));
#341=DIRECTION('',(1.0,9.74096003418976E-020,0.0));
#342=DIRECTION('',(-0.0,-0.0,1.0));
#343=DIRECTION('',(0.866025403784438,1.0613838039307E-016,0.500000000000002));
#344=SURFACE_STYLE_FILL_AREA(#444);
#345=ORIENTED_EDGE('',*,*,#116,.F.);
#346=ORIENTED_EDGE('',*,*,#102,.F.);
#347=ORIENTED_EDGE('',*,*,#84,.F.);
#348=CARTESIAN_POINT('',(-5.03071145750497E-014,2.23218503535413E-014,17.0));
#349=DIRECTION('',(0.0,0.0,-1.0));
#350=DIRECTION('',(-1.0,0.0,0.0));
#351=CARTESIAN_POINT('',(-5.6843418860808E-014,2.10972439997189E-014,-2.8421709430404E-014));
#352=DIRECTION('',(0.0,0.0,-1.0));
#353=DIRECTION('',(1.0,9.74096003418976E-020,0.0));
#354=SURFACE_STYLE_FILL_AREA(#445);
#355=ORIENTED_EDGE('',*,*,#110,.T.);
#356=ORIENTED_EDGE('',*,*,#70,.T.);
#357=ORIENTED_EDGE('',*,*,#112,.T.);
#358=ORIENTED_EDGE('',*,*,#60,.F.);
#359=CARTESIAN_POINT('',(-5.6843418860808E-014,2.10972439997189E-014,0.374999999999943));
#360=DIRECTION('',(0.0,-0.0,-1.0));
#361=DIRECTION('',(1.0,9.74096003418976E-020,0.0));
#362=SURFACE_STYLE_FILL_AREA(#446);
#363=ORIENTED_EDGE('',*,*,#70,.F.);
#364=ORIENTED_EDGE('',*,*,#106,.F.);
#365=ORIENTED_EDGE('',*,*,#76,.T.);
#366=ORIENTED_EDGE('',*,*,#84,.T.);
#367=CARTESIAN_POINT('',(7.76782687642631,2.33627657542903E-014,-4.2632564145606E-014));
#368=DIRECTION('',(0.0,0.0,-1.0));
#369=DIRECTION('',(-1.0,0.0,0.0));
#370=CARTESIAN_POINT('',(-5.6843418860808E-014,2.10972439997189E-014,-5.6843418860808E-014));
#371=DIRECTION('',(0.0,0.0,-1.0));
#372=DIRECTION('',(1.0,9.74096003418976E-020,0.0));
#373=CARTESIAN_POINT('',(-5.6843418860808E-014,2.10972439997189E-014,17.0));
#374=DIRECTION('',(0.0,0.0,-1.0));
#375=DIRECTION('',(1.0,9.74096003418976E-020,0.0));
#376=SURFACE_STYLE_FILL_AREA(#447);
#377=ORIENTED_EDGE('',*,*,#64,.F.);
#378=ORIENTED_EDGE('',*,*,#78,.T.);
#379=ORIENTED_EDGE('',*,*,#98,.F.);
#380=CARTESIAN_POINT('',(-5.6843418860808E-014,2.10972439997189E-014,18.2268693220279));
#381=DIRECTION('',(0.0,-0.0,-1.0));
#382=DIRECTION('',(1.0,9.74096003418976E-020,0.0));
#383=SURFACE_STYLE_FILL_AREA(#448);
#384=ORIENTED_EDGE('',*,*,#124,.T.);
#385=ORIENTED_EDGE('',*,*,#60,.T.);
#386=ORIENTED_EDGE('',*,*,#62,.T.);
#387=ORIENTED_EDGE('',*,*,#120,.F.);
#388=CARTESIAN_POINT('',(-5.6843418860808E-014,2.10972439997189E-014,8.87499999999994));
#389=DIRECTION('',(-0.0,-0.0,1.0));
#390=DIRECTION('',(1.0,9.74096003418976E-020,0.0));
#391=CARTESIAN_POINT('',(-5.6843418860808E-014,2.10972439997189E-014,-5.6843418860808E-014));
#392=DIRECTION('',(0.0,0.0,-1.0));
#393=DIRECTION('',(1.0,9.74096003418976E-020,0.0));
#394=SURFACE_STYLE_FILL_AREA(#449);
#395=SURFACE_STYLE_FILL_AREA(#450);
#396=ORIENTED_EDGE('',*,*,#110,.F.);
#397=ORIENTED_EDGE('',*,*,#126,.F.);
#398=ORIENTED_EDGE('',*,*,#112,.F.);
#399=ORIENTED_EDGE('',*,*,#106,.T.);
#400=CARTESIAN_POINT('',(-5.6843418860808E-014,2.10972439997189E-014,0.374999999999943));
#401=DIRECTION('',(0.0,-0.0,-1.0));
#402=DIRECTION('',(1.0,9.74096003418976E-020,0.0));
#403=DIRECTION('',(0.866025403784438,1.0613838039307E-016,-0.500000000000002));
#404=SURFACE_STYLE_FILL_AREA(#451);
#405=ORIENTED_EDGE('',*,*,#124,.F.);
#406=ORIENTED_EDGE('',*,*,#78,.F.);
#407=ORIENTED_EDGE('',*,*,#62,.F.);
#408=ORIENTED_EDGE('',*,*,#126,.T.);
#409=CARTESIAN_POINT('',(-5.6843418860808E-014,2.10972439997189E-014,8.87499999999994));
#410=DIRECTION('',(-0.0,-0.0,1.0));
#411=DIRECTION('',(1.0,9.74096003418976E-020,0.0));
#412=CARTESIAN_POINT('',(-5.03071145750497E-014,2.23218503535413E-014,17.0));
#413=DIRECTION('',(1.22460635382238E-016,-1.0,0.0));
#414=DIRECTION('',(0.0,0.0,1.0));
#415=SURFACE_STYLE_FILL_AREA(#452);
#416=ORIENTED_EDGE('',*,*,#64,.T.);
#417=ORIENTED_EDGE('',*,*,#98,.T.);
#418=ORIENTED_EDGE('',*,*,#120,.T.);
#419=CARTESIAN_POINT('',(-5.6843418860808E-014,2.10972439997189E-014,18.2268693220279));
#420=DIRECTION('',(0.0,-0.0,-1.0));
#421=DIRECTION('',(1.0,9.74096003418976E-020,0.0));
#422=CARTESIAN_POINT('',(-5.6843418860808E-014,2.10972439997189E-014,-2.8421709430404E-014));
#423=DIRECTION('',(0.0,0.0,-1.0));
#424=DIRECTION('',(1.0,9.74096003418976E-020,0.0));
#425=DIRECTION('',(0.707106781186561,8.66616246961498E-017,-0.707106781186534));
#426=DIRECTION('',(0.707106781186561,8.66616246961498E-017,0.707106781186534));
#427=CARTESIAN_POINT('',(-5.03071145750497E-014,2.23218503535413E-014,17.0));
#428=DIRECTION('',(1.22460635382238E-016,-1.0,0.0));
#429=DIRECTION('',(0.0,0.0,1.0));
#430=SURFACE_STYLE_FILL_AREA(#453);
#431=ORIENTED_EDGE('',*,*,#116,.T.);
#432=ORIENTED_EDGE('',*,*,#76,.F.);
#433=ORIENTED_EDGE('',*,*,#102,.T.);
#434=CARTESIAN_POINT('',(-5.03071145750497E-014,2.23218503535413E-014,17.0));
#435=DIRECTION('',(0.0,0.0,-1.0));
#436=DIRECTION('',(-1.0,0.0,0.0));
#437=CARTESIAN_POINT('',(-5.6843418860808E-014,2.10972439997189E-014,17.0));
#438=DIRECTION('',(0.0,0.0,-1.0));
#439=DIRECTION('',(1.0,9.74096003418976E-020,0.0));
#440=DIRECTION('',(-0.0,-0.0,-1.0));
#441=CARTESIAN_POINT('',(-5.6843418860808E-014,2.10972439997189E-014,0.749999999999915));
#442=DIRECTION('',(0.0,0.0,-1.0));
#443=DIRECTION('',(1.0,9.74096003418976E-020,0.0));
#444=FILL_AREA_STYLE('',(#454));
#445=FILL_AREA_STYLE('',(#455));
#446=FILL_AREA_STYLE('',(#456));
#447=FILL_AREA_STYLE('',(#457));
#448=FILL_AREA_STYLE('',(#458));
#449=FILL_AREA_STYLE('',(#459));
#450=FILL_AREA_STYLE('',(#460));
#451=FILL_AREA_STYLE('',(#461));
#452=FILL_AREA_STYLE('',(#462));
#453=FILL_AREA_STYLE('',(#463));
#454=FILL_AREA_STYLE_COLOUR('',#464);
#455=FILL_AREA_STYLE_COLOUR('',#465);
#456=FILL_AREA_STYLE_COLOUR('',#466);
#457=FILL_AREA_STYLE_COLOUR('',#467);
#458=FILL_AREA_STYLE_COLOUR('',#468);
#459=FILL_AREA_STYLE_COLOUR('',#469);
#460=FILL_AREA_STYLE_COLOUR('',#470);
#461=FILL_AREA_STYLE_COLOUR('',#471);
#462=FILL_AREA_STYLE_COLOUR('',#472);
#463=FILL_AREA_STYLE_COLOUR('',#473);
#464=COLOUR_RGB('',0.509803950786591,0.509803950786591,0.588235318660736);
#465=COLOUR_RGB('',0.509803950786591,0.509803950786591,0.588235318660736);
#466=COLOUR_RGB('',0.509803950786591,0.509803950786591,0.588235318660736);
#467=COLOUR_RGB('',0.509803950786591,0.509803950786591,0.588235318660736);
#468=COLOUR_RGB('',0.509803950786591,0.509803950786591,0.588235318660736);
#469=COLOUR_RGB('',0.509803950786591,0.509803950786591,0.588235318660736);
#470=COLOUR_RGB('',0.509803950786591,0.509803950786591,0.588235318660736);
#471=COLOUR_RGB('',0.509803950786591,0.509803950786591,0.588235318660736);
#472=COLOUR_RGB('',0.509803950786591,0.509803950786591,0.588235318660736);
#473=COLOUR_RGB('',0.509803950786591,0.509803950786591,0.588235318660736);
ENDSEC;
END-ISO-10303-21;
