ISO-10303-21;
HEADER;
FILE_DESCRIPTION(('STEP AP214'),'1');
FILE_NAME(' ','  ',('TraceParts'),('TraceParts S.A.'),'XStep 1.0',' ',' ');
FILE_SCHEMA(('automotive_design'));
ENDSEC;
DATA;
#1=MECHANICAL_DESIGN_GEOMETRIC_PRESENTATION_REPRESENTATION(' ',(#10,#11,#12,#13,#14,#15,#16,#17,#18,#19,#20,#21,#22,#23,#24,#25,#26,#27,#28,#29,#30,#31,#32,#33,#34,#35,#36,#37,#38,#39,#40,#41,#42,#43,#44,#45),#6);
#2=PRODUCT_DEFINITION_CONTEXT('',#46,'design');
#3=APPLICATION_PROTOCOL_DEFINITION('INTERNATIONAL STANDARD','automotive_design',1994,#46);
#4=PRODUCT_CATEGORY_RELATIONSHIP('NONE','NONE',#47,#48);
#5=SHAPE_DEFINITION_REPRESENTATION(#49,#50);
#6= (GEOMETRIC_REPRESENTATION_CONTEXT(3)GLOBAL_UNCERTAINTY_ASSIGNED_CONTEXT((#53))GLOBAL_UNIT_ASSIGNED_CONTEXT((#55,#56,#57))REPRESENTATION_CONTEXT('NONE','WORKSPACE'));
#10=STYLED_ITEM('',(#59),#60);
#11=STYLED_ITEM('',(#61),#62);
#12=STYLED_ITEM('',(#63),#64);
#13=STYLED_ITEM('',(#65),#66);
#14=STYLED_ITEM('',(#67),#68);
#15=STYLED_ITEM('',(#69),#70);
#16=STYLED_ITEM('',(#71),#72);
#17=STYLED_ITEM('',(#73),#74);
#18=STYLED_ITEM('',(#75),#76);
#19=STYLED_ITEM('',(#77),#78);
#20=STYLED_ITEM('',(#79),#80);
#21=STYLED_ITEM('',(#81),#82);
#22=STYLED_ITEM('',(#83),#84);
#23=STYLED_ITEM('',(#85),#86);
#24=STYLED_ITEM('',(#87),#88);
#25=STYLED_ITEM('',(#89),#90);
#26=STYLED_ITEM('',(#91),#92);
#27=STYLED_ITEM('',(#93),#94);
#28=STYLED_ITEM('',(#95),#96);
#29=STYLED_ITEM('',(#97),#98);
#30=STYLED_ITEM('',(#99),#100);
#31=STYLED_ITEM('',(#101),#102);
#32=STYLED_ITEM('',(#103),#104);
#33=STYLED_ITEM('',(#105),#106);
#34=STYLED_ITEM('',(#107),#108);
#35=STYLED_ITEM('',(#109),#110);
#36=STYLED_ITEM('',(#111),#112);
#37=STYLED_ITEM('',(#113),#114);
#38=STYLED_ITEM('',(#115),#116);
#39=STYLED_ITEM('',(#117),#118);
#40=STYLED_ITEM('',(#119),#120);
#41=STYLED_ITEM('',(#121),#122);
#42=STYLED_ITEM('',(#123),#124);
#43=STYLED_ITEM('',(#125),#126);
#44=STYLED_ITEM('',(#127),#128);
#45=STYLED_ITEM('',(#129),#130);
#46=APPLICATION_CONTEXT(' ');
#47=PRODUCT_CATEGORY('part','NONE');
#48=PRODUCT_RELATED_PRODUCT_CATEGORY('detail',' ',(#131));
#49=PRODUCT_DEFINITION_SHAPE('NONE','NONE',#132);
#50=ADVANCED_BREP_SHAPE_REPRESENTATION('1',(#130,#133),#6);
#53=UNCERTAINTY_MEASURE_WITH_UNIT(LENGTH_MEASURE(1.0E-006),#55,'','');
#55= (CONVERSION_BASED_UNIT('MILLIMETRE',#136)LENGTH_UNIT()NAMED_UNIT(#139));
#56= (NAMED_UNIT(#141)PLANE_ANGLE_UNIT()SI_UNIT($,.RADIAN.));
#57= (NAMED_UNIT(#141)SOLID_ANGLE_UNIT()SI_UNIT($,.STERADIAN.));
#59=PRESENTATION_STYLE_ASSIGNMENT((#147));
#60=ADVANCED_FACE('',(#148),#149,.F.);
#61=PRESENTATION_STYLE_ASSIGNMENT((#150));
#62=EDGE_CURVE('',#122,#82,#151,.T.);
#63=PRESENTATION_STYLE_ASSIGNMENT((#152));
#64=EDGE_CURVE('',#82,#96,#153,.T.);
#65=PRESENTATION_STYLE_ASSIGNMENT((#154));
#66=EDGE_CURVE('',#106,#128,#155,.T.);
#67=PRESENTATION_STYLE_ASSIGNMENT((#156));
#68=EDGE_CURVE('',#96,#122,#157,.T.);
#69=PRESENTATION_STYLE_ASSIGNMENT((#158));
#70=ADVANCED_FACE('',(#159,#160),#161,.T.);
#71=PRESENTATION_STYLE_ASSIGNMENT((#162));
#72=ADVANCED_FACE('',(#163),#164,.F.);
#73=PRESENTATION_STYLE_ASSIGNMENT((#165));
#74=ADVANCED_FACE('',(#166),#167,.F.);
#75=PRESENTATION_STYLE_ASSIGNMENT((#168));
#76=VERTEX_POINT('',#169);
#77=PRESENTATION_STYLE_ASSIGNMENT((#170));
#78=EDGE_CURVE('',#76,#98,#171,.T.);
#79=PRESENTATION_STYLE_ASSIGNMENT((#172));
#80=EDGE_CURVE('',#100,#112,#173,.T.);
#81=PRESENTATION_STYLE_ASSIGNMENT((#174));
#82=VERTEX_POINT('',#175);
#83=PRESENTATION_STYLE_ASSIGNMENT((#176));
#84=EDGE_CURVE('',#98,#76,#177,.T.);
#85=PRESENTATION_STYLE_ASSIGNMENT((#178));
#86=EDGE_CURVE('',#112,#100,#179,.T.);
#87=PRESENTATION_STYLE_ASSIGNMENT((#180));
#88=ADVANCED_FACE('',(#181),#182,.T.);
#89=PRESENTATION_STYLE_ASSIGNMENT((#183));
#90=EDGE_CURVE('',#128,#76,#184,.T.);
#91=PRESENTATION_STYLE_ASSIGNMENT((#185));
#92=EDGE_CURVE('',#100,#114,#186,.T.);
#93=PRESENTATION_STYLE_ASSIGNMENT((#187));
#94=ADVANCED_FACE('',(#188),#189,.F.);
#95=PRESENTATION_STYLE_ASSIGNMENT((#190));
#96=VERTEX_POINT('',#191);
#97=PRESENTATION_STYLE_ASSIGNMENT((#192));
#98=VERTEX_POINT('',#193);
#99=PRESENTATION_STYLE_ASSIGNMENT((#194));
#100=VERTEX_POINT('',#195);
#101=PRESENTATION_STYLE_ASSIGNMENT((#196));
#102=EDGE_CURVE('',#98,#106,#197,.T.);
#103=PRESENTATION_STYLE_ASSIGNMENT((#198));
#104=ADVANCED_FACE('',(#199),#200,.T.);
#105=PRESENTATION_STYLE_ASSIGNMENT((#201));
#106=VERTEX_POINT('',#202);
#107=PRESENTATION_STYLE_ASSIGNMENT((#203));
#108=EDGE_CURVE('',#114,#112,#204,.T.);
#109=PRESENTATION_STYLE_ASSIGNMENT((#205));
#110=ADVANCED_FACE('',(#206),#207,.F.);
#111=PRESENTATION_STYLE_ASSIGNMENT((#208));
#112=VERTEX_POINT('',#209);
#113=PRESENTATION_STYLE_ASSIGNMENT((#210));
#114=VERTEX_POINT('',#211);
#115=PRESENTATION_STYLE_ASSIGNMENT((#212));
#116=ADVANCED_FACE('',(#213),#214,.F.);
#117=PRESENTATION_STYLE_ASSIGNMENT((#215));
#118=EDGE_CURVE('',#128,#106,#216,.T.);
#119=PRESENTATION_STYLE_ASSIGNMENT((#217));
#120=EDGE_CURVE('',#82,#122,#218,.T.);
#121=PRESENTATION_STYLE_ASSIGNMENT((#219));
#122=VERTEX_POINT('',#220);
#123=PRESENTATION_STYLE_ASSIGNMENT((#221));
#124=EDGE_CURVE('',#122,#98,#222,.T.);
#125=PRESENTATION_STYLE_ASSIGNMENT((#223));
#126=EDGE_CURVE('',#76,#82,#224,.T.);
#127=PRESENTATION_STYLE_ASSIGNMENT((#225));
#128=VERTEX_POINT('',#226);
#129=PRESENTATION_STYLE_ASSIGNMENT((#227));
#130=MANIFOLD_SOLID_BREP('1',#228);
#131=PRODUCT('1','1','PART-1-DESC',(#229));
#132=PRODUCT_DEFINITION('NONE','NONE',#230,#2);
#133=AXIS2_PLACEMENT_3D('',#231,#232,#233);
#136=LENGTH_MEASURE_WITH_UNIT(LENGTH_MEASURE(1.0),#234);
#139=DIMENSIONAL_EXPONENTS(1.0,0.0,0.0,0.0,0.0,0.0,0.0);
#141=DIMENSIONAL_EXPONENTS(0.0,0.0,0.0,0.0,0.0,0.0,0.0);
#147=SURFACE_STYLE_USAGE(.BOTH.,#235);
#148=FACE_OUTER_BOUND('',#236,.T.);
#149=CONICAL_SURFACE('',#237,1.7,1.04719755119659);
#150=CURVE_STYLE('',#238,POSITIVE_LENGTH_MEASURE(1.0E-006),#239);
#151=CIRCLE('',#240,3.40000000000001);
#152=CURVE_STYLE('',#241,POSITIVE_LENGTH_MEASURE(1.0E-006),#242);
#153=LINE('',#243,#244);
#154=CURVE_STYLE('',#245,POSITIVE_LENGTH_MEASURE(1.0E-006),#246);
#155=CIRCLE('',#247,3.99999999999997);
#156=CURVE_STYLE('',#248,POSITIVE_LENGTH_MEASURE(1.0E-006),#249);
#157=LINE('',#250,#251);
#158=SURFACE_STYLE_USAGE(.BOTH.,#252);
#159=FACE_BOUND('',#253,.T.);
#160=FACE_OUTER_BOUND('',#254,.T.);
#161=PLANE('',#255);
#162=SURFACE_STYLE_USAGE(.BOTH.,#256);
#163=FACE_OUTER_BOUND('',#257,.T.);
#164=CONICAL_SURFACE('',#258,3.69999999999999,0.785398163397448);
#165=SURFACE_STYLE_USAGE(.BOTH.,#259);
#166=FACE_OUTER_BOUND('',#260,.T.);
#167=CONICAL_SURFACE('',#261,1.7,1.04719755119659);
#168=POINT_STYLE(' ',#262,POSITIVE_LENGTH_MEASURE(1.0E-006),#263);
#169=CARTESIAN_POINT('',(-3.40000000000006,2.06805552963558E-014,0.599999999999902));
#170=CURVE_STYLE('',#264,POSITIVE_LENGTH_MEASURE(1.0E-006),#265);
#171=CIRCLE('',#266,3.40000000000001);
#172=CURVE_STYLE('',#267,POSITIVE_LENGTH_MEASURE(1.0E-006),#268);
#173=CIRCLE('',#269,9.32737905308881);
#174=POINT_STYLE(' ',#270,POSITIVE_LENGTH_MEASURE(1.0E-006),#271);
#175=CARTESIAN_POINT('',(-3.40000000000006,2.06805552963558E-014,13.7999999999999));
#176=CURVE_STYLE('',#272,POSITIVE_LENGTH_MEASURE(1.0E-006),#273);
#177=CIRCLE('',#274,3.40000000000001);
#178=CURVE_STYLE('',#275,POSITIVE_LENGTH_MEASURE(1.0E-006),#276);
#179=CIRCLE('',#277,9.32737905308881);
#180=SURFACE_STYLE_USAGE(.BOTH.,#278);
#181=FACE_OUTER_BOUND('',#279,.T.);
#182=SPHERICAL_SURFACE('',#280,16.0);
#183=CURVE_STYLE('',#281,POSITIVE_LENGTH_MEASURE(1.0E-006),#282);
#184=LINE('',#283,#284);
#185=CURVE_STYLE('',#285,POSITIVE_LENGTH_MEASURE(1.0E-006),#286);
#186=CIRCLE('',#287,16.0);
#187=SURFACE_STYLE_USAGE(.BOTH.,#288);
#188=FACE_OUTER_BOUND('',#289,.T.);
#189=CONICAL_SURFACE('',#290,3.69999999999999,0.785398163397448);
#190=POINT_STYLE(' ',#291,POSITIVE_LENGTH_MEASURE(1.0E-006),#292);
#191=CARTESIAN_POINT('',(-5.6843418860808E-014,2.19077502712587E-014,15.7629909152447));
#192=POINT_STYLE(' ',#293,POSITIVE_LENGTH_MEASURE(1.0E-006),#294);
#193=CARTESIAN_POINT('',(3.39999999999995,2.28361850221467E-014,0.599999999999902));
#194=POINT_STYLE(' ',#295,POSITIVE_LENGTH_MEASURE(1.0E-006),#296);
#195=CARTESIAN_POINT('',(9.32737905308875,2.28729232127613E-014,-6.3948846218409E-014));
#196=CURVE_STYLE('',#297,POSITIVE_LENGTH_MEASURE(1.0E-006),#298);
#197=LINE('',#299,#300);
#198=SURFACE_STYLE_USAGE(.BOTH.,#301);
#199=FACE_OUTER_BOUND('',#302,.T.);
#200=SPHERICAL_SURFACE('',#303,16.0);
#201=POINT_STYLE(' ',#304,POSITIVE_LENGTH_MEASURE(1.0E-006),#305);
#202=CARTESIAN_POINT('',(3.99999999999991,2.28729232127613E-014,-6.3948846218409E-014));
#203=CURVE_STYLE('',#306,POSITIVE_LENGTH_MEASURE(1.0E-006),#307);
#204=CIRCLE('',#308,16.0);
#205=SURFACE_STYLE_USAGE(.BOTH.,#309);
#206=FACE_OUTER_BOUND('',#310,.T.);
#207=CYLINDRICAL_SURFACE('',#311,3.40000000000001);
#208=POINT_STYLE(' ',#312,POSITIVE_LENGTH_MEASURE(1.0E-006),#313);
#209=CARTESIAN_POINT('',(-9.32737905308886,2.09346923174846E-014,-6.3948846218409E-014));
#210=POINT_STYLE(' ',#314,POSITIVE_LENGTH_MEASURE(1.0E-006),#315);
#211=CARTESIAN_POINT('',(-5.6843418860808E-014,2.10972439997189E-014,28.9999999999999));
#212=SURFACE_STYLE_USAGE(.BOTH.,#316);
#213=FACE_OUTER_BOUND('',#317,.T.);
#214=CYLINDRICAL_SURFACE('',#318,3.40000000000001);
#215=CURVE_STYLE('',#319,POSITIVE_LENGTH_MEASURE(1.0E-006),#320);
#216=CIRCLE('',#321,3.99999999999997);
#217=CURVE_STYLE('',#322,POSITIVE_LENGTH_MEASURE(1.0E-006),#323);
#218=CIRCLE('',#324,3.40000000000001);
#219=POINT_STYLE(' ',#325,POSITIVE_LENGTH_MEASURE(1.0E-006),#326);
#220=CARTESIAN_POINT('',(3.39999999999995,2.20279448286239E-014,13.7999999999999));
#221=CURVE_STYLE('',#327,POSITIVE_LENGTH_MEASURE(1.0E-006),#328);
#222=LINE('',#329,#330);
#223=CURVE_STYLE('',#331,POSITIVE_LENGTH_MEASURE(1.0E-006),#332);
#224=LINE('',#333,#334);
#225=POINT_STYLE(' ',#335,POSITIVE_LENGTH_MEASURE(1.0E-006),#336);
#226=CARTESIAN_POINT('',(-4.00000000000003,2.06070219957623E-014,-6.3948846218409E-014));
#227=SURFACE_STYLE_USAGE(.BOTH.,#337);
#228=CLOSED_SHELL('',(#60,#110,#94,#88,#104,#70,#72,#116,#74));
#229=PRODUCT_CONTEXT('',#46,'mechanical');
#230=PRODUCT_DEFINITION_FORMATION_WITH_SPECIFIED_SOURCE(' ','NONE',#131,.NOT_KNOWN.);
#231=CARTESIAN_POINT('',(0.0,0.0,0.0));
#232=DIRECTION('',(0.0,0.0,1.0));
#233=DIRECTION('',(1.0,0.0,0.0));
#234= (NAMED_UNIT(#139)LENGTH_UNIT()SI_UNIT(.MILLI.,.METRE.));
#235=SURFACE_SIDE_STYLE('',(#339));
#236=EDGE_LOOP('',(#340,#341,#342));
#237=AXIS2_PLACEMENT_3D('',#343,#344,#345);
#238=DRAUGHTING_PRE_DEFINED_CURVE_FONT('continuous');
#239=COLOUR_RGB('',0.509803950786591,0.509803950786591,0.588235318660736);
#240=AXIS2_PLACEMENT_3D('',#346,#347,#348);
#241=DRAUGHTING_PRE_DEFINED_CURVE_FONT('continuous');
#242=COLOUR_RGB('',0.509803950786591,0.509803950786591,0.588235318660736);
#243=CARTESIAN_POINT('',(-1.70000000000006,2.08888996480373E-014,14.7814954576223));
#244=VECTOR('',#349,1.0);
#245=DRAUGHTING_PRE_DEFINED_CURVE_FONT('continuous');
#246=COLOUR_RGB('',0.509803950786591,0.509803950786591,0.588235318660736);
#247=AXIS2_PLACEMENT_3D('',#350,#351,#352);
#248=DRAUGHTING_PRE_DEFINED_CURVE_FONT('continuous');
#249=COLOUR_RGB('',0.509803950786591,0.509803950786591,0.588235318660736);
#250=CARTESIAN_POINT('',(1.69999999999995,2.13055883514005E-014,14.7814954576223));
#251=VECTOR('',#353,1.0);
#252=SURFACE_SIDE_STYLE('',(#354));
#253=EDGE_LOOP('',(#355,#356));
#254=EDGE_LOOP('',(#357,#358));
#255=AXIS2_PLACEMENT_3D('',#359,#360,#361);
#256=SURFACE_SIDE_STYLE('',(#362));
#257=EDGE_LOOP('',(#363,#364,#365,#366));
#258=AXIS2_PLACEMENT_3D('',#367,#368,#369);
#259=SURFACE_SIDE_STYLE('',(#370));
#260=EDGE_LOOP('',(#371,#372,#373));
#261=AXIS2_PLACEMENT_3D('',#374,#375,#376);
#262=PRE_DEFINED_MARKER('');
#263=COLOUR_RGB('',0.509803950786591,0.509803950786591,0.588235318660736);
#264=DRAUGHTING_PRE_DEFINED_CURVE_FONT('continuous');
#265=COLOUR_RGB('',0.509803950786591,0.509803950786591,0.588235318660736);
#266=AXIS2_PLACEMENT_3D('',#377,#378,#379);
#267=DRAUGHTING_PRE_DEFINED_CURVE_FONT('continuous');
#268=COLOUR_RGB('',0.509803950786591,0.509803950786591,0.588235318660736);
#269=AXIS2_PLACEMENT_3D('',#380,#381,#382);
#270=PRE_DEFINED_MARKER('');
#271=COLOUR_RGB('',0.509803950786591,0.509803950786591,0.588235318660736);
#272=DRAUGHTING_PRE_DEFINED_CURVE_FONT('continuous');
#273=COLOUR_RGB('',0.509803950786591,0.509803950786591,0.588235318660736);
#274=AXIS2_PLACEMENT_3D('',#383,#384,#385);
#275=DRAUGHTING_PRE_DEFINED_CURVE_FONT('continuous');
#276=COLOUR_RGB('',0.509803950786591,0.509803950786591,0.588235318660736);
#277=AXIS2_PLACEMENT_3D('',#386,#387,#388);
#278=SURFACE_SIDE_STYLE('',(#389));
#279=EDGE_LOOP('',(#390,#391,#392));
#280=AXIS2_PLACEMENT_3D('',#393,#394,#395);
#281=DRAUGHTING_PRE_DEFINED_CURVE_FONT('continuous');
#282=COLOUR_RGB('',0.509803950786591,0.509803950786591,0.588235318660736);
#283=CARTESIAN_POINT('',(-3.70000000000005,2.0643788646059E-014,0.299999999999919));
#284=VECTOR('',#396,1.0);
#285=DRAUGHTING_PRE_DEFINED_CURVE_FONT('continuous');
#286=COLOUR_RGB('',0.509803950786591,0.509803950786591,0.588235318660736);
#287=AXIS2_PLACEMENT_3D('',#397,#398,#399);
#288=SURFACE_SIDE_STYLE('',(#400));
#289=EDGE_LOOP('',(#401,#402,#403,#404));
#290=AXIS2_PLACEMENT_3D('',#405,#406,#407);
#291=PRE_DEFINED_MARKER('');
#292=COLOUR_RGB('',0.509803950786591,0.509803950786591,0.588235318660736);
#293=PRE_DEFINED_MARKER('');
#294=COLOUR_RGB('',0.509803950786591,0.509803950786591,0.588235318660736);
#295=PRE_DEFINED_MARKER('');
#296=COLOUR_RGB('',0.509803950786591,0.509803950786591,0.588235318660736);
#297=DRAUGHTING_PRE_DEFINED_CURVE_FONT('continuous');
#298=COLOUR_RGB('',0.509803950786591,0.509803950786591,0.588235318660736);
#299=CARTESIAN_POINT('',(3.69999999999993,2.15506993533788E-014,0.299999999999919));
#300=VECTOR('',#408,1.0);
#301=SURFACE_SIDE_STYLE('',(#409));
#302=EDGE_LOOP('',(#410,#411,#412));
#303=AXIS2_PLACEMENT_3D('',#413,#414,#415);
#304=PRE_DEFINED_MARKER('');
#305=COLOUR_RGB('',0.509803950786591,0.509803950786591,0.588235318660736);
#306=DRAUGHTING_PRE_DEFINED_CURVE_FONT('continuous');
#307=COLOUR_RGB('',0.509803950786591,0.509803950786591,0.588235318660736);
#308=AXIS2_PLACEMENT_3D('',#416,#417,#418);
#309=SURFACE_SIDE_STYLE('',(#419));
#310=EDGE_LOOP('',(#420,#421,#422,#423));
#311=AXIS2_PLACEMENT_3D('',#424,#425,#426);
#312=PRE_DEFINED_MARKER('');
#313=COLOUR_RGB('',0.509803950786591,0.509803950786591,0.588235318660736);
#314=PRE_DEFINED_MARKER('');
#315=COLOUR_RGB('',0.509803950786591,0.509803950786591,0.588235318660736);
#316=SURFACE_SIDE_STYLE('',(#427));
#317=EDGE_LOOP('',(#428,#429,#430,#431));
#318=AXIS2_PLACEMENT_3D('',#432,#433,#434);
#319=DRAUGHTING_PRE_DEFINED_CURVE_FONT('continuous');
#320=COLOUR_RGB('',0.509803950786591,0.509803950786591,0.588235318660736);
#321=AXIS2_PLACEMENT_3D('',#435,#436,#437);
#322=DRAUGHTING_PRE_DEFINED_CURVE_FONT('continuous');
#323=COLOUR_RGB('',0.509803950786591,0.509803950786591,0.588235318660736);
#324=AXIS2_PLACEMENT_3D('',#438,#439,#440);
#325=PRE_DEFINED_MARKER('');
#326=COLOUR_RGB('',0.509803950786591,0.509803950786591,0.588235318660736);
#327=DRAUGHTING_PRE_DEFINED_CURVE_FONT('continuous');
#328=COLOUR_RGB('',0.509803950786591,0.509803950786591,0.588235318660736);
#329=CARTESIAN_POINT('',(3.39999999999995,2.1513932703082E-014,7.19999999999992));
#330=VECTOR('',#441,1.0);
#331=DRAUGHTING_PRE_DEFINED_CURVE_FONT('continuous');
#332=COLOUR_RGB('',0.509803950786591,0.509803950786591,0.588235318660736);
#333=CARTESIAN_POINT('',(-3.40000000000006,2.06805552963558E-014,7.19999999999992));
#334=VECTOR('',#442,1.0);
#335=PRE_DEFINED_MARKER('');
#336=COLOUR_RGB('',0.509803950786591,0.509803950786591,0.588235318660736);
#337=SURFACE_SIDE_STYLE('',(#443));
#339=SURFACE_STYLE_FILL_AREA(#444);
#340=ORIENTED_EDGE('',*,*,#64,.T.);
#341=ORIENTED_EDGE('',*,*,#68,.T.);
#342=ORIENTED_EDGE('',*,*,#62,.T.);
#343=CARTESIAN_POINT('',(-5.6843418860808E-014,2.10972439997189E-014,14.7814954576223));
#344=DIRECTION('',(0.0,-0.0,-1.0));
#345=DIRECTION('',(1.0,9.48656069211166E-020,0.0));
#346=CARTESIAN_POINT('',(-5.6843418860808E-014,2.10972439997189E-014,13.7999999999999));
#347=DIRECTION('',(0.0,0.0,-1.0));
#348=DIRECTION('',(1.0,9.48656069211166E-020,0.0));
#349=DIRECTION('',(0.866025403784437,1.0613617723014E-016,0.500000000000003));
#350=CARTESIAN_POINT('',(-5.6843418860808E-014,2.10972439997189E-014,-6.3948846218409E-014));
#351=DIRECTION('',(0.0,0.0,-1.0));
#352=DIRECTION('',(1.0,9.48656069211166E-020,0.0));
#353=DIRECTION('',(0.866025403784437,1.0613617723014E-016,-0.500000000000003));
#354=SURFACE_STYLE_FILL_AREA(#445);
#355=ORIENTED_EDGE('',*,*,#66,.F.);
#356=ORIENTED_EDGE('',*,*,#118,.F.);
#357=ORIENTED_EDGE('',*,*,#80,.T.);
#358=ORIENTED_EDGE('',*,*,#86,.T.);
#359=CARTESIAN_POINT('',(6.66368952654433,2.28729232127613E-014,-6.3948846218409E-014));
#360=DIRECTION('',(0.0,0.0,-1.0));
#361=DIRECTION('',(-1.0,0.0,0.0));
#362=SURFACE_STYLE_FILL_AREA(#446);
#363=ORIENTED_EDGE('',*,*,#102,.T.);
#364=ORIENTED_EDGE('',*,*,#66,.T.);
#365=ORIENTED_EDGE('',*,*,#90,.T.);
#366=ORIENTED_EDGE('',*,*,#84,.F.);
#367=CARTESIAN_POINT('',(-5.6843418860808E-014,2.10972439997189E-014,0.299999999999919));
#368=DIRECTION('',(0.0,-0.0,-1.0));
#369=DIRECTION('',(1.0,9.48656069211166E-020,0.0));
#370=SURFACE_STYLE_FILL_AREA(#447);
#371=ORIENTED_EDGE('',*,*,#64,.F.);
#372=ORIENTED_EDGE('',*,*,#120,.T.);
#373=ORIENTED_EDGE('',*,*,#68,.F.);
#374=CARTESIAN_POINT('',(-5.6843418860808E-014,2.10972439997189E-014,14.7814954576223));
#375=DIRECTION('',(0.0,-0.0,-1.0));
#376=DIRECTION('',(1.0,9.48656069211166E-020,0.0));
#377=CARTESIAN_POINT('',(-5.6843418860808E-014,2.10972439997189E-014,0.599999999999902));
#378=DIRECTION('',(0.0,0.0,-1.0));
#379=DIRECTION('',(1.0,9.48656069211166E-020,0.0));
#380=CARTESIAN_POINT('',(-5.6843418860808E-014,2.10972439997189E-014,-6.3948846218409E-014));
#381=DIRECTION('',(0.0,0.0,-1.0));
#382=DIRECTION('',(1.0,9.48656069211166E-020,0.0));
#383=CARTESIAN_POINT('',(-5.6843418860808E-014,2.10972439997189E-014,0.599999999999902));
#384=DIRECTION('',(0.0,0.0,-1.0));
#385=DIRECTION('',(1.0,9.48656069211166E-020,0.0));
#386=CARTESIAN_POINT('',(-5.6843418860808E-014,2.10972439997189E-014,-6.3948846218409E-014));
#387=DIRECTION('',(0.0,0.0,-1.0));
#388=DIRECTION('',(1.0,9.48656069211166E-020,0.0));
#389=SURFACE_STYLE_FILL_AREA(#448);
#390=ORIENTED_EDGE('',*,*,#108,.F.);
#391=ORIENTED_EDGE('',*,*,#92,.F.);
#392=ORIENTED_EDGE('',*,*,#86,.F.);
#393=CARTESIAN_POINT('',(-5.4308678409834E-014,2.20769290827768E-014,12.9999999999999));
#394=DIRECTION('',(0.0,0.0,-1.0));
#395=DIRECTION('',(-1.0,0.0,0.0));
#396=DIRECTION('',(0.707106781186548,8.6659825821149E-017,0.707106781186548));
#397=CARTESIAN_POINT('',(-5.4308678409834E-014,2.20769290827768E-014,12.9999999999999));
#398=DIRECTION('',(1.22460635382238E-016,-1.0,0.0));
#399=DIRECTION('',(0.0,0.0,1.0));
#400=SURFACE_STYLE_FILL_AREA(#449);
#401=ORIENTED_EDGE('',*,*,#102,.F.);
#402=ORIENTED_EDGE('',*,*,#78,.F.);
#403=ORIENTED_EDGE('',*,*,#90,.F.);
#404=ORIENTED_EDGE('',*,*,#118,.T.);
#405=CARTESIAN_POINT('',(-5.6843418860808E-014,2.10972439997189E-014,0.299999999999919));
#406=DIRECTION('',(0.0,-0.0,-1.0));
#407=DIRECTION('',(1.0,9.48656069211166E-020,0.0));
#408=DIRECTION('',(0.707106781186548,8.6659825821149E-017,-0.707106781186548));
#409=SURFACE_STYLE_FILL_AREA(#450);
#410=ORIENTED_EDGE('',*,*,#108,.T.);
#411=ORIENTED_EDGE('',*,*,#80,.F.);
#412=ORIENTED_EDGE('',*,*,#92,.T.);
#413=CARTESIAN_POINT('',(-5.4308678409834E-014,2.20769290827768E-014,12.9999999999999));
#414=DIRECTION('',(0.0,0.0,-1.0));
#415=DIRECTION('',(-1.0,0.0,0.0));
#416=CARTESIAN_POINT('',(-5.4308678409834E-014,2.20769290827768E-014,12.9999999999999));
#417=DIRECTION('',(1.22460635382238E-016,-1.0,0.0));
#418=DIRECTION('',(0.0,0.0,1.0));
#419=SURFACE_STYLE_FILL_AREA(#451);
#420=ORIENTED_EDGE('',*,*,#124,.F.);
#421=ORIENTED_EDGE('',*,*,#120,.F.);
#422=ORIENTED_EDGE('',*,*,#126,.F.);
#423=ORIENTED_EDGE('',*,*,#78,.T.);
#424=CARTESIAN_POINT('',(-5.6843418860808E-014,2.10972439997189E-014,7.19999999999992));
#425=DIRECTION('',(-0.0,-0.0,1.0));
#426=DIRECTION('',(1.0,9.48656069211166E-020,0.0));
#427=SURFACE_STYLE_FILL_AREA(#452);
#428=ORIENTED_EDGE('',*,*,#124,.T.);
#429=ORIENTED_EDGE('',*,*,#84,.T.);
#430=ORIENTED_EDGE('',*,*,#126,.T.);
#431=ORIENTED_EDGE('',*,*,#62,.F.);
#432=CARTESIAN_POINT('',(-5.6843418860808E-014,2.10972439997189E-014,7.19999999999992));
#433=DIRECTION('',(-0.0,-0.0,1.0));
#434=DIRECTION('',(1.0,9.48656069211166E-020,0.0));
#435=CARTESIAN_POINT('',(-5.6843418860808E-014,2.10972439997189E-014,-6.3948846218409E-014));
#436=DIRECTION('',(0.0,0.0,-1.0));
#437=DIRECTION('',(1.0,9.48656069211166E-020,0.0));
#438=CARTESIAN_POINT('',(-5.6843418860808E-014,2.10972439997189E-014,13.7999999999999));
#439=DIRECTION('',(0.0,0.0,-1.0));
#440=DIRECTION('',(1.0,9.48656069211166E-020,0.0));
#441=DIRECTION('',(-0.0,-0.0,-1.0));
#442=DIRECTION('',(-0.0,-0.0,1.0));
#443=SURFACE_STYLE_FILL_AREA(#453);
#444=FILL_AREA_STYLE('',(#454));
#445=FILL_AREA_STYLE('',(#455));
#446=FILL_AREA_STYLE('',(#456));
#447=FILL_AREA_STYLE('',(#457));
#448=FILL_AREA_STYLE('',(#458));
#449=FILL_AREA_STYLE('',(#459));
#450=FILL_AREA_STYLE('',(#460));
#451=FILL_AREA_STYLE('',(#461));
#452=FILL_AREA_STYLE('',(#462));
#453=FILL_AREA_STYLE('',(#463));
#454=FILL_AREA_STYLE_COLOUR('',#464);
#455=FILL_AREA_STYLE_COLOUR('',#465);
#456=FILL_AREA_STYLE_COLOUR('',#466);
#457=FILL_AREA_STYLE_COLOUR('',#467);
#458=FILL_AREA_STYLE_COLOUR('',#468);
#459=FILL_AREA_STYLE_COLOUR('',#469);
#460=FILL_AREA_STYLE_COLOUR('',#470);
#461=FILL_AREA_STYLE_COLOUR('',#471);
#462=FILL_AREA_STYLE_COLOUR('',#472);
#463=FILL_AREA_STYLE_COLOUR('',#473);
#464=COLOUR_RGB('',0.509803950786591,0.509803950786591,0.588235318660736);
#465=COLOUR_RGB('',0.509803950786591,0.509803950786591,0.588235318660736);
#466=COLOUR_RGB('',0.509803950786591,0.509803950786591,0.588235318660736);
#467=COLOUR_RGB('',0.509803950786591,0.509803950786591,0.588235318660736);
#468=COLOUR_RGB('',0.509803950786591,0.509803950786591,0.588235318660736);
#469=COLOUR_RGB('',0.509803950786591,0.509803950786591,0.588235318660736);
#470=COLOUR_RGB('',0.509803950786591,0.509803950786591,0.588235318660736);
#471=COLOUR_RGB('',0.509803950786591,0.509803950786591,0.588235318660736);
#472=COLOUR_RGB('',0.509803950786591,0.509803950786591,0.588235318660736);
#473=COLOUR_RGB('',0.509803950786591,0.509803950786591,0.588235318660736);
ENDSEC;
END-ISO-10303-21;
