ISO-10303-21;
HEADER;
FILE_DESCRIPTION(('STEP AP214'),'1');
FILE_NAME(' ','  ',('TraceParts'),('TraceParts S.A.'),'XStep 1.0',' ',' ');
FILE_SCHEMA(('automotive_design'));
ENDSEC;
DATA;
#1=MECHANICAL_DESIGN_GEOMETRIC_PRESENTATION_REPRESENTATION(' ',(#10,#11,#12,#13,#14,#15,#16,#17,#18,#19,#20,#21,#22,#23,#24,#25,#26,#27,#28,#29,#30,#31,#32,#33,#34,#35,#36,#37,#38,#39,#40,#41,#42,#43,#44,#45),#6);
#2=PRODUCT_DEFINITION_CONTEXT('',#46,'design');
#3=APPLICATION_PROTOCOL_DEFINITION('INTERNATIONAL STANDARD','automotive_design',1994,#46);
#4=PRODUCT_CATEGORY_RELATIONSHIP('NONE','NONE',#47,#48);
#5=SHAPE_DEFINITION_REPRESENTATION(#49,#50);
#6= (GEOMETRIC_REPRESENTATION_CONTEXT(3)GLOBAL_UNCERTAINTY_ASSIGNED_CONTEXT((#53))GLOBAL_UNIT_ASSIGNED_CONTEXT((#55,#56,#57))REPRESENTATION_CONTEXT('NONE','WORKSPACE'));
#10=STYLED_ITEM('',(#59),#60);
#11=STYLED_ITEM('',(#61),#62);
#12=STYLED_ITEM('',(#63),#64);
#13=STYLED_ITEM('',(#65),#66);
#14=STYLED_ITEM('',(#67),#68);
#15=STYLED_ITEM('',(#69),#70);
#16=STYLED_ITEM('',(#71),#72);
#17=STYLED_ITEM('',(#73),#74);
#18=STYLED_ITEM('',(#75),#76);
#19=STYLED_ITEM('',(#77),#78);
#20=STYLED_ITEM('',(#79),#80);
#21=STYLED_ITEM('',(#81),#82);
#22=STYLED_ITEM('',(#83),#84);
#23=STYLED_ITEM('',(#85),#86);
#24=STYLED_ITEM('',(#87),#88);
#25=STYLED_ITEM('',(#89),#90);
#26=STYLED_ITEM('',(#91),#92);
#27=STYLED_ITEM('',(#93),#94);
#28=STYLED_ITEM('',(#95),#96);
#29=STYLED_ITEM('',(#97),#98);
#30=STYLED_ITEM('',(#99),#100);
#31=STYLED_ITEM('',(#101),#102);
#32=STYLED_ITEM('',(#103),#104);
#33=STYLED_ITEM('',(#105),#106);
#34=STYLED_ITEM('',(#107),#108);
#35=STYLED_ITEM('',(#109),#110);
#36=STYLED_ITEM('',(#111),#112);
#37=STYLED_ITEM('',(#113),#114);
#38=STYLED_ITEM('',(#115),#116);
#39=STYLED_ITEM('',(#117),#118);
#40=STYLED_ITEM('',(#119),#120);
#41=STYLED_ITEM('',(#121),#122);
#42=STYLED_ITEM('',(#123),#124);
#43=STYLED_ITEM('',(#125),#126);
#44=STYLED_ITEM('',(#127),#128);
#45=STYLED_ITEM('',(#129),#130);
#46=APPLICATION_CONTEXT(' ');
#47=PRODUCT_CATEGORY('part','NONE');
#48=PRODUCT_RELATED_PRODUCT_CATEGORY('detail',' ',(#131));
#49=PRODUCT_DEFINITION_SHAPE('NONE','NONE',#132);
#50=ADVANCED_BREP_SHAPE_REPRESENTATION('1',(#74,#133),#6);
#53=UNCERTAINTY_MEASURE_WITH_UNIT(LENGTH_MEASURE(1.0E-006),#55,'','');
#55= (CONVERSION_BASED_UNIT('MILLIMETRE',#136)LENGTH_UNIT()NAMED_UNIT(#139));
#56= (NAMED_UNIT(#141)PLANE_ANGLE_UNIT()SI_UNIT($,.RADIAN.));
#57= (NAMED_UNIT(#141)SOLID_ANGLE_UNIT()SI_UNIT($,.STERADIAN.));
#59=PRESENTATION_STYLE_ASSIGNMENT((#147));
#60=VERTEX_POINT('',#148);
#61=PRESENTATION_STYLE_ASSIGNMENT((#149));
#62=ADVANCED_FACE('',(#150),#151,.T.);
#63=PRESENTATION_STYLE_ASSIGNMENT((#152));
#64=EDGE_CURVE('',#86,#130,#153,.T.);
#65=PRESENTATION_STYLE_ASSIGNMENT((#154));
#66=EDGE_CURVE('',#116,#118,#155,.T.);
#67=PRESENTATION_STYLE_ASSIGNMENT((#156));
#68=ADVANCED_FACE('',(#157,#158),#159,.T.);
#69=PRESENTATION_STYLE_ASSIGNMENT((#160));
#70=EDGE_CURVE('',#86,#60,#161,.T.);
#71=PRESENTATION_STYLE_ASSIGNMENT((#162));
#72=EDGE_CURVE('',#106,#98,#163,.T.);
#73=PRESENTATION_STYLE_ASSIGNMENT((#164));
#74=MANIFOLD_SOLID_BREP('1',#165);
#75=PRESENTATION_STYLE_ASSIGNMENT((#166));
#76=EDGE_CURVE('',#118,#116,#167,.T.);
#77=PRESENTATION_STYLE_ASSIGNMENT((#168));
#78=EDGE_CURVE('',#100,#112,#169,.T.);
#79=PRESENTATION_STYLE_ASSIGNMENT((#170));
#80=EDGE_CURVE('',#112,#100,#171,.T.);
#81=PRESENTATION_STYLE_ASSIGNMENT((#172));
#82=EDGE_CURVE('',#130,#86,#173,.T.);
#83=PRESENTATION_STYLE_ASSIGNMENT((#174));
#84=ADVANCED_FACE('',(#175),#176,.T.);
#85=PRESENTATION_STYLE_ASSIGNMENT((#177));
#86=VERTEX_POINT('',#178);
#87=PRESENTATION_STYLE_ASSIGNMENT((#179));
#88=EDGE_CURVE('',#130,#116,#180,.T.);
#89=PRESENTATION_STYLE_ASSIGNMENT((#181));
#90=EDGE_CURVE('',#60,#130,#182,.T.);
#91=PRESENTATION_STYLE_ASSIGNMENT((#183));
#92=EDGE_CURVE('',#100,#124,#184,.T.);
#93=PRESENTATION_STYLE_ASSIGNMENT((#185));
#94=EDGE_CURVE('',#116,#106,#186,.T.);
#95=PRESENTATION_STYLE_ASSIGNMENT((#187));
#96=ADVANCED_FACE('',(#188),#189,.F.);
#97=PRESENTATION_STYLE_ASSIGNMENT((#190));
#98=VERTEX_POINT('',#191);
#99=PRESENTATION_STYLE_ASSIGNMENT((#192));
#100=VERTEX_POINT('',#193);
#101=PRESENTATION_STYLE_ASSIGNMENT((#194));
#102=ADVANCED_FACE('',(#195),#196,.F.);
#103=PRESENTATION_STYLE_ASSIGNMENT((#197));
#104=EDGE_CURVE('',#98,#118,#198,.T.);
#105=PRESENTATION_STYLE_ASSIGNMENT((#199));
#106=VERTEX_POINT('',#200);
#107=PRESENTATION_STYLE_ASSIGNMENT((#201));
#108=EDGE_CURVE('',#124,#112,#202,.T.);
#109=PRESENTATION_STYLE_ASSIGNMENT((#203));
#110=ADVANCED_FACE('',(#204),#205,.F.);
#111=PRESENTATION_STYLE_ASSIGNMENT((#206));
#112=VERTEX_POINT('',#207);
#113=PRESENTATION_STYLE_ASSIGNMENT((#208));
#114=EDGE_CURVE('',#98,#106,#209,.T.);
#115=PRESENTATION_STYLE_ASSIGNMENT((#210));
#116=VERTEX_POINT('',#211);
#117=PRESENTATION_STYLE_ASSIGNMENT((#212));
#118=VERTEX_POINT('',#213);
#119=PRESENTATION_STYLE_ASSIGNMENT((#214));
#120=ADVANCED_FACE('',(#215),#216,.F.);
#121=PRESENTATION_STYLE_ASSIGNMENT((#217));
#122=EDGE_CURVE('',#118,#86,#218,.T.);
#123=PRESENTATION_STYLE_ASSIGNMENT((#219));
#124=VERTEX_POINT('',#220);
#125=PRESENTATION_STYLE_ASSIGNMENT((#221));
#126=ADVANCED_FACE('',(#222),#223,.F.);
#127=PRESENTATION_STYLE_ASSIGNMENT((#224));
#128=ADVANCED_FACE('',(#225),#226,.F.);
#129=PRESENTATION_STYLE_ASSIGNMENT((#227));
#130=VERTEX_POINT('',#228);
#131=PRODUCT('1','1','PART-1-DESC',(#229));
#132=PRODUCT_DEFINITION('NONE','NONE',#230,#2);
#133=AXIS2_PLACEMENT_3D('',#231,#232,#233);
#136=LENGTH_MEASURE_WITH_UNIT(LENGTH_MEASURE(1.0),#234);
#139=DIMENSIONAL_EXPONENTS(1.0,0.0,0.0,0.0,0.0,0.0,0.0);
#141=DIMENSIONAL_EXPONENTS(0.0,0.0,0.0,0.0,0.0,0.0,0.0);
#147=POINT_STYLE(' ',#235,POSITIVE_LENGTH_MEASURE(1.0E-006),#236);
#148=CARTESIAN_POINT('',(-5.6843418860808E-014,2.15723114770757E-014,10.2413030787577));
#149=SURFACE_STYLE_USAGE(.BOTH.,#237);
#150=FACE_OUTER_BOUND('',#238,.T.);
#151=SPHERICAL_SURFACE('',#239,10.0);
#152=CURVE_STYLE('',#240,POSITIVE_LENGTH_MEASURE(1.0E-006),#241);
#153=CIRCLE('',#242,2.15000000000001);
#154=CURVE_STYLE('',#243,POSITIVE_LENGTH_MEASURE(1.0E-006),#244);
#155=CIRCLE('',#245,2.15000000000001);
#156=SURFACE_STYLE_USAGE(.BOTH.,#246);
#157=FACE_BOUND('',#247,.T.);
#158=FACE_OUTER_BOUND('',#248,.T.);
#159=PLANE('',#249);
#160=CURVE_STYLE('',#250,POSITIVE_LENGTH_MEASURE(1.0E-006),#251);
#161=LINE('',#252,#253);
#162=CURVE_STYLE('',#254,POSITIVE_LENGTH_MEASURE(1.0E-006),#255);
#163=CIRCLE('',#256,2.49999999999997);
#164=SURFACE_STYLE_USAGE(.BOTH.,#257);
#165=CLOSED_SHELL('',(#110,#128,#120,#62,#84,#68,#102,#96,#126));
#166=CURVE_STYLE('',#258,POSITIVE_LENGTH_MEASURE(1.0E-006),#259);
#167=CIRCLE('',#260,2.15000000000001);
#168=CURVE_STYLE('',#261,POSITIVE_LENGTH_MEASURE(1.0E-006),#262);
#169=CIRCLE('',#263,5.99999999999999);
#170=CURVE_STYLE('',#264,POSITIVE_LENGTH_MEASURE(1.0E-006),#265);
#171=CIRCLE('',#266,5.99999999999999);
#172=CURVE_STYLE('',#267,POSITIVE_LENGTH_MEASURE(1.0E-006),#268);
#173=CIRCLE('',#269,2.15000000000001);
#174=SURFACE_STYLE_USAGE(.BOTH.,#270);
#175=FACE_OUTER_BOUND('',#271,.T.);
#176=SPHERICAL_SURFACE('',#272,10.0);
#177=POINT_STYLE(' ',#273,POSITIVE_LENGTH_MEASURE(1.0E-006),#274);
#178=CARTESIAN_POINT('',(-2.15000000000006,2.0833751383531E-014,8.99999999999997));
#179=CURVE_STYLE('',#275,POSITIVE_LENGTH_MEASURE(1.0E-006),#276);
#180=LINE('',#277,#278);
#181=CURVE_STYLE('',#279,POSITIVE_LENGTH_MEASURE(1.0E-006),#280);
#182=LINE('',#281,#282);
#183=CURVE_STYLE('',#283,POSITIVE_LENGTH_MEASURE(1.0E-006),#284);
#184=CIRCLE('',#285,10.0);
#185=CURVE_STYLE('',#286,POSITIVE_LENGTH_MEASURE(1.0E-006),#287);
#186=LINE('',#288,#289);
#187=SURFACE_STYLE_USAGE(.BOTH.,#290);
#188=FACE_OUTER_BOUND('',#291,.T.);
#189=CYLINDRICAL_SURFACE('',#292,2.15000000000001);
#190=POINT_STYLE(' ',#293,POSITIVE_LENGTH_MEASURE(1.0E-006),#294);
#191=CARTESIAN_POINT('',(-2.50000000000003,2.07908572367097E-014,-2.8421709430404E-014));
#192=POINT_STYLE(' ',#295,POSITIVE_LENGTH_MEASURE(1.0E-006),#296);
#193=CARTESIAN_POINT('',(5.99999999999994,2.2199389718159E-014,-1.4210854715202E-014));
#194=SURFACE_STYLE_USAGE(.BOTH.,#297);
#195=FACE_OUTER_BOUND('',#298,.T.);
#196=CONICAL_SURFACE('',#299,2.32499999999999,0.785398163397448);
#197=CURVE_STYLE('',#300,POSITIVE_LENGTH_MEASURE(1.0E-006),#301);
#198=LINE('',#302,#303);
#199=POINT_STYLE(' ',#304,POSITIVE_LENGTH_MEASURE(1.0E-006),#305);
#200=CARTESIAN_POINT('',(2.49999999999991,2.2199389718159E-014,-2.8421709430404E-014));
#201=CURVE_STYLE('',#306,POSITIVE_LENGTH_MEASURE(1.0E-006),#307);
#202=CIRCLE('',#308,10.0);
#203=SURFACE_STYLE_USAGE(.BOTH.,#309);
#204=FACE_OUTER_BOUND('',#310,.T.);
#205=CONICAL_SURFACE('',#311,1.075,1.0471975511966);
#206=POINT_STYLE(' ',#312,POSITIVE_LENGTH_MEASURE(1.0E-006),#313);
#207=CARTESIAN_POINT('',(-6.00000000000005,2.09747833643367E-014,-1.4210854715202E-014));
#208=CURVE_STYLE('',#314,POSITIVE_LENGTH_MEASURE(1.0E-006),#315);
#209=CIRCLE('',#316,2.49999999999997);
#210=POINT_STYLE(' ',#317,POSITIVE_LENGTH_MEASURE(1.0E-006),#318);
#211=CARTESIAN_POINT('',(2.14999999999995,2.21779591069671E-014,0.349999999999937));
#212=POINT_STYLE(' ',#319,POSITIVE_LENGTH_MEASURE(1.0E-006),#320);
#213=CARTESIAN_POINT('',(-2.15000000000006,2.0833751383531E-014,0.349999999999937));
#214=SURFACE_STYLE_USAGE(.BOTH.,#321);
#215=FACE_OUTER_BOUND('',#322,.T.);
#216=CONICAL_SURFACE('',#323,2.32499999999999,0.785398163397448);
#217=CURVE_STYLE('',#324,POSITIVE_LENGTH_MEASURE(1.0E-006),#325);
#218=LINE('',#326,#327);
#219=POINT_STYLE(' ',#328,POSITIVE_LENGTH_MEASURE(1.0E-006),#329);
#220=CARTESIAN_POINT('',(-5.6843418860808E-014,2.10972439997189E-014,18.0));
#221=SURFACE_STYLE_USAGE(.BOTH.,#330);
#222=FACE_OUTER_BOUND('',#331,.T.);
#223=CONICAL_SURFACE('',#332,1.075,1.0471975511966);
#224=SURFACE_STYLE_USAGE(.BOTH.,#333);
#225=FACE_OUTER_BOUND('',#334,.T.);
#226=CYLINDRICAL_SURFACE('',#335,2.15000000000001);
#227=POINT_STYLE(' ',#336,POSITIVE_LENGTH_MEASURE(1.0E-006),#337);
#228=CARTESIAN_POINT('',(2.14999999999995,2.1648316858939E-014,8.99999999999997));
#229=PRODUCT_CONTEXT('',#46,'mechanical');
#230=PRODUCT_DEFINITION_FORMATION_WITH_SPECIFIED_SOURCE(' ','NONE',#131,.NOT_KNOWN.);
#231=CARTESIAN_POINT('',(0.0,0.0,0.0));
#232=DIRECTION('',(0.0,0.0,1.0));
#233=DIRECTION('',(1.0,0.0,0.0));
#234= (NAMED_UNIT(#139)LENGTH_UNIT()SI_UNIT(.MILLI.,.METRE.));
#235=PRE_DEFINED_MARKER('');
#236=COLOUR_RGB('',0.509803950786591,0.509803950786591,0.588235318660736);
#237=SURFACE_SIDE_STYLE('',(#339));
#238=EDGE_LOOP('',(#340,#341,#342));
#239=AXIS2_PLACEMENT_3D('',#343,#344,#345);
#240=DRAUGHTING_PRE_DEFINED_CURVE_FONT('continuous');
#241=COLOUR_RGB('',0.509803950786591,0.509803950786591,0.588235318660736);
#242=AXIS2_PLACEMENT_3D('',#346,#347,#348);
#243=DRAUGHTING_PRE_DEFINED_CURVE_FONT('continuous');
#244=COLOUR_RGB('',0.509803950786591,0.509803950786591,0.588235318660736);
#245=AXIS2_PLACEMENT_3D('',#349,#350,#351);
#246=SURFACE_SIDE_STYLE('',(#352));
#247=EDGE_LOOP('',(#353,#354));
#248=EDGE_LOOP('',(#355,#356));
#249=AXIS2_PLACEMENT_3D('',#357,#358,#359);
#250=DRAUGHTING_PRE_DEFINED_CURVE_FONT('continuous');
#251=COLOUR_RGB('',0.509803950786591,0.509803950786591,0.588235318660736);
#252=CARTESIAN_POINT('',(-1.07500000000006,2.09654976916249E-014,9.62065153937883));
#253=VECTOR('',#360,1.0);
#254=DRAUGHTING_PRE_DEFINED_CURVE_FONT('continuous');
#255=COLOUR_RGB('',0.509803950786591,0.509803950786591,0.588235318660736);
#256=AXIS2_PLACEMENT_3D('',#361,#362,#363);
#257=SURFACE_SIDE_STYLE('',(#364));
#258=DRAUGHTING_PRE_DEFINED_CURVE_FONT('continuous');
#259=COLOUR_RGB('',0.509803950786591,0.509803950786591,0.588235318660736);
#260=AXIS2_PLACEMENT_3D('',#365,#366,#367);
#261=DRAUGHTING_PRE_DEFINED_CURVE_FONT('continuous');
#262=COLOUR_RGB('',0.509803950786591,0.509803950786591,0.588235318660736);
#263=AXIS2_PLACEMENT_3D('',#368,#369,#370);
#264=DRAUGHTING_PRE_DEFINED_CURVE_FONT('continuous');
#265=COLOUR_RGB('',0.509803950786591,0.509803950786591,0.588235318660736);
#266=AXIS2_PLACEMENT_3D('',#371,#372,#373);
#267=DRAUGHTING_PRE_DEFINED_CURVE_FONT('continuous');
#268=COLOUR_RGB('',0.509803950786591,0.509803950786591,0.588235318660736);
#269=AXIS2_PLACEMENT_3D('',#374,#375,#376);
#270=SURFACE_SIDE_STYLE('',(#377));
#271=EDGE_LOOP('',(#378,#379,#380));
#272=AXIS2_PLACEMENT_3D('',#381,#382,#383);
#273=PRE_DEFINED_MARKER('');
#274=COLOUR_RGB('',0.509803950786591,0.509803950786591,0.588235318660736);
#275=DRAUGHTING_PRE_DEFINED_CURVE_FONT('continuous');
#276=COLOUR_RGB('',0.509803950786591,0.509803950786591,0.588235318660736);
#277=CARTESIAN_POINT('',(2.14999999999995,2.13607366159068E-014,4.67499999999995));
#278=VECTOR('',#384,1.0);
#279=DRAUGHTING_PRE_DEFINED_CURVE_FONT('continuous');
#280=COLOUR_RGB('',0.509803950786591,0.509803950786591,0.588235318660736);
#281=CARTESIAN_POINT('',(1.07499999999995,2.12289903078128E-014,9.62065153937883));
#282=VECTOR('',#385,1.0);
#283=DRAUGHTING_PRE_DEFINED_CURVE_FONT('continuous');
#284=COLOUR_RGB('',0.509803950786591,0.509803950786591,0.588235318660736);
#285=AXIS2_PLACEMENT_3D('',#386,#387,#388);
#286=DRAUGHTING_PRE_DEFINED_CURVE_FONT('continuous');
#287=COLOUR_RGB('',0.509803950786591,0.509803950786591,0.588235318660736);
#288=CARTESIAN_POINT('',(2.32499999999993,2.13821836893174E-014,0.174999999999955));
#289=VECTOR('',#389,1.0);
#290=SURFACE_SIDE_STYLE('',(#390));
#291=EDGE_LOOP('',(#391,#392,#393,#394));
#292=AXIS2_PLACEMENT_3D('',#395,#396,#397);
#293=PRE_DEFINED_MARKER('');
#294=COLOUR_RGB('',0.509803950786591,0.509803950786591,0.588235318660736);
#295=PRE_DEFINED_MARKER('');
#296=COLOUR_RGB('',0.509803950786591,0.509803950786591,0.588235318660736);
#297=SURFACE_SIDE_STYLE('',(#398));
#298=EDGE_LOOP('',(#399,#400,#401,#402));
#299=AXIS2_PLACEMENT_3D('',#403,#404,#405);
#300=DRAUGHTING_PRE_DEFINED_CURVE_FONT('continuous');
#301=COLOUR_RGB('',0.509803950786591,0.509803950786591,0.588235318660736);
#302=CARTESIAN_POINT('',(-2.32500000000005,2.08123043101203E-014,0.174999999999955));
#303=VECTOR('',#406,1.0);
#304=PRE_DEFINED_MARKER('');
#305=COLOUR_RGB('',0.509803950786591,0.509803950786591,0.588235318660736);
#306=DRAUGHTING_PRE_DEFINED_CURVE_FONT('continuous');
#307=COLOUR_RGB('',0.509803950786591,0.509803950786591,0.588235318660736);
#308=AXIS2_PLACEMENT_3D('',#407,#408,#409);
#309=SURFACE_SIDE_STYLE('',(#410));
#310=EDGE_LOOP('',(#411,#412,#413));
#311=AXIS2_PLACEMENT_3D('',#414,#415,#416);
#312=PRE_DEFINED_MARKER('');
#313=COLOUR_RGB('',0.509803950786591,0.509803950786591,0.588235318660736);
#314=DRAUGHTING_PRE_DEFINED_CURVE_FONT('continuous');
#315=COLOUR_RGB('',0.509803950786591,0.509803950786591,0.588235318660736);
#316=AXIS2_PLACEMENT_3D('',#417,#418,#419);
#317=PRE_DEFINED_MARKER('');
#318=COLOUR_RGB('',0.509803950786591,0.509803950786591,0.588235318660736);
#319=PRE_DEFINED_MARKER('');
#320=COLOUR_RGB('',0.509803950786591,0.509803950786591,0.588235318660736);
#321=SURFACE_SIDE_STYLE('',(#420));
#322=EDGE_LOOP('',(#421,#422,#423,#424));
#323=AXIS2_PLACEMENT_3D('',#425,#426,#427);
#324=DRAUGHTING_PRE_DEFINED_CURVE_FONT('continuous');
#325=COLOUR_RGB('',0.509803950786591,0.509803950786591,0.588235318660736);
#326=CARTESIAN_POINT('',(-2.15000000000006,2.0833751383531E-014,4.67499999999995));
#327=VECTOR('',#428,1.0);
#328=PRE_DEFINED_MARKER('');
#329=COLOUR_RGB('',0.509803950786591,0.509803950786591,0.588235318660736);
#330=SURFACE_SIDE_STYLE('',(#429));
#331=EDGE_LOOP('',(#430,#431,#432));
#332=AXIS2_PLACEMENT_3D('',#433,#434,#435);
#333=SURFACE_SIDE_STYLE('',(#436));
#334=EDGE_LOOP('',(#437,#438,#439,#440));
#335=AXIS2_PLACEMENT_3D('',#441,#442,#443);
#336=PRE_DEFINED_MARKER('');
#337=COLOUR_RGB('',0.509803950786591,0.509803950786591,0.588235318660736);
#339=SURFACE_STYLE_FILL_AREA(#444);
#340=ORIENTED_EDGE('',*,*,#108,.F.);
#341=ORIENTED_EDGE('',*,*,#92,.F.);
#342=ORIENTED_EDGE('',*,*,#80,.F.);
#343=CARTESIAN_POINT('',(-6.19835355575036E-014,2.17095471766301E-014,7.99999999999998));
#344=DIRECTION('',(0.0,0.0,-1.0));
#345=DIRECTION('',(-1.0,0.0,0.0));
#346=CARTESIAN_POINT('',(-5.6843418860808E-014,2.10972439997189E-014,8.99999999999997));
#347=DIRECTION('',(0.0,0.0,-1.0));
#348=DIRECTION('',(1.0,9.40698214412202E-020,0.0));
#349=CARTESIAN_POINT('',(-5.6843418860808E-014,2.10972439997189E-014,0.349999999999937));
#350=DIRECTION('',(0.0,0.0,-1.0));
#351=DIRECTION('',(1.0,9.40698214412202E-020,0.0));
#352=SURFACE_STYLE_FILL_AREA(#445);
#353=ORIENTED_EDGE('',*,*,#72,.F.);
#354=ORIENTED_EDGE('',*,*,#114,.F.);
#355=ORIENTED_EDGE('',*,*,#78,.T.);
#356=ORIENTED_EDGE('',*,*,#80,.T.);
#357=CARTESIAN_POINT('',(4.24999999999993,2.2199389718159E-014,-2.1316282072803E-014));
#358=DIRECTION('',(0.0,0.0,-1.0));
#359=DIRECTION('',(-1.0,0.0,0.0));
#360=DIRECTION('',(0.866025403784439,1.06135488059699E-016,0.5));
#361=CARTESIAN_POINT('',(-5.6843418860808E-014,2.10972439997189E-014,-2.8421709430404E-014));
#362=DIRECTION('',(0.0,0.0,-1.0));
#363=DIRECTION('',(1.0,9.40698214412202E-020,0.0));
#364=SURFACE_STYLE_FILL_AREA(#446);
#365=CARTESIAN_POINT('',(-5.6843418860808E-014,2.10972439997189E-014,0.349999999999937));
#366=DIRECTION('',(0.0,0.0,-1.0));
#367=DIRECTION('',(1.0,9.40698214412202E-020,0.0));
#368=CARTESIAN_POINT('',(-5.6843418860808E-014,2.10972439997189E-014,-1.4210854715202E-014));
#369=DIRECTION('',(0.0,0.0,-1.0));
#370=DIRECTION('',(1.0,9.40698214412202E-020,0.0));
#371=CARTESIAN_POINT('',(-5.6843418860808E-014,2.10972439997189E-014,-1.4210854715202E-014));
#372=DIRECTION('',(0.0,0.0,-1.0));
#373=DIRECTION('',(1.0,9.40698214412202E-020,0.0));
#374=CARTESIAN_POINT('',(-5.6843418860808E-014,2.10972439997189E-014,8.99999999999997));
#375=DIRECTION('',(0.0,0.0,-1.0));
#376=DIRECTION('',(1.0,9.40698214412202E-020,0.0));
#377=SURFACE_STYLE_FILL_AREA(#447);
#378=ORIENTED_EDGE('',*,*,#108,.T.);
#379=ORIENTED_EDGE('',*,*,#78,.F.);
#380=ORIENTED_EDGE('',*,*,#92,.T.);
#381=CARTESIAN_POINT('',(-6.19835355575036E-014,2.17095471766301E-014,7.99999999999998));
#382=DIRECTION('',(0.0,0.0,-1.0));
#383=DIRECTION('',(-1.0,0.0,0.0));
#384=DIRECTION('',(-0.0,-0.0,-1.0));
#385=DIRECTION('',(0.866025403784439,1.06135488059699E-016,-0.5));
#386=CARTESIAN_POINT('',(-6.19835355575036E-014,2.17095471766301E-014,7.99999999999998));
#387=DIRECTION('',(1.22460635382238E-016,-1.0,0.0));
#388=DIRECTION('',(0.0,0.0,1.0));
#389=DIRECTION('',(0.707106781186548,8.66592631158401E-017,-0.707106781186547));
#390=SURFACE_STYLE_FILL_AREA(#448);
#391=ORIENTED_EDGE('',*,*,#88,.T.);
#392=ORIENTED_EDGE('',*,*,#66,.T.);
#393=ORIENTED_EDGE('',*,*,#122,.T.);
#394=ORIENTED_EDGE('',*,*,#82,.F.);
#395=CARTESIAN_POINT('',(-5.6843418860808E-014,2.10972439997189E-014,4.67499999999995));
#396=DIRECTION('',(-0.0,-0.0,1.0));
#397=DIRECTION('',(1.0,9.40698214412202E-020,0.0));
#398=SURFACE_STYLE_FILL_AREA(#449);
#399=ORIENTED_EDGE('',*,*,#94,.T.);
#400=ORIENTED_EDGE('',*,*,#72,.T.);
#401=ORIENTED_EDGE('',*,*,#104,.T.);
#402=ORIENTED_EDGE('',*,*,#66,.F.);
#403=CARTESIAN_POINT('',(-5.6843418860808E-014,2.10972439997189E-014,0.174999999999955));
#404=DIRECTION('',(0.0,-0.0,-1.0));
#405=DIRECTION('',(1.0,9.40698214412202E-020,0.0));
#406=DIRECTION('',(0.707106781186548,8.66592631158401E-017,0.707106781186547));
#407=CARTESIAN_POINT('',(-6.19835355575036E-014,2.17095471766301E-014,7.99999999999998));
#408=DIRECTION('',(1.22460635382238E-016,-1.0,0.0));
#409=DIRECTION('',(0.0,0.0,1.0));
#410=SURFACE_STYLE_FILL_AREA(#450);
#411=ORIENTED_EDGE('',*,*,#70,.T.);
#412=ORIENTED_EDGE('',*,*,#90,.T.);
#413=ORIENTED_EDGE('',*,*,#82,.T.);
#414=CARTESIAN_POINT('',(-5.6843418860808E-014,2.10972439997189E-014,9.62065153937883));
#415=DIRECTION('',(0.0,-0.0,-1.0));
#416=DIRECTION('',(1.0,9.40698214412202E-020,0.0));
#417=CARTESIAN_POINT('',(-5.6843418860808E-014,2.10972439997189E-014,-2.8421709430404E-014));
#418=DIRECTION('',(0.0,0.0,-1.0));
#419=DIRECTION('',(1.0,9.40698214412202E-020,0.0));
#420=SURFACE_STYLE_FILL_AREA(#451);
#421=ORIENTED_EDGE('',*,*,#94,.F.);
#422=ORIENTED_EDGE('',*,*,#76,.F.);
#423=ORIENTED_EDGE('',*,*,#104,.F.);
#424=ORIENTED_EDGE('',*,*,#114,.T.);
#425=CARTESIAN_POINT('',(-5.6843418860808E-014,2.10972439997189E-014,0.174999999999955));
#426=DIRECTION('',(0.0,-0.0,-1.0));
#427=DIRECTION('',(1.0,9.40698214412202E-020,0.0));
#428=DIRECTION('',(-0.0,-0.0,1.0));
#429=SURFACE_STYLE_FILL_AREA(#452);
#430=ORIENTED_EDGE('',*,*,#70,.F.);
#431=ORIENTED_EDGE('',*,*,#64,.T.);
#432=ORIENTED_EDGE('',*,*,#90,.F.);
#433=CARTESIAN_POINT('',(-5.6843418860808E-014,2.10972439997189E-014,9.62065153937883));
#434=DIRECTION('',(0.0,-0.0,-1.0));
#435=DIRECTION('',(1.0,9.40698214412202E-020,0.0));
#436=SURFACE_STYLE_FILL_AREA(#453);
#437=ORIENTED_EDGE('',*,*,#88,.F.);
#438=ORIENTED_EDGE('',*,*,#64,.F.);
#439=ORIENTED_EDGE('',*,*,#122,.F.);
#440=ORIENTED_EDGE('',*,*,#76,.T.);
#441=CARTESIAN_POINT('',(-5.6843418860808E-014,2.10972439997189E-014,4.67499999999995));
#442=DIRECTION('',(-0.0,-0.0,1.0));
#443=DIRECTION('',(1.0,9.40698214412202E-020,0.0));
#444=FILL_AREA_STYLE('',(#454));
#445=FILL_AREA_STYLE('',(#455));
#446=FILL_AREA_STYLE('',(#456));
#447=FILL_AREA_STYLE('',(#457));
#448=FILL_AREA_STYLE('',(#458));
#449=FILL_AREA_STYLE('',(#459));
#450=FILL_AREA_STYLE('',(#460));
#451=FILL_AREA_STYLE('',(#461));
#452=FILL_AREA_STYLE('',(#462));
#453=FILL_AREA_STYLE('',(#463));
#454=FILL_AREA_STYLE_COLOUR('',#464);
#455=FILL_AREA_STYLE_COLOUR('',#465);
#456=FILL_AREA_STYLE_COLOUR('',#466);
#457=FILL_AREA_STYLE_COLOUR('',#467);
#458=FILL_AREA_STYLE_COLOUR('',#468);
#459=FILL_AREA_STYLE_COLOUR('',#469);
#460=FILL_AREA_STYLE_COLOUR('',#470);
#461=FILL_AREA_STYLE_COLOUR('',#471);
#462=FILL_AREA_STYLE_COLOUR('',#472);
#463=FILL_AREA_STYLE_COLOUR('',#473);
#464=COLOUR_RGB('',0.509803950786591,0.509803950786591,0.588235318660736);
#465=COLOUR_RGB('',0.509803950786591,0.509803950786591,0.588235318660736);
#466=COLOUR_RGB('',0.509803950786591,0.509803950786591,0.588235318660736);
#467=COLOUR_RGB('',0.509803950786591,0.509803950786591,0.588235318660736);
#468=COLOUR_RGB('',0.509803950786591,0.509803950786591,0.588235318660736);
#469=COLOUR_RGB('',0.509803950786591,0.509803950786591,0.588235318660736);
#470=COLOUR_RGB('',0.509803950786591,0.509803950786591,0.588235318660736);
#471=COLOUR_RGB('',0.509803950786591,0.509803950786591,0.588235318660736);
#472=COLOUR_RGB('',0.509803950786591,0.509803950786591,0.588235318660736);
#473=COLOUR_RGB('',0.509803950786591,0.509803950786591,0.588235318660736);
ENDSEC;
END-ISO-10303-21;
