ISO-10303-21;
HEADER;
FILE_DESCRIPTION(('STEP AP214'),'1');
FILE_NAME(' ','  ',('TraceParts'),('TraceParts S.A.'),'XStep 1.0',' ',' ');
FILE_SCHEMA(('automotive_design'));
ENDSEC;
DATA;
#1=MECHANICAL_DESIGN_GEOMETRIC_PRESENTATION_REPRESENTATION(' ',(#10,#11,#12,#13,#14,#15,#16,#17,#18,#19,#20,#21,#22,#23,#24,#25,#26,#27,#28,#29,#30,#31,#32,#33,#34,#35,#36,#37,#38,#39,#40,#41,#42,#43,#44,#45),#6);
#2=PRODUCT_DEFINITION_CONTEXT('',#46,'design');
#3=APPLICATION_PROTOCOL_DEFINITION('INTERNATIONAL STANDARD','automotive_design',1994,#46);
#4=PRODUCT_CATEGORY_RELATIONSHIP('NONE','NONE',#47,#48);
#5=SHAPE_DEFINITION_REPRESENTATION(#49,#50);
#6= (GEOMETRIC_REPRESENTATION_CONTEXT(3)GLOBAL_UNCERTAINTY_ASSIGNED_CONTEXT((#53))GLOBAL_UNIT_ASSIGNED_CONTEXT((#55,#56,#57))REPRESENTATION_CONTEXT('NONE','WORKSPACE'));
#10=STYLED_ITEM('',(#59),#60);
#11=STYLED_ITEM('',(#61),#62);
#12=STYLED_ITEM('',(#63),#64);
#13=STYLED_ITEM('',(#65),#66);
#14=STYLED_ITEM('',(#67),#68);
#15=STYLED_ITEM('',(#69),#70);
#16=STYLED_ITEM('',(#71),#72);
#17=STYLED_ITEM('',(#73),#74);
#18=STYLED_ITEM('',(#75),#76);
#19=STYLED_ITEM('',(#77),#78);
#20=STYLED_ITEM('',(#79),#80);
#21=STYLED_ITEM('',(#81),#82);
#22=STYLED_ITEM('',(#83),#84);
#23=STYLED_ITEM('',(#85),#86);
#24=STYLED_ITEM('',(#87),#88);
#25=STYLED_ITEM('',(#89),#90);
#26=STYLED_ITEM('',(#91),#92);
#27=STYLED_ITEM('',(#93),#94);
#28=STYLED_ITEM('',(#95),#96);
#29=STYLED_ITEM('',(#97),#98);
#30=STYLED_ITEM('',(#99),#100);
#31=STYLED_ITEM('',(#101),#102);
#32=STYLED_ITEM('',(#103),#104);
#33=STYLED_ITEM('',(#105),#106);
#34=STYLED_ITEM('',(#107),#108);
#35=STYLED_ITEM('',(#109),#110);
#36=STYLED_ITEM('',(#111),#112);
#37=STYLED_ITEM('',(#113),#114);
#38=STYLED_ITEM('',(#115),#116);
#39=STYLED_ITEM('',(#117),#118);
#40=STYLED_ITEM('',(#119),#120);
#41=STYLED_ITEM('',(#121),#122);
#42=STYLED_ITEM('',(#123),#124);
#43=STYLED_ITEM('',(#125),#126);
#44=STYLED_ITEM('',(#127),#128);
#45=STYLED_ITEM('',(#129),#130);
#46=APPLICATION_CONTEXT(' ');
#47=PRODUCT_CATEGORY('part','NONE');
#48=PRODUCT_RELATED_PRODUCT_CATEGORY('detail',' ',(#131));
#49=PRODUCT_DEFINITION_SHAPE('NONE','NONE',#132);
#50=ADVANCED_BREP_SHAPE_REPRESENTATION('1',(#96,#133),#6);
#53=UNCERTAINTY_MEASURE_WITH_UNIT(LENGTH_MEASURE(1.0E-006),#55,'','');
#55= (CONVERSION_BASED_UNIT('MILLIMETRE',#136)LENGTH_UNIT()NAMED_UNIT(#139));
#56= (NAMED_UNIT(#141)PLANE_ANGLE_UNIT()SI_UNIT($,.RADIAN.));
#57= (NAMED_UNIT(#141)SOLID_ANGLE_UNIT()SI_UNIT($,.STERADIAN.));
#59=PRESENTATION_STYLE_ASSIGNMENT((#147));
#60=ADVANCED_FACE('',(#148,#149),#150,.T.);
#61=PRESENTATION_STYLE_ASSIGNMENT((#151));
#62=EDGE_CURVE('',#80,#68,#152,.T.);
#63=PRESENTATION_STYLE_ASSIGNMENT((#153));
#64=ADVANCED_FACE('',(#154),#155,.F.);
#65=PRESENTATION_STYLE_ASSIGNMENT((#156));
#66=EDGE_CURVE('',#118,#116,#157,.T.);
#67=PRESENTATION_STYLE_ASSIGNMENT((#158));
#68=VERTEX_POINT('',#159);
#69=PRESENTATION_STYLE_ASSIGNMENT((#160));
#70=ADVANCED_FACE('',(#161),#162,.F.);
#71=PRESENTATION_STYLE_ASSIGNMENT((#163));
#72=ADVANCED_FACE('',(#164),#165,.T.);
#73=PRESENTATION_STYLE_ASSIGNMENT((#166));
#74=ADVANCED_FACE('',(#167),#168,.F.);
#75=PRESENTATION_STYLE_ASSIGNMENT((#169));
#76=VERTEX_POINT('',#170);
#77=PRESENTATION_STYLE_ASSIGNMENT((#171));
#78=ADVANCED_FACE('',(#172),#173,.F.);
#79=PRESENTATION_STYLE_ASSIGNMENT((#174));
#80=VERTEX_POINT('',#175);
#81=PRESENTATION_STYLE_ASSIGNMENT((#176));
#82=EDGE_CURVE('',#86,#118,#177,.T.);
#83=PRESENTATION_STYLE_ASSIGNMENT((#178));
#84=EDGE_CURVE('',#88,#86,#179,.T.);
#85=PRESENTATION_STYLE_ASSIGNMENT((#180));
#86=VERTEX_POINT('',#181);
#87=PRESENTATION_STYLE_ASSIGNMENT((#182));
#88=VERTEX_POINT('',#183);
#89=PRESENTATION_STYLE_ASSIGNMENT((#184));
#90=ADVANCED_FACE('',(#185),#186,.F.);
#91=PRESENTATION_STYLE_ASSIGNMENT((#187));
#92=EDGE_CURVE('',#108,#76,#188,.T.);
#93=PRESENTATION_STYLE_ASSIGNMENT((#189));
#94=EDGE_CURVE('',#116,#118,#190,.T.);
#95=PRESENTATION_STYLE_ASSIGNMENT((#191));
#96=MANIFOLD_SOLID_BREP('1',#192);
#97=PRESENTATION_STYLE_ASSIGNMENT((#193));
#98=EDGE_CURVE('',#76,#108,#194,.T.);
#99=PRESENTATION_STYLE_ASSIGNMENT((#195));
#100=EDGE_CURVE('',#76,#88,#196,.T.);
#101=PRESENTATION_STYLE_ASSIGNMENT((#197));
#102=VERTEX_POINT('',#198);
#103=PRESENTATION_STYLE_ASSIGNMENT((#199));
#104=VERTEX_POINT('',#200);
#105=PRESENTATION_STYLE_ASSIGNMENT((#201));
#106=EDGE_CURVE('',#102,#68,#202,.T.);
#107=PRESENTATION_STYLE_ASSIGNMENT((#203));
#108=VERTEX_POINT('',#204);
#109=PRESENTATION_STYLE_ASSIGNMENT((#205));
#110=EDGE_CURVE('',#86,#88,#206,.T.);
#111=PRESENTATION_STYLE_ASSIGNMENT((#207));
#112=EDGE_CURVE('',#104,#76,#208,.T.);
#113=PRESENTATION_STYLE_ASSIGNMENT((#209));
#114=EDGE_CURVE('',#116,#88,#210,.T.);
#115=PRESENTATION_STYLE_ASSIGNMENT((#211));
#116=VERTEX_POINT('',#212);
#117=PRESENTATION_STYLE_ASSIGNMENT((#213));
#118=VERTEX_POINT('',#214);
#119=PRESENTATION_STYLE_ASSIGNMENT((#215));
#120=ADVANCED_FACE('',(#216),#217,.F.);
#121=PRESENTATION_STYLE_ASSIGNMENT((#218));
#122=ADVANCED_FACE('',(#219),#220,.T.);
#123=PRESENTATION_STYLE_ASSIGNMENT((#221));
#124=EDGE_CURVE('',#108,#104,#222,.T.);
#125=PRESENTATION_STYLE_ASSIGNMENT((#223));
#126=EDGE_CURVE('',#68,#80,#224,.T.);
#127=PRESENTATION_STYLE_ASSIGNMENT((#225));
#128=EDGE_CURVE('',#86,#108,#226,.T.);
#129=PRESENTATION_STYLE_ASSIGNMENT((#227));
#130=EDGE_CURVE('',#80,#102,#228,.T.);
#131=PRODUCT('1','1','PART-1-DESC',(#229));
#132=PRODUCT_DEFINITION('NONE','NONE',#230,#2);
#133=AXIS2_PLACEMENT_3D('',#231,#232,#233);
#136=LENGTH_MEASURE_WITH_UNIT(LENGTH_MEASURE(1.0),#234);
#139=DIMENSIONAL_EXPONENTS(1.0,0.0,0.0,0.0,0.0,0.0,0.0);
#141=DIMENSIONAL_EXPONENTS(0.0,0.0,0.0,0.0,0.0,0.0,0.0);
#147=SURFACE_STYLE_USAGE(.BOTH.,#235);
#148=FACE_BOUND('',#236,.T.);
#149=FACE_OUTER_BOUND('',#237,.T.);
#150=PLANE('',#238);
#151=CURVE_STYLE('',#239,POSITIVE_LENGTH_MEASURE(1.0E-006),#240);
#152=CIRCLE('',#241,10.5356537528528);
#153=SURFACE_STYLE_USAGE(.BOTH.,#242);
#154=FACE_OUTER_BOUND('',#243,.T.);
#155=CYLINDRICAL_SURFACE('',#244,4.82499999999999);
#156=CURVE_STYLE('',#245,POSITIVE_LENGTH_MEASURE(1.0E-006),#246);
#157=CIRCLE('',#247,4.99999999999997);
#158=POINT_STYLE(' ',#248,POSITIVE_LENGTH_MEASURE(1.0E-006),#249);
#159=CARTESIAN_POINT('',(-10.5356537528528,2.10316475007997E-014,-8.5265128291212E-014));
#160=SURFACE_STYLE_USAGE(.BOTH.,#250);
#161=FACE_OUTER_BOUND('',#251,.T.);
#162=CONICAL_SURFACE('',#252,4.91249999999999,0.00874977670296652);
#163=SURFACE_STYLE_USAGE(.BOTH.,#253);
#164=FACE_OUTER_BOUND('',#254,.T.);
#165=SPHERICAL_SURFACE('',#255,20.0);
#166=SURFACE_STYLE_USAGE(.BOTH.,#256);
#167=FACE_OUTER_BOUND('',#257,.T.);
#168=CONICAL_SURFACE('',#258,2.41249999999999,1.04719755119659);
#169=POINT_STYLE(' ',#259,POSITIVE_LENGTH_MEASURE(1.0E-006),#260);
#170=CARTESIAN_POINT('',(4.82499999999993,2.18626229708579E-014,24.4999999999999));
#171=SURFACE_STYLE_USAGE(.BOTH.,#261);
#172=FACE_OUTER_BOUND('',#262,.T.);
#173=CONICAL_SURFACE('',#263,4.91249999999999,0.00874977670296652);
#174=POINT_STYLE(' ',#264,POSITIVE_LENGTH_MEASURE(1.0E-006),#265);
#175=CARTESIAN_POINT('',(10.5356537528527,2.33627657542903E-014,-8.5265128291212E-014));
#176=CURVE_STYLE('',#266,POSITIVE_LENGTH_MEASURE(1.0E-006),#267);
#177=LINE('',#268,#269);
#178=CURVE_STYLE('',#270,POSITIVE_LENGTH_MEASURE(1.0E-006),#271);
#179=CIRCLE('',#272,4.82499999999999);
#180=POINT_STYLE(' ',#273,POSITIVE_LENGTH_MEASURE(1.0E-006),#274);
#181=CARTESIAN_POINT('',(-4.82500000000005,-3.43371577006281E-013,19.9999999999999));
#182=POINT_STYLE(' ',#275,POSITIVE_LENGTH_MEASURE(1.0E-006),#276);
#183=CARTESIAN_POINT('',(4.8249999999999,2.03537331393632E-014,19.9999999999999));
#184=SURFACE_STYLE_USAGE(.BOTH.,#277);
#185=FACE_OUTER_BOUND('',#278,.T.);
#186=CYLINDRICAL_SURFACE('',#279,4.82499999999999);
#187=CURVE_STYLE('',#280,POSITIVE_LENGTH_MEASURE(1.0E-006),#281);
#188=CIRCLE('',#282,4.82499999999999);
#189=CURVE_STYLE('',#283,POSITIVE_LENGTH_MEASURE(1.0E-006),#284);
#190=CIRCLE('',#285,4.99999999999997);
#191=SURFACE_STYLE_USAGE(.BOTH.,#286);
#192=CLOSED_SHELL('',(#120,#64,#122,#78,#70,#72,#60,#90,#74));
#193=CURVE_STYLE('',#287,POSITIVE_LENGTH_MEASURE(1.0E-006),#288);
#194=CIRCLE('',#289,4.82499999999999);
#195=CURVE_STYLE('',#290,POSITIVE_LENGTH_MEASURE(1.0E-006),#291);
#196=LINE('',#292,#293);
#197=POINT_STYLE(' ',#294,POSITIVE_LENGTH_MEASURE(1.0E-006),#295);
#198=CARTESIAN_POINT('',(-5.6843418860808E-014,2.10972439997189E-014,36.9999999999999));
#199=POINT_STYLE(' ',#296,POSITIVE_LENGTH_MEASURE(1.0E-006),#297);
#200=CARTESIAN_POINT('',(-5.6843418860808E-014,2.16920527534205E-014,27.28571504884));
#201=CURVE_STYLE('',#298,POSITIVE_LENGTH_MEASURE(1.0E-006),#299);
#202=CIRCLE('',#300,20.0);
#203=POINT_STYLE(' ',#301,POSITIVE_LENGTH_MEASURE(1.0E-006),#302);
#204=CARTESIAN_POINT('',(-4.82500000000005,2.05059014326779E-014,24.4999999999999));
#205=CURVE_STYLE('',#303,POSITIVE_LENGTH_MEASURE(1.0E-006),#304);
#206=CIRCLE('',#305,4.82499999999999);
#207=CURVE_STYLE('',#306,POSITIVE_LENGTH_MEASURE(1.0E-006),#307);
#208=LINE('',#308,#309);
#209=CURVE_STYLE('',#310,POSITIVE_LENGTH_MEASURE(1.0E-006),#311);
#210=LINE('',#312,#313);
#211=POINT_STYLE(' ',#314,POSITIVE_LENGTH_MEASURE(1.0E-006),#315);
#212=CARTESIAN_POINT('',(4.99999999999991,2.33627657542903E-014,-5.6843418860808E-014));
#213=POINT_STYLE(' ',#316,POSITIVE_LENGTH_MEASURE(1.0E-006),#317);
#214=CARTESIAN_POINT('',(-5.00000000000003,-3.56547506666851E-013,-5.6843418860808E-014));
#215=SURFACE_STYLE_USAGE(.BOTH.,#318);
#216=FACE_OUTER_BOUND('',#319,.T.);
#217=CONICAL_SURFACE('',#320,2.41249999999999,1.04719755119659);
#218=SURFACE_STYLE_USAGE(.BOTH.,#321);
#219=FACE_OUTER_BOUND('',#322,.T.);
#220=SPHERICAL_SURFACE('',#323,20.0);
#221=CURVE_STYLE('',#324,POSITIVE_LENGTH_MEASURE(1.0E-006),#325);
#222=LINE('',#326,#327);
#223=CURVE_STYLE('',#328,POSITIVE_LENGTH_MEASURE(1.0E-006),#329);
#224=CIRCLE('',#330,10.5356537528528);
#225=CURVE_STYLE('',#331,POSITIVE_LENGTH_MEASURE(1.0E-006),#332);
#226=LINE('',#333,#334);
#227=CURVE_STYLE('',#335,POSITIVE_LENGTH_MEASURE(1.0E-006),#336);
#228=CIRCLE('',#337,20.0);
#229=PRODUCT_CONTEXT('',#46,'mechanical');
#230=PRODUCT_DEFINITION_FORMATION_WITH_SPECIFIED_SOURCE(' ','NONE',#131,.NOT_KNOWN.);
#231=CARTESIAN_POINT('',(0.0,0.0,0.0));
#232=DIRECTION('',(0.0,0.0,1.0));
#233=DIRECTION('',(1.0,0.0,0.0));
#234= (NAMED_UNIT(#139)LENGTH_UNIT()SI_UNIT(.MILLI.,.METRE.));
#235=SURFACE_SIDE_STYLE('',(#339));
#236=EDGE_LOOP('',(#340,#341));
#237=EDGE_LOOP('',(#342,#343));
#238=AXIS2_PLACEMENT_3D('',#344,#345,#346);
#239=DRAUGHTING_PRE_DEFINED_CURVE_FONT('continuous');
#240=COLOUR_RGB('',0.509803950786591,0.509803950786591,0.588235318660736);
#241=AXIS2_PLACEMENT_3D('',#347,#348,#349);
#242=SURFACE_SIDE_STYLE('',(#350));
#243=EDGE_LOOP('',(#351,#352,#353,#354));
#244=AXIS2_PLACEMENT_3D('',#355,#356,#357);
#245=DRAUGHTING_PRE_DEFINED_CURVE_FONT('continuous');
#246=COLOUR_RGB('',0.509803950786591,0.509803950786591,0.588235318660736);
#247=AXIS2_PLACEMENT_3D('',#358,#359,#360);
#248=PRE_DEFINED_MARKER('');
#249=COLOUR_RGB('',0.509803950786591,0.509803950786591,0.588235318660736);
#250=SURFACE_SIDE_STYLE('',(#361));
#251=EDGE_LOOP('',(#362,#363,#364,#365));
#252=AXIS2_PLACEMENT_3D('',#366,#367,#368);
#253=SURFACE_SIDE_STYLE('',(#369));
#254=EDGE_LOOP('',(#370,#371,#372));
#255=AXIS2_PLACEMENT_3D('',#373,#374,#375);
#256=SURFACE_SIDE_STYLE('',(#376));
#257=EDGE_LOOP('',(#377,#378,#379));
#258=AXIS2_PLACEMENT_3D('',#380,#381,#382);
#259=PRE_DEFINED_MARKER('');
#260=COLOUR_RGB('',0.509803950786591,0.509803950786591,0.588235318660736);
#261=SURFACE_SIDE_STYLE('',(#383));
#262=EDGE_LOOP('',(#384,#385,#386,#387));
#263=AXIS2_PLACEMENT_3D('',#388,#389,#390);
#264=PRE_DEFINED_MARKER('');
#265=COLOUR_RGB('',0.509803950786591,0.509803950786591,0.588235318660736);
#266=DRAUGHTING_PRE_DEFINED_CURVE_FONT('continuous');
#267=COLOUR_RGB('',0.509803950786591,0.509803950786591,0.588235318660736);
#268=CARTESIAN_POINT('',(-4.91250000000008,-3.49959541836569E-013,9.99999999999994));
#269=VECTOR('',#391,1.0);
#270=DRAUGHTING_PRE_DEFINED_CURVE_FONT('continuous');
#271=COLOUR_RGB('',0.509803950786591,0.509803950786591,0.588235318660736);
#272=AXIS2_PLACEMENT_3D('',#392,#393,#394);
#273=PRE_DEFINED_MARKER('');
#274=COLOUR_RGB('',0.509803950786591,0.509803950786591,0.588235318660736);
#275=PRE_DEFINED_MARKER('');
#276=COLOUR_RGB('',0.509803950786591,0.509803950786591,0.588235318660736);
#277=SURFACE_SIDE_STYLE('',(#395));
#278=EDGE_LOOP('',(#396,#397,#398,#399));
#279=AXIS2_PLACEMENT_3D('',#400,#401,#402);
#280=DRAUGHTING_PRE_DEFINED_CURVE_FONT('continuous');
#281=COLOUR_RGB('',0.509803950786591,0.509803950786591,0.588235318660736);
#282=AXIS2_PLACEMENT_3D('',#403,#404,#405);
#283=DRAUGHTING_PRE_DEFINED_CURVE_FONT('continuous');
#284=COLOUR_RGB('',0.509803950786591,0.509803950786591,0.588235318660736);
#285=AXIS2_PLACEMENT_3D('',#406,#407,#408);
#286=SURFACE_SIDE_STYLE('',(#409));
#287=DRAUGHTING_PRE_DEFINED_CURVE_FONT('continuous');
#288=COLOUR_RGB('',0.509803950786591,0.509803950786591,0.588235318660736);
#289=AXIS2_PLACEMENT_3D('',#410,#411,#412);
#290=DRAUGHTING_PRE_DEFINED_CURVE_FONT('continuous');
#291=COLOUR_RGB('',0.509803950786591,0.509803950786591,0.588235318660736);
#292=CARTESIAN_POINT('',(4.82499999999993,2.16885865667598E-014,22.2499999999999));
#293=VECTOR('',#413,1.0);
#294=PRE_DEFINED_MARKER('');
#295=COLOUR_RGB('',0.509803950786591,0.509803950786591,0.588235318660736);
#296=PRE_DEFINED_MARKER('');
#297=COLOUR_RGB('',0.509803950786591,0.509803950786591,0.588235318660736);
#298=DRAUGHTING_PRE_DEFINED_CURVE_FONT('continuous');
#299=COLOUR_RGB('',0.509803950786591,0.509803950786591,0.588235318660736);
#300=AXIS2_PLACEMENT_3D('',#414,#415,#416);
#301=PRE_DEFINED_MARKER('');
#302=COLOUR_RGB('',0.509803950786591,0.509803950786591,0.588235318660736);
#303=DRAUGHTING_PRE_DEFINED_CURVE_FONT('continuous');
#304=COLOUR_RGB('',0.509803950786591,0.509803950786591,0.588235318660736);
#305=AXIS2_PLACEMENT_3D('',#417,#418,#419);
#306=DRAUGHTING_PRE_DEFINED_CURVE_FONT('continuous');
#307=COLOUR_RGB('',0.509803950786591,0.509803950786591,0.588235318660736);
#308=CARTESIAN_POINT('',(2.41249999999994,2.13929152832394E-014,25.89285752442));
#309=VECTOR('',#420,1.0);
#310=DRAUGHTING_PRE_DEFINED_CURVE_FONT('continuous');
#311=COLOUR_RGB('',0.509803950786591,0.509803950786591,0.588235318660736);
#312=CARTESIAN_POINT('',(4.91249999999991,3.897747948212E-013,9.99999999999994));
#313=VECTOR('',#421,1.0);
#314=PRE_DEFINED_MARKER('');
#315=COLOUR_RGB('',0.509803950786591,0.509803950786591,0.588235318660736);
#316=PRE_DEFINED_MARKER('');
#317=COLOUR_RGB('',0.509803950786591,0.509803950786591,0.588235318660736);
#318=SURFACE_SIDE_STYLE('',(#422));
#319=EDGE_LOOP('',(#423,#424,#425));
#320=AXIS2_PLACEMENT_3D('',#426,#427,#428);
#321=SURFACE_SIDE_STYLE('',(#429));
#322=EDGE_LOOP('',(#430,#431,#432));
#323=AXIS2_PLACEMENT_3D('',#433,#434,#435);
#324=DRAUGHTING_PRE_DEFINED_CURVE_FONT('continuous');
#325=COLOUR_RGB('',0.509803950786591,0.509803950786591,0.588235318660736);
#326=CARTESIAN_POINT('',(-2.41250000000005,2.08015727161984E-014,25.89285752442));
#327=VECTOR('',#436,1.0);
#328=DRAUGHTING_PRE_DEFINED_CURVE_FONT('continuous');
#329=COLOUR_RGB('',0.509803950786591,0.509803950786591,0.588235318660736);
#330=AXIS2_PLACEMENT_3D('',#437,#438,#439);
#331=DRAUGHTING_PRE_DEFINED_CURVE_FONT('continuous');
#332=COLOUR_RGB('',0.509803950786591,0.509803950786591,0.588235318660736);
#333=CARTESIAN_POINT('',(-4.82500000000005,2.05059014326779E-014,22.2499999999999));
#334=VECTOR('',#440,1.0);
#335=DRAUGHTING_PRE_DEFINED_CURVE_FONT('continuous');
#336=COLOUR_RGB('',0.509803950786591,0.509803950786591,0.588235318660736);
#337=AXIS2_PLACEMENT_3D('',#441,#442,#443);
#339=SURFACE_STYLE_FILL_AREA(#444);
#340=ORIENTED_EDGE('',*,*,#94,.F.);
#341=ORIENTED_EDGE('',*,*,#66,.F.);
#342=ORIENTED_EDGE('',*,*,#62,.T.);
#343=ORIENTED_EDGE('',*,*,#126,.T.);
#344=CARTESIAN_POINT('',(7.76782687642631,2.33627657542903E-014,-7.105427357601E-014));
#345=DIRECTION('',(0.0,0.0,-1.0));
#346=DIRECTION('',(-1.0,0.0,0.0));
#347=CARTESIAN_POINT('',(-5.6843418860808E-014,2.10972439997189E-014,-8.5265128291212E-014));
#348=DIRECTION('',(0.0,0.0,-1.0));
#349=DIRECTION('',(1.0,9.74096003418976E-020,0.0));
#350=SURFACE_STYLE_FILL_AREA(#445);
#351=ORIENTED_EDGE('',*,*,#100,.F.);
#352=ORIENTED_EDGE('',*,*,#92,.F.);
#353=ORIENTED_EDGE('',*,*,#128,.F.);
#354=ORIENTED_EDGE('',*,*,#110,.T.);
#355=CARTESIAN_POINT('',(-5.6843418860808E-014,2.10972439997189E-014,12.3374999999999));
#356=DIRECTION('',(-0.0,-0.0,1.0));
#357=DIRECTION('',(1.0,9.74096003418977E-020,0.0));
#358=CARTESIAN_POINT('',(-5.6843418860808E-014,2.10972439997189E-014,-5.6843418860808E-014));
#359=DIRECTION('',(0.0,0.0,-1.0));
#360=DIRECTION('',(1.0,9.74096003418976E-020,0.0));
#361=SURFACE_STYLE_FILL_AREA(#446);
#362=ORIENTED_EDGE('',*,*,#114,.T.);
#363=ORIENTED_EDGE('',*,*,#110,.F.);
#364=ORIENTED_EDGE('',*,*,#82,.T.);
#365=ORIENTED_EDGE('',*,*,#66,.T.);
#366=CARTESIAN_POINT('',(-8.5265128291212E-014,1.99076264923157E-014,9.99999999999994));
#367=DIRECTION('',(0.0,-0.0,-1.0));
#368=DIRECTION('',(1.0,7.51685659964519E-014,0.0));
#369=SURFACE_STYLE_FILL_AREA(#447);
#370=ORIENTED_EDGE('',*,*,#106,.T.);
#371=ORIENTED_EDGE('',*,*,#62,.F.);
#372=ORIENTED_EDGE('',*,*,#130,.T.);
#373=CARTESIAN_POINT('',(-5.03071145750497E-014,2.23218503535413E-014,16.9999999999999));
#374=DIRECTION('',(0.0,0.0,-1.0));
#375=DIRECTION('',(-1.0,0.0,0.0));
#376=SURFACE_STYLE_FILL_AREA(#448);
#377=ORIENTED_EDGE('',*,*,#124,.F.);
#378=ORIENTED_EDGE('',*,*,#92,.T.);
#379=ORIENTED_EDGE('',*,*,#112,.F.);
#380=CARTESIAN_POINT('',(-5.6843418860808E-014,2.10972439997189E-014,25.89285752442));
#381=DIRECTION('',(0.0,-0.0,-1.0));
#382=DIRECTION('',(1.0,9.74096003418977E-020,0.0));
#383=SURFACE_STYLE_FILL_AREA(#449);
#384=ORIENTED_EDGE('',*,*,#114,.F.);
#385=ORIENTED_EDGE('',*,*,#94,.T.);
#386=ORIENTED_EDGE('',*,*,#82,.F.);
#387=ORIENTED_EDGE('',*,*,#84,.F.);
#388=CARTESIAN_POINT('',(-8.5265128291212E-014,1.99076264923157E-014,9.99999999999994));
#389=DIRECTION('',(0.0,-0.0,-1.0));
#390=DIRECTION('',(1.0,7.51685659964519E-014,0.0));
#391=DIRECTION('',(-0.00874966505829593,-6.58771264923787E-016,-0.999961720948041));
#392=CARTESIAN_POINT('',(-5.6843418860808E-014,2.10972439997189E-014,19.9999999999999));
#393=DIRECTION('',(0.0,0.0,-1.0));
#394=DIRECTION('',(1.0,9.74096003418977E-020,0.0));
#395=SURFACE_STYLE_FILL_AREA(#450);
#396=ORIENTED_EDGE('',*,*,#100,.T.);
#397=ORIENTED_EDGE('',*,*,#84,.T.);
#398=ORIENTED_EDGE('',*,*,#128,.T.);
#399=ORIENTED_EDGE('',*,*,#98,.F.);
#400=CARTESIAN_POINT('',(-5.6843418860808E-014,2.10972439997189E-014,12.3374999999999));
#401=DIRECTION('',(-0.0,-0.0,1.0));
#402=DIRECTION('',(1.0,9.74096003418977E-020,0.0));
#403=CARTESIAN_POINT('',(-5.6843418860808E-014,2.10972439997189E-014,24.4999999999999));
#404=DIRECTION('',(0.0,0.0,-1.0));
#405=DIRECTION('',(1.0,9.74096003418977E-020,0.0));
#406=CARTESIAN_POINT('',(-5.6843418860808E-014,2.10972439997189E-014,-5.6843418860808E-014));
#407=DIRECTION('',(0.0,0.0,-1.0));
#408=DIRECTION('',(1.0,9.74096003418976E-020,0.0));
#409=SURFACE_STYLE_FILL_AREA(#451);
#410=CARTESIAN_POINT('',(-5.6843418860808E-014,2.10972439997189E-014,24.4999999999999));
#411=DIRECTION('',(0.0,0.0,-1.0));
#412=DIRECTION('',(1.0,9.74096003418977E-020,0.0));
#413=DIRECTION('',(-0.0,-0.0,-1.0));
#414=CARTESIAN_POINT('',(-5.03071145750497E-014,2.23218503535413E-014,16.9999999999999));
#415=DIRECTION('',(1.22460635382238E-016,-1.0,0.0));
#416=DIRECTION('',(0.0,0.0,1.0));
#417=CARTESIAN_POINT('',(-5.6843418860808E-014,2.10972439997189E-014,19.9999999999999));
#418=DIRECTION('',(0.0,0.0,-1.0));
#419=DIRECTION('',(1.0,9.74096003418977E-020,0.0));
#420=DIRECTION('',(0.866025403784434,1.0613838039307E-016,-0.500000000000009));
#421=DIRECTION('',(-0.00874966505829593,-6.58771264923787E-016,0.999961720948041));
#422=SURFACE_STYLE_FILL_AREA(#452);
#423=ORIENTED_EDGE('',*,*,#124,.T.);
#424=ORIENTED_EDGE('',*,*,#112,.T.);
#425=ORIENTED_EDGE('',*,*,#98,.T.);
#426=CARTESIAN_POINT('',(-5.6843418860808E-014,2.10972439997189E-014,25.89285752442));
#427=DIRECTION('',(0.0,-0.0,-1.0));
#428=DIRECTION('',(1.0,9.74096003418977E-020,0.0));
#429=SURFACE_STYLE_FILL_AREA(#453);
#430=ORIENTED_EDGE('',*,*,#106,.F.);
#431=ORIENTED_EDGE('',*,*,#130,.F.);
#432=ORIENTED_EDGE('',*,*,#126,.F.);
#433=CARTESIAN_POINT('',(-5.03071145750497E-014,2.23218503535413E-014,16.9999999999999));
#434=DIRECTION('',(0.0,0.0,-1.0));
#435=DIRECTION('',(-1.0,0.0,0.0));
#436=DIRECTION('',(0.866025403784434,1.0613838039307E-016,0.500000000000009));
#437=CARTESIAN_POINT('',(-5.6843418860808E-014,2.10972439997189E-014,-8.5265128291212E-014));
#438=DIRECTION('',(0.0,0.0,-1.0));
#439=DIRECTION('',(1.0,9.74096003418976E-020,0.0));
#440=DIRECTION('',(-0.0,-0.0,1.0));
#441=CARTESIAN_POINT('',(-5.03071145750497E-014,2.23218503535413E-014,16.9999999999999));
#442=DIRECTION('',(1.22460635382238E-016,-1.0,0.0));
#443=DIRECTION('',(0.0,0.0,1.0));
#444=FILL_AREA_STYLE('',(#454));
#445=FILL_AREA_STYLE('',(#455));
#446=FILL_AREA_STYLE('',(#456));
#447=FILL_AREA_STYLE('',(#457));
#448=FILL_AREA_STYLE('',(#458));
#449=FILL_AREA_STYLE('',(#459));
#450=FILL_AREA_STYLE('',(#460));
#451=FILL_AREA_STYLE('',(#461));
#452=FILL_AREA_STYLE('',(#462));
#453=FILL_AREA_STYLE('',(#463));
#454=FILL_AREA_STYLE_COLOUR('',#464);
#455=FILL_AREA_STYLE_COLOUR('',#465);
#456=FILL_AREA_STYLE_COLOUR('',#466);
#457=FILL_AREA_STYLE_COLOUR('',#467);
#458=FILL_AREA_STYLE_COLOUR('',#468);
#459=FILL_AREA_STYLE_COLOUR('',#469);
#460=FILL_AREA_STYLE_COLOUR('',#470);
#461=FILL_AREA_STYLE_COLOUR('',#471);
#462=FILL_AREA_STYLE_COLOUR('',#472);
#463=FILL_AREA_STYLE_COLOUR('',#473);
#464=COLOUR_RGB('',0.509803950786591,0.509803950786591,0.588235318660736);
#465=COLOUR_RGB('',0.509803950786591,0.509803950786591,0.588235318660736);
#466=COLOUR_RGB('',0.509803950786591,0.509803950786591,0.588235318660736);
#467=COLOUR_RGB('',0.509803950786591,0.509803950786591,0.588235318660736);
#468=COLOUR_RGB('',0.509803950786591,0.509803950786591,0.588235318660736);
#469=COLOUR_RGB('',0.509803950786591,0.509803950786591,0.588235318660736);
#470=COLOUR_RGB('',0.509803950786591,0.509803950786591,0.588235318660736);
#471=COLOUR_RGB('',0.509803950786591,0.509803950786591,0.588235318660736);
#472=COLOUR_RGB('',0.509803950786591,0.509803950786591,0.588235318660736);
#473=COLOUR_RGB('',0.509803950786591,0.509803950786591,0.588235318660736);
ENDSEC;
END-ISO-10303-21;
