ISO-10303-21;
HEADER;
FILE_DESCRIPTION(('STEP AP214'),'1');
FILE_NAME(' ','  ',('TraceParts'),('TraceParts S.A.'),'XStep 1.0',' ',' ');
FILE_SCHEMA(('automotive_design'));
ENDSEC;
DATA;
#1=MECHANICAL_DESIGN_GEOMETRIC_PRESENTATION_REPRESENTATION(' ',(#10,#11,#12,#13,#14,#15,#16,#17,#18,#19,#20,#21,#22,#23,#24,#25,#26,#27,#28,#29,#30,#31,#32,#33,#34,#35,#36,#37,#38,#39,#40,#41,#42,#43,#44,#45),#6);
#2=PRODUCT_DEFINITION_CONTEXT('',#46,'design');
#3=APPLICATION_PROTOCOL_DEFINITION('INTERNATIONAL STANDARD','automotive_design',1994,#46);
#4=PRODUCT_CATEGORY_RELATIONSHIP('NONE','NONE',#47,#48);
#5=SHAPE_DEFINITION_REPRESENTATION(#49,#50);
#6= (GEOMETRIC_REPRESENTATION_CONTEXT(3)GLOBAL_UNCERTAINTY_ASSIGNED_CONTEXT((#53))GLOBAL_UNIT_ASSIGNED_CONTEXT((#55,#56,#57))REPRESENTATION_CONTEXT('NONE','WORKSPACE'));
#10=STYLED_ITEM('',(#59),#60);
#11=STYLED_ITEM('',(#61),#62);
#12=STYLED_ITEM('',(#63),#64);
#13=STYLED_ITEM('',(#65),#66);
#14=STYLED_ITEM('',(#67),#68);
#15=STYLED_ITEM('',(#69),#70);
#16=STYLED_ITEM('',(#71),#72);
#17=STYLED_ITEM('',(#73),#74);
#18=STYLED_ITEM('',(#75),#76);
#19=STYLED_ITEM('',(#77),#78);
#20=STYLED_ITEM('',(#79),#80);
#21=STYLED_ITEM('',(#81),#82);
#22=STYLED_ITEM('',(#83),#84);
#23=STYLED_ITEM('',(#85),#86);
#24=STYLED_ITEM('',(#87),#88);
#25=STYLED_ITEM('',(#89),#90);
#26=STYLED_ITEM('',(#91),#92);
#27=STYLED_ITEM('',(#93),#94);
#28=STYLED_ITEM('',(#95),#96);
#29=STYLED_ITEM('',(#97),#98);
#30=STYLED_ITEM('',(#99),#100);
#31=STYLED_ITEM('',(#101),#102);
#32=STYLED_ITEM('',(#103),#104);
#33=STYLED_ITEM('',(#105),#106);
#34=STYLED_ITEM('',(#107),#108);
#35=STYLED_ITEM('',(#109),#110);
#36=STYLED_ITEM('',(#111),#112);
#37=STYLED_ITEM('',(#113),#114);
#38=STYLED_ITEM('',(#115),#116);
#39=STYLED_ITEM('',(#117),#118);
#40=STYLED_ITEM('',(#119),#120);
#41=STYLED_ITEM('',(#121),#122);
#42=STYLED_ITEM('',(#123),#124);
#43=STYLED_ITEM('',(#125),#126);
#44=STYLED_ITEM('',(#127),#128);
#45=STYLED_ITEM('',(#129),#130);
#46=APPLICATION_CONTEXT(' ');
#47=PRODUCT_CATEGORY('part','NONE');
#48=PRODUCT_RELATED_PRODUCT_CATEGORY('detail',' ',(#131));
#49=PRODUCT_DEFINITION_SHAPE('NONE','NONE',#132);
#50=ADVANCED_BREP_SHAPE_REPRESENTATION('1',(#64,#133),#6);
#53=UNCERTAINTY_MEASURE_WITH_UNIT(LENGTH_MEASURE(1.0E-006),#55,'','');
#55= (CONVERSION_BASED_UNIT('MILLIMETRE',#136)LENGTH_UNIT()NAMED_UNIT(#139));
#56= (NAMED_UNIT(#141)PLANE_ANGLE_UNIT()SI_UNIT($,.RADIAN.));
#57= (NAMED_UNIT(#141)SOLID_ANGLE_UNIT()SI_UNIT($,.STERADIAN.));
#59=PRESENTATION_STYLE_ASSIGNMENT((#147));
#60=EDGE_CURVE('',#90,#80,#148,.T.);
#61=PRESENTATION_STYLE_ASSIGNMENT((#149));
#62=ADVANCED_FACE('',(#150),#151,.F.);
#63=PRESENTATION_STYLE_ASSIGNMENT((#152));
#64=MANIFOLD_SOLID_BREP('1',#153);
#65=PRESENTATION_STYLE_ASSIGNMENT((#154));
#66=ADVANCED_FACE('',(#155),#156,.F.);
#67=PRESENTATION_STYLE_ASSIGNMENT((#157));
#68=ADVANCED_FACE('',(#158),#159,.T.);
#69=PRESENTATION_STYLE_ASSIGNMENT((#160));
#70=EDGE_CURVE('',#108,#118,#161,.T.);
#71=PRESENTATION_STYLE_ASSIGNMENT((#162));
#72=EDGE_CURVE('',#122,#100,#163,.T.);
#73=PRESENTATION_STYLE_ASSIGNMENT((#164));
#74=ADVANCED_FACE('',(#165),#166,.F.);
#75=PRESENTATION_STYLE_ASSIGNMENT((#167));
#76=EDGE_CURVE('',#84,#116,#168,.T.);
#77=PRESENTATION_STYLE_ASSIGNMENT((#169));
#78=EDGE_CURVE('',#100,#122,#170,.T.);
#79=PRESENTATION_STYLE_ASSIGNMENT((#171));
#80=VERTEX_POINT('',#172);
#81=PRESENTATION_STYLE_ASSIGNMENT((#173));
#82=VERTEX_POINT('',#174);
#83=PRESENTATION_STYLE_ASSIGNMENT((#175));
#84=VERTEX_POINT('',#176);
#85=PRESENTATION_STYLE_ASSIGNMENT((#177));
#86=EDGE_CURVE('',#116,#108,#178,.T.);
#87=PRESENTATION_STYLE_ASSIGNMENT((#179));
#88=EDGE_CURVE('',#116,#100,#180,.T.);
#89=PRESENTATION_STYLE_ASSIGNMENT((#181));
#90=VERTEX_POINT('',#182);
#91=PRESENTATION_STYLE_ASSIGNMENT((#183));
#92=ADVANCED_FACE('',(#184),#185,.F.);
#93=PRESENTATION_STYLE_ASSIGNMENT((#186));
#94=EDGE_CURVE('',#118,#108,#187,.T.);
#95=PRESENTATION_STYLE_ASSIGNMENT((#188));
#96=ADVANCED_FACE('',(#189),#190,.F.);
#97=PRESENTATION_STYLE_ASSIGNMENT((#191));
#98=ADVANCED_FACE('',(#192),#193,.T.);
#99=PRESENTATION_STYLE_ASSIGNMENT((#194));
#100=VERTEX_POINT('',#195);
#101=PRESENTATION_STYLE_ASSIGNMENT((#196));
#102=EDGE_CURVE('',#100,#82,#197,.T.);
#103=PRESENTATION_STYLE_ASSIGNMENT((#198));
#104=ADVANCED_FACE('',(#199,#200),#201,.T.);
#105=PRESENTATION_STYLE_ASSIGNMENT((#202));
#106=EDGE_CURVE('',#122,#84,#203,.T.);
#107=PRESENTATION_STYLE_ASSIGNMENT((#204));
#108=VERTEX_POINT('',#205);
#109=PRESENTATION_STYLE_ASSIGNMENT((#206));
#110=VERTEX_POINT('',#207);
#111=PRESENTATION_STYLE_ASSIGNMENT((#208));
#112=EDGE_CURVE('',#118,#84,#209,.T.);
#113=PRESENTATION_STYLE_ASSIGNMENT((#210));
#114=EDGE_CURVE('',#110,#80,#211,.T.);
#115=PRESENTATION_STYLE_ASSIGNMENT((#212));
#116=VERTEX_POINT('',#213);
#117=PRESENTATION_STYLE_ASSIGNMENT((#214));
#118=VERTEX_POINT('',#215);
#119=PRESENTATION_STYLE_ASSIGNMENT((#216));
#120=ADVANCED_FACE('',(#217),#218,.F.);
#121=PRESENTATION_STYLE_ASSIGNMENT((#219));
#122=VERTEX_POINT('',#220);
#123=PRESENTATION_STYLE_ASSIGNMENT((#221));
#124=EDGE_CURVE('',#116,#84,#222,.T.);
#125=PRESENTATION_STYLE_ASSIGNMENT((#223));
#126=EDGE_CURVE('',#80,#90,#224,.T.);
#127=PRESENTATION_STYLE_ASSIGNMENT((#225));
#128=EDGE_CURVE('',#90,#110,#226,.T.);
#129=PRESENTATION_STYLE_ASSIGNMENT((#227));
#130=EDGE_CURVE('',#82,#122,#228,.T.);
#131=PRODUCT('1','1','PART-1-DESC',(#229));
#132=PRODUCT_DEFINITION('NONE','NONE',#230,#2);
#133=AXIS2_PLACEMENT_3D('',#231,#232,#233);
#136=LENGTH_MEASURE_WITH_UNIT(LENGTH_MEASURE(1.0),#234);
#139=DIMENSIONAL_EXPONENTS(1.0,0.0,0.0,0.0,0.0,0.0,0.0);
#141=DIMENSIONAL_EXPONENTS(0.0,0.0,0.0,0.0,0.0,0.0,0.0);
#147=CURVE_STYLE('',#235,POSITIVE_LENGTH_MEASURE(1.0E-006),#236);
#148=CIRCLE('',#237,7.49999999999999);
#149=SURFACE_STYLE_USAGE(.BOTH.,#238);
#150=FACE_OUTER_BOUND('',#239,.T.);
#151=CYLINDRICAL_SURFACE('',#240,2.87);
#152=SURFACE_STYLE_USAGE(.BOTH.,#241);
#153=CLOSED_SHELL('',(#120,#66,#98,#74,#96,#68,#104,#62,#92));
#154=SURFACE_STYLE_USAGE(.BOTH.,#242);
#155=FACE_OUTER_BOUND('',#243,.T.);
#156=CYLINDRICAL_SURFACE('',#244,2.87);
#157=SURFACE_STYLE_USAGE(.BOTH.,#245);
#158=FACE_OUTER_BOUND('',#246,.T.);
#159=SPHERICAL_SURFACE('',#247,12.5);
#160=CURVE_STYLE('',#248,POSITIVE_LENGTH_MEASURE(1.0E-006),#249);
#161=CIRCLE('',#250,2.99999999999997);
#162=CURVE_STYLE('',#251,POSITIVE_LENGTH_MEASURE(1.0E-006),#252);
#163=CIRCLE('',#253,2.87);
#164=SURFACE_STYLE_USAGE(.BOTH.,#254);
#165=FACE_OUTER_BOUND('',#255,.T.);
#166=CONICAL_SURFACE('',#256,2.935,0.00866644968879043);
#167=CURVE_STYLE('',#257,POSITIVE_LENGTH_MEASURE(1.0E-006),#258);
#168=CIRCLE('',#259,2.87);
#169=CURVE_STYLE('',#260,POSITIVE_LENGTH_MEASURE(1.0E-006),#261);
#170=CIRCLE('',#262,2.87);
#171=POINT_STYLE(' ',#263,POSITIVE_LENGTH_MEASURE(1.0E-006),#264);
#172=CARTESIAN_POINT('',(-7.50000000000005,2.09441682054911E-014,-2.1316282072803E-014));
#173=POINT_STYLE(' ',#265,POSITIVE_LENGTH_MEASURE(1.0E-006),#266);
#174=CARTESIAN_POINT('',(-5.6843418860808E-014,2.12370331044695E-014,20.2169952725742));
#175=POINT_STYLE(' ',#267,POSITIVE_LENGTH_MEASURE(1.0E-006),#268);
#176=CARTESIAN_POINT('',(2.86999999999998,2.11371040681505E-014,15.0));
#177=CURVE_STYLE('',#269,POSITIVE_LENGTH_MEASURE(1.0E-006),#270);
#178=LINE('',#271,#272);
#179=CURVE_STYLE('',#273,POSITIVE_LENGTH_MEASURE(1.0E-006),#274);
#180=LINE('',#275,#276);
#181=POINT_STYLE(' ',#277,POSITIVE_LENGTH_MEASURE(1.0E-006),#278);
#182=CARTESIAN_POINT('',(7.49999999999994,2.24749261477691E-014,-2.1316282072803E-014));
#183=SURFACE_STYLE_USAGE(.BOTH.,#279);
#184=FACE_OUTER_BOUND('',#280,.T.);
#185=CONICAL_SURFACE('',#281,1.435,1.0471975511966);
#186=CURVE_STYLE('',#282,POSITIVE_LENGTH_MEASURE(1.0E-006),#283);
#187=CIRCLE('',#284,2.99999999999997);
#188=SURFACE_STYLE_USAGE(.BOTH.,#285);
#189=FACE_OUTER_BOUND('',#286,.T.);
#190=CONICAL_SURFACE('',#287,2.935,0.00866644968879043);
#191=SURFACE_STYLE_USAGE(.BOTH.,#288);
#192=FACE_OUTER_BOUND('',#289,.T.);
#193=SPHERICAL_SURFACE('',#290,12.5);
#194=POINT_STYLE(' ',#291,POSITIVE_LENGTH_MEASURE(1.0E-006),#292);
#195=CARTESIAN_POINT('',(-2.87000000000006,2.07455119957843E-014,18.56));
#196=CURVE_STYLE('',#293,POSITIVE_LENGTH_MEASURE(1.0E-006),#294);
#197=LINE('',#295,#296);
#198=SURFACE_STYLE_USAGE(.BOTH.,#297);
#199=FACE_BOUND('',#298,.T.);
#200=FACE_OUTER_BOUND('',#299,.T.);
#201=PLANE('',#300);
#202=CURVE_STYLE('',#301,POSITIVE_LENGTH_MEASURE(1.0E-006),#302);
#203=LINE('',#303,#304);
#204=POINT_STYLE(' ',#305,POSITIVE_LENGTH_MEASURE(1.0E-006),#306);
#205=CARTESIAN_POINT('',(-3.00000000000003,-2.5101931578686E-013,-2.8421709430404E-014));
#206=POINT_STYLE(' ',#307,POSITIVE_LENGTH_MEASURE(1.0E-006),#308);
#207=CARTESIAN_POINT('',(-5.6843418860808E-014,2.10972439997189E-014,22.5));
#208=CURVE_STYLE('',#309,POSITIVE_LENGTH_MEASURE(1.0E-006),#310);
#209=LINE('',#311,#312);
#210=CURVE_STYLE('',#313,POSITIVE_LENGTH_MEASURE(1.0E-006),#314);
#211=CIRCLE('',#315,12.5);
#212=POINT_STYLE(' ',#316,POSITIVE_LENGTH_MEASURE(1.0E-006),#317);
#213=CARTESIAN_POINT('',(-2.87000000000006,-2.39239713251856E-013,15.0));
#214=POINT_STYLE(' ',#318,POSITIVE_LENGTH_MEASURE(1.0E-006),#319);
#215=CARTESIAN_POINT('',(2.99999999999991,2.24749261477691E-014,-2.8421709430404E-014));
#216=SURFACE_STYLE_USAGE(.BOTH.,#320);
#217=FACE_OUTER_BOUND('',#321,.T.);
#218=CONICAL_SURFACE('',#322,1.435,1.0471975511966);
#219=POINT_STYLE(' ',#323,POSITIVE_LENGTH_MEASURE(1.0E-006),#324);
#220=CARTESIAN_POINT('',(2.86999999999995,2.13384914514219E-014,18.56));
#221=CURVE_STYLE('',#325,POSITIVE_LENGTH_MEASURE(1.0E-006),#326);
#222=CIRCLE('',#327,2.87);
#223=CURVE_STYLE('',#328,POSITIVE_LENGTH_MEASURE(1.0E-006),#329);
#224=CIRCLE('',#330,7.49999999999999);
#225=CURVE_STYLE('',#331,POSITIVE_LENGTH_MEASURE(1.0E-006),#332);
#226=CIRCLE('',#333,12.5);
#227=CURVE_STYLE('',#334,POSITIVE_LENGTH_MEASURE(1.0E-006),#335);
#228=LINE('',#336,#337);
#229=PRODUCT_CONTEXT('',#46,'mechanical');
#230=PRODUCT_DEFINITION_FORMATION_WITH_SPECIFIED_SOURCE(' ','NONE',#131,.NOT_KNOWN.);
#231=CARTESIAN_POINT('',(0.0,0.0,0.0));
#232=DIRECTION('',(0.0,0.0,1.0));
#233=DIRECTION('',(1.0,0.0,0.0));
#234= (NAMED_UNIT(#139)LENGTH_UNIT()SI_UNIT(.MILLI.,.METRE.));
#235=DRAUGHTING_PRE_DEFINED_CURVE_FONT('continuous');
#236=COLOUR_RGB('',0.509803950786591,0.509803950786591,0.588235318660736);
#237=AXIS2_PLACEMENT_3D('',#339,#340,#341);
#238=SURFACE_SIDE_STYLE('',(#342));
#239=EDGE_LOOP('',(#343,#344,#345,#346));
#240=AXIS2_PLACEMENT_3D('',#347,#348,#349);
#241=SURFACE_SIDE_STYLE('',(#350));
#242=SURFACE_SIDE_STYLE('',(#351));
#243=EDGE_LOOP('',(#352,#353,#354,#355));
#244=AXIS2_PLACEMENT_3D('',#356,#357,#358);
#245=SURFACE_SIDE_STYLE('',(#359));
#246=EDGE_LOOP('',(#360,#361,#362));
#247=AXIS2_PLACEMENT_3D('',#363,#364,#365);
#248=DRAUGHTING_PRE_DEFINED_CURVE_FONT('continuous');
#249=COLOUR_RGB('',0.509803950786591,0.509803950786591,0.588235318660736);
#250=AXIS2_PLACEMENT_3D('',#366,#367,#368);
#251=DRAUGHTING_PRE_DEFINED_CURVE_FONT('continuous');
#252=COLOUR_RGB('',0.509803950786591,0.509803950786591,0.588235318660736);
#253=AXIS2_PLACEMENT_3D('',#369,#370,#371);
#254=SURFACE_SIDE_STYLE('',(#372));
#255=EDGE_LOOP('',(#373,#374,#375,#376));
#256=AXIS2_PLACEMENT_3D('',#377,#378,#379);
#257=DRAUGHTING_PRE_DEFINED_CURVE_FONT('continuous');
#258=COLOUR_RGB('',0.509803950786591,0.509803950786591,0.588235318660736);
#259=AXIS2_PLACEMENT_3D('',#380,#381,#382);
#260=DRAUGHTING_PRE_DEFINED_CURVE_FONT('continuous');
#261=COLOUR_RGB('',0.509803950786591,0.509803950786591,0.588235318660736);
#262=AXIS2_PLACEMENT_3D('',#383,#384,#385);
#263=PRE_DEFINED_MARKER('');
#264=COLOUR_RGB('',0.509803950786591,0.509803950786591,0.588235318660736);
#265=PRE_DEFINED_MARKER('');
#266=COLOUR_RGB('',0.509803950786591,0.509803950786591,0.588235318660736);
#267=PRE_DEFINED_MARKER('');
#268=COLOUR_RGB('',0.509803950786591,0.509803950786591,0.588235318660736);
#269=DRAUGHTING_PRE_DEFINED_CURVE_FONT('continuous');
#270=COLOUR_RGB('',0.509803950786591,0.509803950786591,0.588235318660736);
#271=CARTESIAN_POINT('',(-2.93500000000003,-2.45129514519357E-013,7.49999999999997));
#272=VECTOR('',#386,1.0);
#273=DRAUGHTING_PRE_DEFINED_CURVE_FONT('continuous');
#274=COLOUR_RGB('',0.509803950786591,0.509803950786591,0.588235318660736);
#275=CARTESIAN_POINT('',(-2.87000000000006,2.07455119957843E-014,16.78));
#276=VECTOR('',#387,1.0);
#277=PRE_DEFINED_MARKER('');
#278=COLOUR_RGB('',0.509803950786591,0.509803950786591,0.588235318660736);
#279=SURFACE_SIDE_STYLE('',(#388));
#280=EDGE_LOOP('',(#389,#390,#391));
#281=AXIS2_PLACEMENT_3D('',#392,#393,#394);
#282=DRAUGHTING_PRE_DEFINED_CURVE_FONT('continuous');
#283=COLOUR_RGB('',0.509803950786591,0.509803950786591,0.588235318660736);
#284=AXIS2_PLACEMENT_3D('',#395,#396,#397);
#285=SURFACE_SIDE_STYLE('',(#398));
#286=EDGE_LOOP('',(#399,#400,#401,#402));
#287=AXIS2_PLACEMENT_3D('',#403,#404,#405);
#288=SURFACE_SIDE_STYLE('',(#406));
#289=EDGE_LOOP('',(#407,#408,#409));
#290=AXIS2_PLACEMENT_3D('',#410,#411,#412);
#291=PRE_DEFINED_MARKER('');
#292=COLOUR_RGB('',0.509803950786591,0.509803950786591,0.588235318660736);
#293=DRAUGHTING_PRE_DEFINED_CURVE_FONT('continuous');
#294=COLOUR_RGB('',0.509803950786591,0.509803950786591,0.588235318660736);
#295=CARTESIAN_POINT('',(-1.43500000000006,2.09213779977516E-014,19.3884976362871));
#296=VECTOR('',#413,1.0);
#297=SURFACE_SIDE_STYLE('',(#414));
#298=EDGE_LOOP('',(#415,#416));
#299=EDGE_LOOP('',(#417,#418));
#300=AXIS2_PLACEMENT_3D('',#419,#420,#421);
#301=DRAUGHTING_PRE_DEFINED_CURVE_FONT('continuous');
#302=COLOUR_RGB('',0.509803950786591,0.509803950786591,0.588235318660736);
#303=CARTESIAN_POINT('',(2.86999999999995,2.14489760036535E-014,16.78));
#304=VECTOR('',#422,1.0);
#305=PRE_DEFINED_MARKER('');
#306=COLOUR_RGB('',0.509803950786591,0.509803950786591,0.588235318660736);
#307=PRE_DEFINED_MARKER('');
#308=COLOUR_RGB('',0.509803950786591,0.509803950786591,0.588235318660736);
#309=DRAUGHTING_PRE_DEFINED_CURVE_FONT('continuous');
#310=COLOUR_RGB('',0.509803950786591,0.509803950786591,0.588235318660736);
#311=CARTESIAN_POINT('',(2.93499999999997,2.86764846099792E-013,7.49999999999997));
#312=VECTOR('',#423,1.0);
#313=DRAUGHTING_PRE_DEFINED_CURVE_FONT('continuous');
#314=COLOUR_RGB('',0.509803950786591,0.509803950786591,0.588235318660736);
#315=AXIS2_PLACEMENT_3D('',#424,#425,#426);
#316=PRE_DEFINED_MARKER('');
#317=COLOUR_RGB('',0.509803950786591,0.509803950786591,0.588235318660736);
#318=PRE_DEFINED_MARKER('');
#319=COLOUR_RGB('',0.509803950786591,0.509803950786591,0.588235318660736);
#320=SURFACE_SIDE_STYLE('',(#427));
#321=EDGE_LOOP('',(#428,#429,#430));
#322=AXIS2_PLACEMENT_3D('',#431,#432,#433);
#323=PRE_DEFINED_MARKER('');
#324=COLOUR_RGB('',0.509803950786591,0.509803950786591,0.588235318660736);
#325=DRAUGHTING_PRE_DEFINED_CURVE_FONT('continuous');
#326=COLOUR_RGB('',0.509803950786591,0.509803950786591,0.588235318660736);
#327=AXIS2_PLACEMENT_3D('',#434,#435,#436);
#328=DRAUGHTING_PRE_DEFINED_CURVE_FONT('continuous');
#329=COLOUR_RGB('',0.509803950786591,0.509803950786591,0.588235318660736);
#330=AXIS2_PLACEMENT_3D('',#437,#438,#439);
#331=DRAUGHTING_PRE_DEFINED_CURVE_FONT('continuous');
#332=COLOUR_RGB('',0.509803950786591,0.509803950786591,0.588235318660736);
#333=AXIS2_PLACEMENT_3D('',#440,#441,#442);
#334=DRAUGHTING_PRE_DEFINED_CURVE_FONT('continuous');
#335=COLOUR_RGB('',0.509803950786591,0.509803950786591,0.588235318660736);
#336=CARTESIAN_POINT('',(1.43499999999995,2.12731100016862E-014,19.3884976362871));
#337=VECTOR('',#443,1.0);
#339=CARTESIAN_POINT('',(-5.6843418860808E-014,2.10972439997189E-014,-2.1316282072803E-014));
#340=DIRECTION('',(0.0,0.0,-1.0));
#341=DIRECTION('',(1.0,9.40698214411812E-020,0.0));
#342=SURFACE_STYLE_FILL_AREA(#444);
#343=ORIENTED_EDGE('',*,*,#106,.T.);
#344=ORIENTED_EDGE('',*,*,#76,.T.);
#345=ORIENTED_EDGE('',*,*,#88,.T.);
#346=ORIENTED_EDGE('',*,*,#72,.F.);
#347=CARTESIAN_POINT('',(-5.6843418860808E-014,2.10972439997189E-014,9.34499999999997));
#348=DIRECTION('',(-0.0,-0.0,1.0));
#349=DIRECTION('',(1.0,9.40698214411812E-020,0.0));
#350=SURFACE_STYLE_FILL_AREA(#445);
#351=SURFACE_STYLE_FILL_AREA(#446);
#352=ORIENTED_EDGE('',*,*,#106,.F.);
#353=ORIENTED_EDGE('',*,*,#78,.F.);
#354=ORIENTED_EDGE('',*,*,#88,.F.);
#355=ORIENTED_EDGE('',*,*,#124,.T.);
#356=CARTESIAN_POINT('',(-5.6843418860808E-014,2.10972439997189E-014,9.34499999999997));
#357=DIRECTION('',(-0.0,-0.0,1.0));
#358=DIRECTION('',(1.0,9.40698214411812E-020,0.0));
#359=SURFACE_STYLE_FILL_AREA(#447);
#360=ORIENTED_EDGE('',*,*,#114,.T.);
#361=ORIENTED_EDGE('',*,*,#60,.F.);
#362=ORIENTED_EDGE('',*,*,#128,.T.);
#363=CARTESIAN_POINT('',(-5.48871304918039E-014,2.18626229708579E-014,9.99999999999998));
#364=DIRECTION('',(0.0,0.0,-1.0));
#365=DIRECTION('',(-1.0,0.0,0.0));
#366=CARTESIAN_POINT('',(-5.6843418860808E-014,2.10972439997189E-014,-2.8421709430404E-014));
#367=DIRECTION('',(0.0,0.0,-1.0));
#368=DIRECTION('',(1.0,9.40698214411812E-020,0.0));
#369=CARTESIAN_POINT('',(-5.6843418860808E-014,2.10972439997189E-014,18.56));
#370=DIRECTION('',(0.0,0.0,-1.0));
#371=DIRECTION('',(1.0,9.40698214411812E-020,0.0));
#372=SURFACE_STYLE_FILL_AREA(#448);
#373=ORIENTED_EDGE('',*,*,#112,.F.);
#374=ORIENTED_EDGE('',*,*,#94,.T.);
#375=ORIENTED_EDGE('',*,*,#86,.F.);
#376=ORIENTED_EDGE('',*,*,#76,.F.);
#377=CARTESIAN_POINT('',(-2.8421709430404E-014,2.08176657902177E-014,7.49999999999997));
#378=DIRECTION('',(0.0,-0.0,-1.0));
#379=DIRECTION('',(1.0,9.0489866556977E-014,0.0));
#380=CARTESIAN_POINT('',(-5.6843418860808E-014,2.10972439997189E-014,15.0));
#381=DIRECTION('',(0.0,0.0,-1.0));
#382=DIRECTION('',(1.0,9.40698214411812E-020,0.0));
#383=CARTESIAN_POINT('',(-5.6843418860808E-014,2.10972439997189E-014,18.56));
#384=DIRECTION('',(0.0,0.0,-1.0));
#385=DIRECTION('',(1.0,9.40698214411812E-020,0.0));
#386=DIRECTION('',(-0.00866634120351919,-7.85277344693905E-016,-0.999962446559942));
#387=DIRECTION('',(-0.0,-0.0,1.0));
#388=SURFACE_STYLE_FILL_AREA(#449);
#389=ORIENTED_EDGE('',*,*,#102,.F.);
#390=ORIENTED_EDGE('',*,*,#78,.T.);
#391=ORIENTED_EDGE('',*,*,#130,.F.);
#392=CARTESIAN_POINT('',(-5.6843418860808E-014,2.10972439997189E-014,19.3884976362871));
#393=DIRECTION('',(0.0,-0.0,-1.0));
#394=DIRECTION('',(1.0,9.40698214411812E-020,0.0));
#395=CARTESIAN_POINT('',(-5.6843418860808E-014,2.10972439997189E-014,-2.8421709430404E-014));
#396=DIRECTION('',(0.0,0.0,-1.0));
#397=DIRECTION('',(1.0,9.40698214411812E-020,0.0));
#398=SURFACE_STYLE_FILL_AREA(#450);
#399=ORIENTED_EDGE('',*,*,#112,.T.);
#400=ORIENTED_EDGE('',*,*,#124,.F.);
#401=ORIENTED_EDGE('',*,*,#86,.T.);
#402=ORIENTED_EDGE('',*,*,#70,.T.);
#403=CARTESIAN_POINT('',(-2.8421709430404E-014,2.08176657902177E-014,7.49999999999997));
#404=DIRECTION('',(0.0,-0.0,-1.0));
#405=DIRECTION('',(1.0,9.0489866556977E-014,0.0));
#406=SURFACE_STYLE_FILL_AREA(#451);
#407=ORIENTED_EDGE('',*,*,#114,.F.);
#408=ORIENTED_EDGE('',*,*,#128,.F.);
#409=ORIENTED_EDGE('',*,*,#126,.F.);
#410=CARTESIAN_POINT('',(-5.48871304918039E-014,2.18626229708579E-014,9.99999999999998));
#411=DIRECTION('',(0.0,0.0,-1.0));
#412=DIRECTION('',(-1.0,0.0,0.0));
#413=DIRECTION('',(0.866025403784441,1.06135488059699E-016,0.499999999999996));
#414=SURFACE_STYLE_FILL_AREA(#452);
#415=ORIENTED_EDGE('',*,*,#94,.F.);
#416=ORIENTED_EDGE('',*,*,#70,.F.);
#417=ORIENTED_EDGE('',*,*,#60,.T.);
#418=ORIENTED_EDGE('',*,*,#126,.T.);
#419=CARTESIAN_POINT('',(5.24999999999993,2.24749261477691E-014,-2.48689957516035E-014));
#420=DIRECTION('',(0.0,0.0,-1.0));
#421=DIRECTION('',(-1.0,0.0,0.0));
#422=DIRECTION('',(-0.0,-0.0,-1.0));
#423=DIRECTION('',(-0.00866634120351919,-7.85277344693905E-016,0.999962446559942));
#424=CARTESIAN_POINT('',(-5.48871304918039E-014,2.18626229708579E-014,9.99999999999998));
#425=DIRECTION('',(1.22460635382238E-016,-1.0,0.0));
#426=DIRECTION('',(0.0,0.0,1.0));
#427=SURFACE_STYLE_FILL_AREA(#453);
#428=ORIENTED_EDGE('',*,*,#102,.T.);
#429=ORIENTED_EDGE('',*,*,#130,.T.);
#430=ORIENTED_EDGE('',*,*,#72,.T.);
#431=CARTESIAN_POINT('',(-5.6843418860808E-014,2.10972439997189E-014,19.3884976362871));
#432=DIRECTION('',(0.0,-0.0,-1.0));
#433=DIRECTION('',(1.0,9.40698214411812E-020,0.0));
#434=CARTESIAN_POINT('',(-5.6843418860808E-014,2.10972439997189E-014,15.0));
#435=DIRECTION('',(0.0,0.0,-1.0));
#436=DIRECTION('',(1.0,9.40698214411812E-020,0.0));
#437=CARTESIAN_POINT('',(-5.6843418860808E-014,2.10972439997189E-014,-2.1316282072803E-014));
#438=DIRECTION('',(0.0,0.0,-1.0));
#439=DIRECTION('',(1.0,9.40698214411812E-020,0.0));
#440=CARTESIAN_POINT('',(-5.48871304918039E-014,2.18626229708579E-014,9.99999999999998));
#441=DIRECTION('',(1.22460635382238E-016,-1.0,0.0));
#442=DIRECTION('',(0.0,0.0,1.0));
#443=DIRECTION('',(0.866025403784441,1.06135488059699E-016,-0.499999999999996));
#444=FILL_AREA_STYLE('',(#454));
#445=FILL_AREA_STYLE('',(#455));
#446=FILL_AREA_STYLE('',(#456));
#447=FILL_AREA_STYLE('',(#457));
#448=FILL_AREA_STYLE('',(#458));
#449=FILL_AREA_STYLE('',(#459));
#450=FILL_AREA_STYLE('',(#460));
#451=FILL_AREA_STYLE('',(#461));
#452=FILL_AREA_STYLE('',(#462));
#453=FILL_AREA_STYLE('',(#463));
#454=FILL_AREA_STYLE_COLOUR('',#464);
#455=FILL_AREA_STYLE_COLOUR('',#465);
#456=FILL_AREA_STYLE_COLOUR('',#466);
#457=FILL_AREA_STYLE_COLOUR('',#467);
#458=FILL_AREA_STYLE_COLOUR('',#468);
#459=FILL_AREA_STYLE_COLOUR('',#469);
#460=FILL_AREA_STYLE_COLOUR('',#470);
#461=FILL_AREA_STYLE_COLOUR('',#471);
#462=FILL_AREA_STYLE_COLOUR('',#472);
#463=FILL_AREA_STYLE_COLOUR('',#473);
#464=COLOUR_RGB('',0.509803950786591,0.509803950786591,0.588235318660736);
#465=COLOUR_RGB('',0.509803950786591,0.509803950786591,0.588235318660736);
#466=COLOUR_RGB('',0.509803950786591,0.509803950786591,0.588235318660736);
#467=COLOUR_RGB('',0.509803950786591,0.509803950786591,0.588235318660736);
#468=COLOUR_RGB('',0.509803950786591,0.509803950786591,0.588235318660736);
#469=COLOUR_RGB('',0.509803950786591,0.509803950786591,0.588235318660736);
#470=COLOUR_RGB('',0.509803950786591,0.509803950786591,0.588235318660736);
#471=COLOUR_RGB('',0.509803950786591,0.509803950786591,0.588235318660736);
#472=COLOUR_RGB('',0.509803950786591,0.509803950786591,0.588235318660736);
#473=COLOUR_RGB('',0.509803950786591,0.509803950786591,0.588235318660736);
ENDSEC;
END-ISO-10303-21;
