ISO-10303-21;
HEADER;
FILE_DESCRIPTION(('STEP AP214'),'1');
FILE_NAME(' ','  ',('TraceParts'),('TraceParts S.A.'),'XStep 1.0',' ',' ');
FILE_SCHEMA(('automotive_design'));
ENDSEC;
DATA;
#1=MECHANICAL_DESIGN_GEOMETRIC_PRESENTATION_REPRESENTATION(' ',(#10,#11,#12,#13,#14,#15,#16,#17,#18,#19,#20,#21,#22,#23,#24,#25,#26,#27,#28,#29,#30,#31,#32,#33,#34,#35,#36,#37,#38,#39,#40,#41,#42,#43,#44,#45),#6);
#2=PRODUCT_DEFINITION_CONTEXT('',#46,'design');
#3=APPLICATION_PROTOCOL_DEFINITION('INTERNATIONAL STANDARD','automotive_design',1994,#46);
#4=PRODUCT_CATEGORY_RELATIONSHIP('NONE','NONE',#47,#48);
#5=SHAPE_DEFINITION_REPRESENTATION(#49,#50);
#6= (GEOMETRIC_REPRESENTATION_CONTEXT(3)GLOBAL_UNCERTAINTY_ASSIGNED_CONTEXT((#53))GLOBAL_UNIT_ASSIGNED_CONTEXT((#55,#56,#57))REPRESENTATION_CONTEXT('NONE','WORKSPACE'));
#10=STYLED_ITEM('',(#59),#60);
#11=STYLED_ITEM('',(#61),#62);
#12=STYLED_ITEM('',(#63),#64);
#13=STYLED_ITEM('',(#65),#66);
#14=STYLED_ITEM('',(#67),#68);
#15=STYLED_ITEM('',(#69),#70);
#16=STYLED_ITEM('',(#71),#72);
#17=STYLED_ITEM('',(#73),#74);
#18=STYLED_ITEM('',(#75),#76);
#19=STYLED_ITEM('',(#77),#78);
#20=STYLED_ITEM('',(#79),#80);
#21=STYLED_ITEM('',(#81),#82);
#22=STYLED_ITEM('',(#83),#84);
#23=STYLED_ITEM('',(#85),#86);
#24=STYLED_ITEM('',(#87),#88);
#25=STYLED_ITEM('',(#89),#90);
#26=STYLED_ITEM('',(#91),#92);
#27=STYLED_ITEM('',(#93),#94);
#28=STYLED_ITEM('',(#95),#96);
#29=STYLED_ITEM('',(#97),#98);
#30=STYLED_ITEM('',(#99),#100);
#31=STYLED_ITEM('',(#101),#102);
#32=STYLED_ITEM('',(#103),#104);
#33=STYLED_ITEM('',(#105),#106);
#34=STYLED_ITEM('',(#107),#108);
#35=STYLED_ITEM('',(#109),#110);
#36=STYLED_ITEM('',(#111),#112);
#37=STYLED_ITEM('',(#113),#114);
#38=STYLED_ITEM('',(#115),#116);
#39=STYLED_ITEM('',(#117),#118);
#40=STYLED_ITEM('',(#119),#120);
#41=STYLED_ITEM('',(#121),#122);
#42=STYLED_ITEM('',(#123),#124);
#43=STYLED_ITEM('',(#125),#126);
#44=STYLED_ITEM('',(#127),#128);
#45=STYLED_ITEM('',(#129),#130);
#46=APPLICATION_CONTEXT(' ');
#47=PRODUCT_CATEGORY('part','NONE');
#48=PRODUCT_RELATED_PRODUCT_CATEGORY('detail',' ',(#131));
#49=PRODUCT_DEFINITION_SHAPE('NONE','NONE',#132);
#50=ADVANCED_BREP_SHAPE_REPRESENTATION('1',(#86,#133),#6);
#53=UNCERTAINTY_MEASURE_WITH_UNIT(LENGTH_MEASURE(1.0E-006),#55,'','');
#55= (CONVERSION_BASED_UNIT('MILLIMETRE',#136)LENGTH_UNIT()NAMED_UNIT(#139));
#56= (NAMED_UNIT(#141)PLANE_ANGLE_UNIT()SI_UNIT($,.RADIAN.));
#57= (NAMED_UNIT(#141)SOLID_ANGLE_UNIT()SI_UNIT($,.STERADIAN.));
#59=PRESENTATION_STYLE_ASSIGNMENT((#147));
#60=EDGE_CURVE('',#104,#124,#148,.T.);
#61=PRESENTATION_STYLE_ASSIGNMENT((#149));
#62=VERTEX_POINT('',#150);
#63=PRESENTATION_STYLE_ASSIGNMENT((#151));
#64=EDGE_CURVE('',#62,#90,#152,.T.);
#65=PRESENTATION_STYLE_ASSIGNMENT((#153));
#66=VERTEX_POINT('',#154);
#67=PRESENTATION_STYLE_ASSIGNMENT((#155));
#68=EDGE_CURVE('',#124,#98,#156,.T.);
#69=PRESENTATION_STYLE_ASSIGNMENT((#157));
#70=ADVANCED_FACE('',(#158),#159,.F.);
#71=PRESENTATION_STYLE_ASSIGNMENT((#160));
#72=EDGE_CURVE('',#90,#124,#161,.T.);
#73=PRESENTATION_STYLE_ASSIGNMENT((#162));
#74=EDGE_CURVE('',#108,#120,#163,.T.);
#75=PRESENTATION_STYLE_ASSIGNMENT((#164));
#76=EDGE_CURVE('',#66,#128,#165,.T.);
#77=PRESENTATION_STYLE_ASSIGNMENT((#166));
#78=EDGE_CURVE('',#128,#98,#167,.T.);
#79=PRESENTATION_STYLE_ASSIGNMENT((#168));
#80=ADVANCED_FACE('',(#169),#170,.T.);
#81=PRESENTATION_STYLE_ASSIGNMENT((#171));
#82=EDGE_CURVE('',#98,#66,#172,.T.);
#83=PRESENTATION_STYLE_ASSIGNMENT((#173));
#84=EDGE_CURVE('',#120,#108,#174,.T.);
#85=PRESENTATION_STYLE_ASSIGNMENT((#175));
#86=MANIFOLD_SOLID_BREP('1',#176);
#87=PRESENTATION_STYLE_ASSIGNMENT((#177));
#88=EDGE_CURVE('',#108,#130,#178,.T.);
#89=PRESENTATION_STYLE_ASSIGNMENT((#179));
#90=VERTEX_POINT('',#180);
#91=PRESENTATION_STYLE_ASSIGNMENT((#181));
#92=ADVANCED_FACE('',(#182),#183,.F.);
#93=PRESENTATION_STYLE_ASSIGNMENT((#184));
#94=EDGE_CURVE('',#128,#104,#185,.T.);
#95=PRESENTATION_STYLE_ASSIGNMENT((#186));
#96=EDGE_CURVE('',#90,#62,#187,.T.);
#97=PRESENTATION_STYLE_ASSIGNMENT((#188));
#98=VERTEX_POINT('',#189);
#99=PRESENTATION_STYLE_ASSIGNMENT((#190));
#100=EDGE_CURVE('',#104,#62,#191,.T.);
#101=PRESENTATION_STYLE_ASSIGNMENT((#192));
#102=ADVANCED_FACE('',(#193),#194,.F.);
#103=PRESENTATION_STYLE_ASSIGNMENT((#195));
#104=VERTEX_POINT('',#196);
#105=PRESENTATION_STYLE_ASSIGNMENT((#197));
#106=EDGE_CURVE('',#98,#128,#198,.T.);
#107=PRESENTATION_STYLE_ASSIGNMENT((#199));
#108=VERTEX_POINT('',#200);
#109=PRESENTATION_STYLE_ASSIGNMENT((#201));
#110=ADVANCED_FACE('',(#202),#203,.F.);
#111=PRESENTATION_STYLE_ASSIGNMENT((#204));
#112=ADVANCED_FACE('',(#205),#206,.T.);
#113=PRESENTATION_STYLE_ASSIGNMENT((#207));
#114=ADVANCED_FACE('',(#208,#209),#210,.T.);
#115=PRESENTATION_STYLE_ASSIGNMENT((#211));
#116=EDGE_CURVE('',#130,#120,#212,.T.);
#117=PRESENTATION_STYLE_ASSIGNMENT((#213));
#118=EDGE_CURVE('',#124,#104,#214,.T.);
#119=PRESENTATION_STYLE_ASSIGNMENT((#215));
#120=VERTEX_POINT('',#216);
#121=PRESENTATION_STYLE_ASSIGNMENT((#217));
#122=ADVANCED_FACE('',(#218),#219,.F.);
#123=PRESENTATION_STYLE_ASSIGNMENT((#220));
#124=VERTEX_POINT('',#221);
#125=PRESENTATION_STYLE_ASSIGNMENT((#222));
#126=ADVANCED_FACE('',(#223),#224,.F.);
#127=PRESENTATION_STYLE_ASSIGNMENT((#225));
#128=VERTEX_POINT('',#226);
#129=PRESENTATION_STYLE_ASSIGNMENT((#227));
#130=VERTEX_POINT('',#228);
#131=PRODUCT('1','1','PART-1-DESC',(#229));
#132=PRODUCT_DEFINITION('NONE','NONE',#230,#2);
#133=AXIS2_PLACEMENT_3D('',#231,#232,#233);
#136=LENGTH_MEASURE_WITH_UNIT(LENGTH_MEASURE(1.0),#234);
#139=DIMENSIONAL_EXPONENTS(1.0,0.0,0.0,0.0,0.0,0.0,0.0);
#141=DIMENSIONAL_EXPONENTS(0.0,0.0,0.0,0.0,0.0,0.0,0.0);
#147=CURVE_STYLE('',#235,POSITIVE_LENGTH_MEASURE(1.0E-006),#236);
#148=CIRCLE('',#237,2.5);
#149=POINT_STYLE(' ',#238,POSITIVE_LENGTH_MEASURE(1.0E-006),#239);
#150=CARTESIAN_POINT('',(2.99999999999991,2.24749261477691E-014,-2.8421709430404E-014));
#151=CURVE_STYLE('',#240,POSITIVE_LENGTH_MEASURE(1.0E-006),#241);
#152=CIRCLE('',#242,2.99999999999997);
#153=POINT_STYLE(' ',#243,POSITIVE_LENGTH_MEASURE(1.0E-006),#244);
#154=CARTESIAN_POINT('',(-5.6843418860808E-014,2.17375064292394E-014,12.043375672974));
#155=CURVE_STYLE('',#245,POSITIVE_LENGTH_MEASURE(1.0E-006),#246);
#156=LINE('',#247,#248);
#157=SURFACE_STYLE_USAGE(.BOTH.,#249);
#158=FACE_OUTER_BOUND('',#250,.T.);
#159=CONICAL_SURFACE('',#251,2.74999999999999,0.785398163397477);
#160=CURVE_STYLE('',#252,POSITIVE_LENGTH_MEASURE(1.0E-006),#253);
#161=LINE('',#254,#255);
#162=CURVE_STYLE('',#256,POSITIVE_LENGTH_MEASURE(1.0E-006),#257);
#163=CIRCLE('',#258,7.49999999999999);
#164=CURVE_STYLE('',#259,POSITIVE_LENGTH_MEASURE(1.0E-006),#260);
#165=LINE('',#261,#262);
#166=CURVE_STYLE('',#263,POSITIVE_LENGTH_MEASURE(1.0E-006),#264);
#167=CIRCLE('',#265,2.5);
#168=SURFACE_STYLE_USAGE(.BOTH.,#266);
#169=FACE_OUTER_BOUND('',#267,.T.);
#170=SPHERICAL_SURFACE('',#268,12.5);
#171=CURVE_STYLE('',#269,POSITIVE_LENGTH_MEASURE(1.0E-006),#270);
#172=LINE('',#271,#272);
#173=CURVE_STYLE('',#273,POSITIVE_LENGTH_MEASURE(1.0E-006),#274);
#174=CIRCLE('',#275,7.49999999999999);
#175=SURFACE_STYLE_USAGE(.BOTH.,#276);
#176=CLOSED_SHELL('',(#126,#102,#122,#112,#80,#114,#70,#92,#110));
#177=CURVE_STYLE('',#277,POSITIVE_LENGTH_MEASURE(1.0E-006),#278);
#178=CIRCLE('',#279,12.5);
#179=POINT_STYLE(' ',#280,POSITIVE_LENGTH_MEASURE(1.0E-006),#281);
#180=CARTESIAN_POINT('',(-3.00000000000003,2.07295798841079E-014,-2.8421709430404E-014));
#181=SURFACE_STYLE_USAGE(.BOTH.,#282);
#182=FACE_OUTER_BOUND('',#283,.T.);
#183=CYLINDRICAL_SURFACE('',#284,2.5);
#184=CURVE_STYLE('',#285,POSITIVE_LENGTH_MEASURE(1.0E-006),#286);
#185=LINE('',#287,#288);
#186=CURVE_STYLE('',#289,POSITIVE_LENGTH_MEASURE(1.0E-006),#290);
#187=CIRCLE('',#291,2.99999999999997);
#188=POINT_STYLE(' ',#292,POSITIVE_LENGTH_MEASURE(1.0E-006),#293);
#189=CARTESIAN_POINT('',(-2.50000000000006,2.07908572367097E-014,10.5999999999999));
#190=CURVE_STYLE('',#294,POSITIVE_LENGTH_MEASURE(1.0E-006),#295);
#191=LINE('',#296,#297);
#192=SURFACE_STYLE_USAGE(.BOTH.,#298);
#193=FACE_OUTER_BOUND('',#299,.T.);
#194=CYLINDRICAL_SURFACE('',#300,2.5);
#195=POINT_STYLE(' ',#301,POSITIVE_LENGTH_MEASURE(1.0E-006),#302);
#196=CARTESIAN_POINT('',(2.49999999999994,2.24443109889235E-014,0.499999999999915));
#197=CURVE_STYLE('',#303,POSITIVE_LENGTH_MEASURE(1.0E-006),#304);
#198=CIRCLE('',#305,2.5);
#199=POINT_STYLE(' ',#306,POSITIVE_LENGTH_MEASURE(1.0E-006),#307);
#200=CARTESIAN_POINT('',(7.49999999999994,2.24749261477691E-014,-2.1316282072803E-014));
#201=SURFACE_STYLE_USAGE(.BOTH.,#308);
#202=FACE_OUTER_BOUND('',#309,.T.);
#203=CONICAL_SURFACE('',#310,1.25,1.04719755119659);
#204=SURFACE_STYLE_USAGE(.BOTH.,#311);
#205=FACE_OUTER_BOUND('',#312,.T.);
#206=SPHERICAL_SURFACE('',#313,12.5);
#207=SURFACE_STYLE_USAGE(.BOTH.,#314);
#208=FACE_BOUND('',#315,.T.);
#209=FACE_OUTER_BOUND('',#316,.T.);
#210=PLANE('',#317);
#211=CURVE_STYLE('',#318,POSITIVE_LENGTH_MEASURE(1.0E-006),#319);
#212=CIRCLE('',#320,12.5);
#213=CURVE_STYLE('',#321,POSITIVE_LENGTH_MEASURE(1.0E-006),#322);
#214=CIRCLE('',#323,2.5);
#215=POINT_STYLE(' ',#324,POSITIVE_LENGTH_MEASURE(1.0E-006),#325);
#216=CARTESIAN_POINT('',(-7.50000000000005,2.09441682054911E-014,-2.1316282072803E-014));
#217=SURFACE_STYLE_USAGE(.BOTH.,#326);
#218=FACE_OUTER_BOUND('',#327,.T.);
#219=CONICAL_SURFACE('',#328,2.74999999999999,0.785398163397477);
#220=POINT_STYLE(' ',#329,POSITIVE_LENGTH_MEASURE(1.0E-006),#330);
#221=CARTESIAN_POINT('',(-2.50000000000006,2.07908572367097E-014,0.499999999999915));
#222=SURFACE_STYLE_USAGE(.BOTH.,#331);
#223=FACE_OUTER_BOUND('',#332,.T.);
#224=CONICAL_SURFACE('',#333,1.25,1.04719755119659);
#225=POINT_STYLE(' ',#334,POSITIVE_LENGTH_MEASURE(1.0E-006),#335);
#226=CARTESIAN_POINT('',(2.49999999999994,2.18258847802432E-014,10.5999999999999));
#227=POINT_STYLE(' ',#336,POSITIVE_LENGTH_MEASURE(1.0E-006),#337);
#228=CARTESIAN_POINT('',(-5.6843418860808E-014,2.10972439997189E-014,22.5));
#229=PRODUCT_CONTEXT('',#46,'mechanical');
#230=PRODUCT_DEFINITION_FORMATION_WITH_SPECIFIED_SOURCE(' ','NONE',#131,.NOT_KNOWN.);
#231=CARTESIAN_POINT('',(0.0,0.0,0.0));
#232=DIRECTION('',(0.0,0.0,1.0));
#233=DIRECTION('',(1.0,0.0,0.0));
#234= (NAMED_UNIT(#139)LENGTH_UNIT()SI_UNIT(.MILLI.,.METRE.));
#235=DRAUGHTING_PRE_DEFINED_CURVE_FONT('continuous');
#236=COLOUR_RGB('',0.509803950786591,0.509803950786591,0.588235318660736);
#237=AXIS2_PLACEMENT_3D('',#339,#340,#341);
#238=PRE_DEFINED_MARKER('');
#239=COLOUR_RGB('',0.509803950786591,0.509803950786591,0.588235318660736);
#240=DRAUGHTING_PRE_DEFINED_CURVE_FONT('continuous');
#241=COLOUR_RGB('',0.509803950786591,0.509803950786591,0.588235318660736);
#242=AXIS2_PLACEMENT_3D('',#342,#343,#344);
#243=PRE_DEFINED_MARKER('');
#244=COLOUR_RGB('',0.509803950786591,0.509803950786591,0.588235318660736);
#245=DRAUGHTING_PRE_DEFINED_CURVE_FONT('continuous');
#246=COLOUR_RGB('',0.509803950786591,0.509803950786591,0.588235318660736);
#247=CARTESIAN_POINT('',(-2.50000000000006,2.07908572367097E-014,5.54999999999993));
#248=VECTOR('',#345,1.0);
#249=SURFACE_SIDE_STYLE('',(#346));
#250=EDGE_LOOP('',(#347,#348,#349,#350));
#251=AXIS2_PLACEMENT_3D('',#351,#352,#353);
#252=DRAUGHTING_PRE_DEFINED_CURVE_FONT('continuous');
#253=COLOUR_RGB('',0.509803950786591,0.509803950786591,0.588235318660736);
#254=CARTESIAN_POINT('',(-2.75000000000004,2.07602185604088E-014,0.249999999999943));
#255=VECTOR('',#354,1.0);
#256=DRAUGHTING_PRE_DEFINED_CURVE_FONT('continuous');
#257=COLOUR_RGB('',0.509803950786591,0.509803950786591,0.588235318660736);
#258=AXIS2_PLACEMENT_3D('',#355,#356,#357);
#259=DRAUGHTING_PRE_DEFINED_CURVE_FONT('continuous');
#260=COLOUR_RGB('',0.509803950786591,0.509803950786591,0.588235318660736);
#261=CARTESIAN_POINT('',(1.24999999999994,2.12504373812235E-014,11.321687836487));
#262=VECTOR('',#358,1.0);
#263=DRAUGHTING_PRE_DEFINED_CURVE_FONT('continuous');
#264=COLOUR_RGB('',0.509803950786591,0.509803950786591,0.588235318660736);
#265=AXIS2_PLACEMENT_3D('',#359,#360,#361);
#266=SURFACE_SIDE_STYLE('',(#362));
#267=EDGE_LOOP('',(#363,#364,#365));
#268=AXIS2_PLACEMENT_3D('',#366,#367,#368);
#269=DRAUGHTING_PRE_DEFINED_CURVE_FONT('continuous');
#270=COLOUR_RGB('',0.509803950786591,0.509803950786591,0.588235318660736);
#271=CARTESIAN_POINT('',(-1.25000000000006,2.09440506182143E-014,11.321687836487));
#272=VECTOR('',#369,1.0);
#273=DRAUGHTING_PRE_DEFINED_CURVE_FONT('continuous');
#274=COLOUR_RGB('',0.509803950786591,0.509803950786591,0.588235318660736);
#275=AXIS2_PLACEMENT_3D('',#370,#371,#372);
#276=SURFACE_SIDE_STYLE('',(#373));
#277=DRAUGHTING_PRE_DEFINED_CURVE_FONT('continuous');
#278=COLOUR_RGB('',0.509803950786591,0.509803950786591,0.588235318660736);
#279=AXIS2_PLACEMENT_3D('',#374,#375,#376);
#280=PRE_DEFINED_MARKER('');
#281=COLOUR_RGB('',0.509803950786591,0.509803950786591,0.588235318660736);
#282=SURFACE_SIDE_STYLE('',(#377));
#283=EDGE_LOOP('',(#378,#379,#380,#381));
#284=AXIS2_PLACEMENT_3D('',#382,#383,#384);
#285=DRAUGHTING_PRE_DEFINED_CURVE_FONT('continuous');
#286=COLOUR_RGB('',0.509803950786591,0.509803950786591,0.588235318660736);
#287=CARTESIAN_POINT('',(2.49999999999994,2.14036307627281E-014,5.54999999999993));
#288=VECTOR('',#385,1.0);
#289=DRAUGHTING_PRE_DEFINED_CURVE_FONT('continuous');
#290=COLOUR_RGB('',0.509803950786591,0.509803950786591,0.588235318660736);
#291=AXIS2_PLACEMENT_3D('',#386,#387,#388);
#292=PRE_DEFINED_MARKER('');
#293=COLOUR_RGB('',0.509803950786591,0.509803950786591,0.588235318660736);
#294=DRAUGHTING_PRE_DEFINED_CURVE_FONT('continuous');
#295=COLOUR_RGB('',0.509803950786591,0.509803950786591,0.588235318660736);
#296=CARTESIAN_POINT('',(2.74999999999993,2.1434269439029E-014,0.249999999999943));
#297=VECTOR('',#389,1.0);
#298=SURFACE_SIDE_STYLE('',(#390));
#299=EDGE_LOOP('',(#391,#392,#393,#394));
#300=AXIS2_PLACEMENT_3D('',#395,#396,#397);
#301=PRE_DEFINED_MARKER('');
#302=COLOUR_RGB('',0.509803950786591,0.509803950786591,0.588235318660736);
#303=DRAUGHTING_PRE_DEFINED_CURVE_FONT('continuous');
#304=COLOUR_RGB('',0.509803950786591,0.509803950786591,0.588235318660736);
#305=AXIS2_PLACEMENT_3D('',#398,#399,#400);
#306=PRE_DEFINED_MARKER('');
#307=COLOUR_RGB('',0.509803950786591,0.509803950786591,0.588235318660736);
#308=SURFACE_SIDE_STYLE('',(#401));
#309=EDGE_LOOP('',(#402,#403,#404));
#310=AXIS2_PLACEMENT_3D('',#405,#406,#407);
#311=SURFACE_SIDE_STYLE('',(#408));
#312=EDGE_LOOP('',(#409,#410,#411));
#313=AXIS2_PLACEMENT_3D('',#412,#413,#414);
#314=SURFACE_SIDE_STYLE('',(#415));
#315=EDGE_LOOP('',(#416,#417));
#316=EDGE_LOOP('',(#418,#419));
#317=AXIS2_PLACEMENT_3D('',#420,#421,#422);
#318=DRAUGHTING_PRE_DEFINED_CURVE_FONT('continuous');
#319=COLOUR_RGB('',0.509803950786591,0.509803950786591,0.588235318660736);
#320=AXIS2_PLACEMENT_3D('',#423,#424,#425);
#321=DRAUGHTING_PRE_DEFINED_CURVE_FONT('continuous');
#322=COLOUR_RGB('',0.509803950786591,0.509803950786591,0.588235318660736);
#323=AXIS2_PLACEMENT_3D('',#426,#427,#428);
#324=PRE_DEFINED_MARKER('');
#325=COLOUR_RGB('',0.509803950786591,0.509803950786591,0.588235318660736);
#326=SURFACE_SIDE_STYLE('',(#429));
#327=EDGE_LOOP('',(#430,#431,#432,#433));
#328=AXIS2_PLACEMENT_3D('',#434,#435,#436);
#329=PRE_DEFINED_MARKER('');
#330=COLOUR_RGB('',0.509803950786591,0.509803950786591,0.588235318660736);
#331=SURFACE_SIDE_STYLE('',(#437));
#332=EDGE_LOOP('',(#438,#439,#440));
#333=AXIS2_PLACEMENT_3D('',#441,#442,#443);
#334=PRE_DEFINED_MARKER('');
#335=COLOUR_RGB('',0.509803950786591,0.509803950786591,0.588235318660736);
#336=PRE_DEFINED_MARKER('');
#337=COLOUR_RGB('',0.509803950786591,0.509803950786591,0.588235318660736);
#339=CARTESIAN_POINT('',(-5.6843418860808E-014,2.10972439997189E-014,0.499999999999915));
#340=DIRECTION('',(0.0,0.0,-1.0));
#341=DIRECTION('',(1.0,9.40698214411812E-020,0.0));
#342=CARTESIAN_POINT('',(-5.6843418860808E-014,2.10972439997189E-014,-2.8421709430404E-014));
#343=DIRECTION('',(0.0,0.0,-1.0));
#344=DIRECTION('',(1.0,9.40698214411812E-020,0.0));
#345=DIRECTION('',(-0.0,-0.0,1.0));
#346=SURFACE_STYLE_FILL_AREA(#444);
#347=ORIENTED_EDGE('',*,*,#100,.T.);
#348=ORIENTED_EDGE('',*,*,#64,.T.);
#349=ORIENTED_EDGE('',*,*,#72,.T.);
#350=ORIENTED_EDGE('',*,*,#60,.F.);
#351=CARTESIAN_POINT('',(-5.6843418860808E-014,2.10972439997189E-014,0.249999999999943));
#352=DIRECTION('',(0.0,-0.0,-1.0));
#353=DIRECTION('',(1.0,9.40698214411812E-020,0.0));
#354=DIRECTION('',(0.707106781186568,8.66592631158424E-017,0.707106781186527));
#355=CARTESIAN_POINT('',(-5.6843418860808E-014,2.10972439997189E-014,-2.1316282072803E-014));
#356=DIRECTION('',(0.0,0.0,-1.0));
#357=DIRECTION('',(1.0,9.40698214411812E-020,0.0));
#358=DIRECTION('',(0.866025403784435,1.06135488059698E-016,-0.500000000000006));
#359=CARTESIAN_POINT('',(-5.6843418860808E-014,2.10972439997189E-014,10.5999999999999));
#360=DIRECTION('',(0.0,0.0,-1.0));
#361=DIRECTION('',(1.0,9.40698214411812E-020,0.0));
#362=SURFACE_STYLE_FILL_AREA(#445);
#363=ORIENTED_EDGE('',*,*,#116,.T.);
#364=ORIENTED_EDGE('',*,*,#74,.F.);
#365=ORIENTED_EDGE('',*,*,#88,.T.);
#366=CARTESIAN_POINT('',(-5.48871304918039E-014,2.18626229708579E-014,9.99999999999998));
#367=DIRECTION('',(0.0,0.0,-1.0));
#368=DIRECTION('',(-1.0,0.0,0.0));
#369=DIRECTION('',(0.866025403784435,1.06135488059698E-016,0.500000000000006));
#370=CARTESIAN_POINT('',(-5.6843418860808E-014,2.10972439997189E-014,-2.1316282072803E-014));
#371=DIRECTION('',(0.0,0.0,-1.0));
#372=DIRECTION('',(1.0,9.40698214411812E-020,0.0));
#373=SURFACE_STYLE_FILL_AREA(#446);
#374=CARTESIAN_POINT('',(-5.48871304918039E-014,2.18626229708579E-014,9.99999999999998));
#375=DIRECTION('',(1.22460635382238E-016,-1.0,0.0));
#376=DIRECTION('',(0.0,0.0,1.0));
#377=SURFACE_STYLE_FILL_AREA(#447);
#378=ORIENTED_EDGE('',*,*,#94,.T.);
#379=ORIENTED_EDGE('',*,*,#60,.T.);
#380=ORIENTED_EDGE('',*,*,#68,.T.);
#381=ORIENTED_EDGE('',*,*,#78,.F.);
#382=CARTESIAN_POINT('',(-5.6843418860808E-014,2.10972439997189E-014,5.54999999999993));
#383=DIRECTION('',(-0.0,-0.0,1.0));
#384=DIRECTION('',(1.0,9.40698214411812E-020,0.0));
#385=DIRECTION('',(-0.0,-0.0,-1.0));
#386=CARTESIAN_POINT('',(-5.6843418860808E-014,2.10972439997189E-014,-2.8421709430404E-014));
#387=DIRECTION('',(0.0,0.0,-1.0));
#388=DIRECTION('',(1.0,9.40698214411812E-020,0.0));
#389=DIRECTION('',(0.707106781186568,8.66592631158424E-017,-0.707106781186527));
#390=SURFACE_STYLE_FILL_AREA(#448);
#391=ORIENTED_EDGE('',*,*,#94,.F.);
#392=ORIENTED_EDGE('',*,*,#106,.F.);
#393=ORIENTED_EDGE('',*,*,#68,.F.);
#394=ORIENTED_EDGE('',*,*,#118,.T.);
#395=CARTESIAN_POINT('',(-5.6843418860808E-014,2.10972439997189E-014,5.54999999999993));
#396=DIRECTION('',(-0.0,-0.0,1.0));
#397=DIRECTION('',(1.0,9.40698214411812E-020,0.0));
#398=CARTESIAN_POINT('',(-5.6843418860808E-014,2.10972439997189E-014,10.5999999999999));
#399=DIRECTION('',(0.0,0.0,-1.0));
#400=DIRECTION('',(1.0,9.40698214411812E-020,0.0));
#401=SURFACE_STYLE_FILL_AREA(#449);
#402=ORIENTED_EDGE('',*,*,#82,.F.);
#403=ORIENTED_EDGE('',*,*,#106,.T.);
#404=ORIENTED_EDGE('',*,*,#76,.F.);
#405=CARTESIAN_POINT('',(-5.6843418860808E-014,2.10972439997189E-014,11.321687836487));
#406=DIRECTION('',(0.0,-0.0,-1.0));
#407=DIRECTION('',(1.0,9.40698214411812E-020,0.0));
#408=SURFACE_STYLE_FILL_AREA(#450);
#409=ORIENTED_EDGE('',*,*,#116,.F.);
#410=ORIENTED_EDGE('',*,*,#88,.F.);
#411=ORIENTED_EDGE('',*,*,#84,.F.);
#412=CARTESIAN_POINT('',(-5.48871304918039E-014,2.18626229708579E-014,9.99999999999998));
#413=DIRECTION('',(0.0,0.0,-1.0));
#414=DIRECTION('',(-1.0,0.0,0.0));
#415=SURFACE_STYLE_FILL_AREA(#451);
#416=ORIENTED_EDGE('',*,*,#64,.F.);
#417=ORIENTED_EDGE('',*,*,#96,.F.);
#418=ORIENTED_EDGE('',*,*,#74,.T.);
#419=ORIENTED_EDGE('',*,*,#84,.T.);
#420=CARTESIAN_POINT('',(5.24999999999993,2.24749261477691E-014,-2.48689957516035E-014));
#421=DIRECTION('',(0.0,0.0,-1.0));
#422=DIRECTION('',(-1.0,0.0,0.0));
#423=CARTESIAN_POINT('',(-5.48871304918039E-014,2.18626229708579E-014,9.99999999999998));
#424=DIRECTION('',(1.22460635382238E-016,-1.0,0.0));
#425=DIRECTION('',(0.0,0.0,1.0));
#426=CARTESIAN_POINT('',(-5.6843418860808E-014,2.10972439997189E-014,0.499999999999915));
#427=DIRECTION('',(0.0,0.0,-1.0));
#428=DIRECTION('',(1.0,9.40698214411812E-020,0.0));
#429=SURFACE_STYLE_FILL_AREA(#452);
#430=ORIENTED_EDGE('',*,*,#100,.F.);
#431=ORIENTED_EDGE('',*,*,#118,.F.);
#432=ORIENTED_EDGE('',*,*,#72,.F.);
#433=ORIENTED_EDGE('',*,*,#96,.T.);
#434=CARTESIAN_POINT('',(-5.6843418860808E-014,2.10972439997189E-014,0.249999999999943));
#435=DIRECTION('',(0.0,-0.0,-1.0));
#436=DIRECTION('',(1.0,9.40698214411812E-020,0.0));
#437=SURFACE_STYLE_FILL_AREA(#453);
#438=ORIENTED_EDGE('',*,*,#82,.T.);
#439=ORIENTED_EDGE('',*,*,#76,.T.);
#440=ORIENTED_EDGE('',*,*,#78,.T.);
#441=CARTESIAN_POINT('',(-5.6843418860808E-014,2.10972439997189E-014,11.321687836487));
#442=DIRECTION('',(0.0,-0.0,-1.0));
#443=DIRECTION('',(1.0,9.40698214411812E-020,0.0));
#444=FILL_AREA_STYLE('',(#454));
#445=FILL_AREA_STYLE('',(#455));
#446=FILL_AREA_STYLE('',(#456));
#447=FILL_AREA_STYLE('',(#457));
#448=FILL_AREA_STYLE('',(#458));
#449=FILL_AREA_STYLE('',(#459));
#450=FILL_AREA_STYLE('',(#460));
#451=FILL_AREA_STYLE('',(#461));
#452=FILL_AREA_STYLE('',(#462));
#453=FILL_AREA_STYLE('',(#463));
#454=FILL_AREA_STYLE_COLOUR('',#464);
#455=FILL_AREA_STYLE_COLOUR('',#465);
#456=FILL_AREA_STYLE_COLOUR('',#466);
#457=FILL_AREA_STYLE_COLOUR('',#467);
#458=FILL_AREA_STYLE_COLOUR('',#468);
#459=FILL_AREA_STYLE_COLOUR('',#469);
#460=FILL_AREA_STYLE_COLOUR('',#470);
#461=FILL_AREA_STYLE_COLOUR('',#471);
#462=FILL_AREA_STYLE_COLOUR('',#472);
#463=FILL_AREA_STYLE_COLOUR('',#473);
#464=COLOUR_RGB('',0.509803950786591,0.509803950786591,0.588235318660736);
#465=COLOUR_RGB('',0.509803950786591,0.509803950786591,0.588235318660736);
#466=COLOUR_RGB('',0.509803950786591,0.509803950786591,0.588235318660736);
#467=COLOUR_RGB('',0.509803950786591,0.509803950786591,0.588235318660736);
#468=COLOUR_RGB('',0.509803950786591,0.509803950786591,0.588235318660736);
#469=COLOUR_RGB('',0.509803950786591,0.509803950786591,0.588235318660736);
#470=COLOUR_RGB('',0.509803950786591,0.509803950786591,0.588235318660736);
#471=COLOUR_RGB('',0.509803950786591,0.509803950786591,0.588235318660736);
#472=COLOUR_RGB('',0.509803950786591,0.509803950786591,0.588235318660736);
#473=COLOUR_RGB('',0.509803950786591,0.509803950786591,0.588235318660736);
ENDSEC;
END-ISO-10303-21;
