ISO-10303-21;
HEADER;
FILE_DESCRIPTION(('STEP AP214'),'1');
FILE_NAME(' ','  ',('TraceParts'),('TraceParts S.A.'),'XStep 1.0',' ',' ');
FILE_SCHEMA(('automotive_design'));
ENDSEC;
DATA;
#1=MECHANICAL_DESIGN_GEOMETRIC_PRESENTATION_REPRESENTATION(' ',(#10,#11,#12,#13,#14,#15,#16,#17,#18,#19,#20,#21,#22,#23,#24,#25,#26,#27,#28,#29,#30,#31,#32,#33,#34,#35,#36,#37,#38,#39,#40,#41,#42,#43,#44,#45),#6);
#2=PRODUCT_DEFINITION_CONTEXT('',#46,'design');
#3=APPLICATION_PROTOCOL_DEFINITION('INTERNATIONAL STANDARD','automotive_design',1994,#46);
#4=PRODUCT_CATEGORY_RELATIONSHIP('NONE','NONE',#47,#48);
#5=SHAPE_DEFINITION_REPRESENTATION(#49,#50);
#6= (GEOMETRIC_REPRESENTATION_CONTEXT(3)GLOBAL_UNCERTAINTY_ASSIGNED_CONTEXT((#53))GLOBAL_UNIT_ASSIGNED_CONTEXT((#55,#56,#57))REPRESENTATION_CONTEXT('NONE','WORKSPACE'));
#10=STYLED_ITEM('',(#59),#60);
#11=STYLED_ITEM('',(#61),#62);
#12=STYLED_ITEM('',(#63),#64);
#13=STYLED_ITEM('',(#65),#66);
#14=STYLED_ITEM('',(#67),#68);
#15=STYLED_ITEM('',(#69),#70);
#16=STYLED_ITEM('',(#71),#72);
#17=STYLED_ITEM('',(#73),#74);
#18=STYLED_ITEM('',(#75),#76);
#19=STYLED_ITEM('',(#77),#78);
#20=STYLED_ITEM('',(#79),#80);
#21=STYLED_ITEM('',(#81),#82);
#22=STYLED_ITEM('',(#83),#84);
#23=STYLED_ITEM('',(#85),#86);
#24=STYLED_ITEM('',(#87),#88);
#25=STYLED_ITEM('',(#89),#90);
#26=STYLED_ITEM('',(#91),#92);
#27=STYLED_ITEM('',(#93),#94);
#28=STYLED_ITEM('',(#95),#96);
#29=STYLED_ITEM('',(#97),#98);
#30=STYLED_ITEM('',(#99),#100);
#31=STYLED_ITEM('',(#101),#102);
#32=STYLED_ITEM('',(#103),#104);
#33=STYLED_ITEM('',(#105),#106);
#34=STYLED_ITEM('',(#107),#108);
#35=STYLED_ITEM('',(#109),#110);
#36=STYLED_ITEM('',(#111),#112);
#37=STYLED_ITEM('',(#113),#114);
#38=STYLED_ITEM('',(#115),#116);
#39=STYLED_ITEM('',(#117),#118);
#40=STYLED_ITEM('',(#119),#120);
#41=STYLED_ITEM('',(#121),#122);
#42=STYLED_ITEM('',(#123),#124);
#43=STYLED_ITEM('',(#125),#126);
#44=STYLED_ITEM('',(#127),#128);
#45=STYLED_ITEM('',(#129),#130);
#46=APPLICATION_CONTEXT(' ');
#47=PRODUCT_CATEGORY('part','NONE');
#48=PRODUCT_RELATED_PRODUCT_CATEGORY('detail',' ',(#131));
#49=PRODUCT_DEFINITION_SHAPE('NONE','NONE',#132);
#50=ADVANCED_BREP_SHAPE_REPRESENTATION('1',(#98,#133),#6);
#53=UNCERTAINTY_MEASURE_WITH_UNIT(LENGTH_MEASURE(1.0E-006),#55,'','');
#55= (CONVERSION_BASED_UNIT('MILLIMETRE',#136)LENGTH_UNIT()NAMED_UNIT(#139));
#56= (NAMED_UNIT(#141)PLANE_ANGLE_UNIT()SI_UNIT($,.RADIAN.));
#57= (NAMED_UNIT(#141)SOLID_ANGLE_UNIT()SI_UNIT($,.STERADIAN.));
#59=PRESENTATION_STYLE_ASSIGNMENT((#147));
#60=ADVANCED_FACE('',(#148),#149,.F.);
#61=PRESENTATION_STYLE_ASSIGNMENT((#150));
#62=VERTEX_POINT('',#151);
#63=PRESENTATION_STYLE_ASSIGNMENT((#152));
#64=EDGE_CURVE('',#104,#110,#153,.T.);
#65=PRESENTATION_STYLE_ASSIGNMENT((#154));
#66=EDGE_CURVE('',#122,#104,#155,.T.);
#67=PRESENTATION_STYLE_ASSIGNMENT((#156));
#68=EDGE_CURVE('',#62,#128,#157,.T.);
#69=PRESENTATION_STYLE_ASSIGNMENT((#158));
#70=ADVANCED_FACE('',(#159),#160,.F.);
#71=PRESENTATION_STYLE_ASSIGNMENT((#161));
#72=EDGE_CURVE('',#102,#76,#162,.T.);
#73=PRESENTATION_STYLE_ASSIGNMENT((#163));
#74=EDGE_CURVE('',#110,#94,#164,.T.);
#75=PRESENTATION_STYLE_ASSIGNMENT((#165));
#76=VERTEX_POINT('',#166);
#77=PRESENTATION_STYLE_ASSIGNMENT((#167));
#78=ADVANCED_FACE('',(#168,#169),#170,.T.);
#79=PRESENTATION_STYLE_ASSIGNMENT((#171));
#80=ADVANCED_FACE('',(#172),#173,.F.);
#81=PRESENTATION_STYLE_ASSIGNMENT((#174));
#82=VERTEX_POINT('',#175);
#83=PRESENTATION_STYLE_ASSIGNMENT((#176));
#84=ADVANCED_FACE('',(#177),#178,.F.);
#85=PRESENTATION_STYLE_ASSIGNMENT((#179));
#86=ADVANCED_FACE('',(#180),#181,.T.);
#87=PRESENTATION_STYLE_ASSIGNMENT((#182));
#88=VERTEX_POINT('',#183);
#89=PRESENTATION_STYLE_ASSIGNMENT((#184));
#90=EDGE_CURVE('',#110,#104,#185,.T.);
#91=PRESENTATION_STYLE_ASSIGNMENT((#186));
#92=EDGE_CURVE('',#76,#102,#187,.T.);
#93=PRESENTATION_STYLE_ASSIGNMENT((#188));
#94=VERTEX_POINT('',#189);
#95=PRESENTATION_STYLE_ASSIGNMENT((#190));
#96=ADVANCED_FACE('',(#191),#192,.F.);
#97=PRESENTATION_STYLE_ASSIGNMENT((#193));
#98=MANIFOLD_SOLID_BREP('1',#194);
#99=PRESENTATION_STYLE_ASSIGNMENT((#195));
#100=EDGE_CURVE('',#122,#94,#196,.T.);
#101=PRESENTATION_STYLE_ASSIGNMENT((#197));
#102=VERTEX_POINT('',#198);
#103=PRESENTATION_STYLE_ASSIGNMENT((#199));
#104=VERTEX_POINT('',#200);
#105=PRESENTATION_STYLE_ASSIGNMENT((#201));
#106=EDGE_CURVE('',#104,#76,#202,.T.);
#107=PRESENTATION_STYLE_ASSIGNMENT((#203));
#108=ADVANCED_FACE('',(#204),#205,.T.);
#109=PRESENTATION_STYLE_ASSIGNMENT((#206));
#110=VERTEX_POINT('',#207);
#111=PRESENTATION_STYLE_ASSIGNMENT((#208));
#112=ADVANCED_FACE('',(#209),#210,.F.);
#113=PRESENTATION_STYLE_ASSIGNMENT((#211));
#114=EDGE_CURVE('',#94,#122,#212,.T.);
#115=PRESENTATION_STYLE_ASSIGNMENT((#213));
#116=EDGE_CURVE('',#88,#128,#214,.T.);
#117=PRESENTATION_STYLE_ASSIGNMENT((#215));
#118=EDGE_CURVE('',#82,#102,#216,.T.);
#119=PRESENTATION_STYLE_ASSIGNMENT((#217));
#120=EDGE_CURVE('',#76,#82,#218,.T.);
#121=PRESENTATION_STYLE_ASSIGNMENT((#219));
#122=VERTEX_POINT('',#220);
#123=PRESENTATION_STYLE_ASSIGNMENT((#221));
#124=EDGE_CURVE('',#128,#88,#222,.T.);
#125=PRESENTATION_STYLE_ASSIGNMENT((#223));
#126=EDGE_CURVE('',#102,#110,#224,.T.);
#127=PRESENTATION_STYLE_ASSIGNMENT((#225));
#128=VERTEX_POINT('',#226);
#129=PRESENTATION_STYLE_ASSIGNMENT((#227));
#130=EDGE_CURVE('',#88,#62,#228,.T.);
#131=PRODUCT('1','1','PART-1-DESC',(#229));
#132=PRODUCT_DEFINITION('NONE','NONE',#230,#2);
#133=AXIS2_PLACEMENT_3D('',#231,#232,#233);
#136=LENGTH_MEASURE_WITH_UNIT(LENGTH_MEASURE(1.0),#234);
#139=DIMENSIONAL_EXPONENTS(1.0,0.0,0.0,0.0,0.0,0.0,0.0);
#141=DIMENSIONAL_EXPONENTS(0.0,0.0,0.0,0.0,0.0,0.0,0.0);
#147=SURFACE_STYLE_USAGE(.BOTH.,#235);
#148=FACE_OUTER_BOUND('',#236,.T.);
#149=CONICAL_SURFACE('',#237,1.82499999999999,0.785398163397448);
#150=POINT_STYLE(' ',#238,POSITIVE_LENGTH_MEASURE(1.0E-006),#239);
#151=CARTESIAN_POINT('',(-5.6843418860808E-014,2.10972439997189E-014,14.9999999999999));
#152=CURVE_STYLE('',#240,POSITIVE_LENGTH_MEASURE(1.0E-006),#241);
#153=CIRCLE('',#242,1.65000000000001);
#154=CURVE_STYLE('',#243,POSITIVE_LENGTH_MEASURE(1.0E-006),#244);
#155=LINE('',#245,#246);
#156=CURVE_STYLE('',#247,POSITIVE_LENGTH_MEASURE(1.0E-006),#248);
#157=CIRCLE('',#249,8.00000000000001);
#158=SURFACE_STYLE_USAGE(.BOTH.,#250);
#159=FACE_OUTER_BOUND('',#251,.T.);
#160=CONICAL_SURFACE('',#252,0.825000000000003,1.0471975511966);
#161=CURVE_STYLE('',#253,POSITIVE_LENGTH_MEASURE(1.0E-006),#254);
#162=CIRCLE('',#255,1.65000000000001);
#163=CURVE_STYLE('',#256,POSITIVE_LENGTH_MEASURE(1.0E-006),#257);
#164=LINE('',#258,#259);
#165=POINT_STYLE(' ',#260,POSITIVE_LENGTH_MEASURE(1.0E-006),#261);
#166=CARTESIAN_POINT('',(-1.65000000000006,2.08950201529574E-014,7.29999999999995));
#167=SURFACE_STYLE_USAGE(.BOTH.,#262);
#168=FACE_BOUND('',#263,.T.);
#169=FACE_OUTER_BOUND('',#264,.T.);
#170=PLANE('',#265);
#171=SURFACE_STYLE_USAGE(.BOTH.,#266);
#172=FACE_OUTER_BOUND('',#267,.T.);
#173=CYLINDRICAL_SURFACE('',#268,1.65000000000001);
#174=POINT_STYLE(' ',#269,POSITIVE_LENGTH_MEASURE(1.0E-006),#270);
#175=CARTESIAN_POINT('',(-5.6843418860808E-014,2.1510387734278E-014,8.25262794416287));
#176=SURFACE_STYLE_USAGE(.BOTH.,#271);
#177=FACE_OUTER_BOUND('',#272,.T.);
#178=CONICAL_SURFACE('',#273,0.825000000000003,1.0471975511966);
#179=SURFACE_STYLE_USAGE(.BOTH.,#274);
#180=FACE_OUTER_BOUND('',#275,.T.);
#181=SPHERICAL_SURFACE('',#276,8.00000000000001);
#182=POINT_STYLE(' ',#277,POSITIVE_LENGTH_MEASURE(1.0E-006),#278);
#183=CARTESIAN_POINT('',(3.87298334620736,2.20156987650857E-014,-6.92779167366098E-014));
#184=CURVE_STYLE('',#279,POSITIVE_LENGTH_MEASURE(1.0E-006),#280);
#185=CIRCLE('',#281,1.65000000000001);
#186=CURVE_STYLE('',#282,POSITIVE_LENGTH_MEASURE(1.0E-006),#283);
#187=CIRCLE('',#284,1.65000000000001);
#188=POINT_STYLE(' ',#285,POSITIVE_LENGTH_MEASURE(1.0E-006),#286);
#189=CARTESIAN_POINT('',(1.99999999999991,2.20156987650857E-014,-6.03961325396085E-014));
#190=SURFACE_STYLE_USAGE(.BOTH.,#287);
#191=FACE_OUTER_BOUND('',#288,.T.);
#192=CYLINDRICAL_SURFACE('',#289,1.65000000000001);
#193=SURFACE_STYLE_USAGE(.BOTH.,#290);
#194=CLOSED_SHELL('',(#84,#96,#60,#86,#108,#78,#112,#80,#70));
#195=CURVE_STYLE('',#291,POSITIVE_LENGTH_MEASURE(1.0E-006),#292);
#196=CIRCLE('',#293,1.99999999999997);
#197=POINT_STYLE(' ',#294,POSITIVE_LENGTH_MEASURE(1.0E-006),#295);
#198=CARTESIAN_POINT('',(1.64999999999995,2.15687174459405E-014,7.29999999999995));
#199=POINT_STYLE(' ',#296,POSITIVE_LENGTH_MEASURE(1.0E-006),#297);
#200=CARTESIAN_POINT('',(-1.65000000000006,2.08950201529574E-014,0.349999999999906));
#201=CURVE_STYLE('',#298,POSITIVE_LENGTH_MEASURE(1.0E-006),#299);
#202=LINE('',#300,#301);
#203=SURFACE_STYLE_USAGE(.BOTH.,#302);
#204=FACE_OUTER_BOUND('',#303,.T.);
#205=SPHERICAL_SURFACE('',#304,8.00000000000001);
#206=POINT_STYLE(' ',#305,POSITIVE_LENGTH_MEASURE(1.0E-006),#306);
#207=CARTESIAN_POINT('',(1.64999999999995,2.19942681538938E-014,0.349999999999906));
#208=SURFACE_STYLE_USAGE(.BOTH.,#307);
#209=FACE_OUTER_BOUND('',#308,.T.);
#210=CONICAL_SURFACE('',#309,1.82499999999999,0.785398163397448);
#211=CURVE_STYLE('',#310,POSITIVE_LENGTH_MEASURE(1.0E-006),#311);
#212=CIRCLE('',#312,1.99999999999997);
#213=CURVE_STYLE('',#313,POSITIVE_LENGTH_MEASURE(1.0E-006),#314);
#214=CIRCLE('',#315,3.87298334620742);
#215=CURVE_STYLE('',#316,POSITIVE_LENGTH_MEASURE(1.0E-006),#317);
#216=LINE('',#318,#319);
#217=CURVE_STYLE('',#320,POSITIVE_LENGTH_MEASURE(1.0E-006),#321);
#218=LINE('',#322,#323);
#219=POINT_STYLE(' ',#324,POSITIVE_LENGTH_MEASURE(1.0E-006),#325);
#220=CARTESIAN_POINT('',(-2.00000000000003,2.08521241854625E-014,-6.03961325396085E-014));
#221=CURVE_STYLE('',#326,POSITIVE_LENGTH_MEASURE(1.0E-006),#327);
#222=CIRCLE('',#328,3.87298334620742);
#223=CURVE_STYLE('',#329,POSITIVE_LENGTH_MEASURE(1.0E-006),#330);
#224=LINE('',#331,#332);
#225=POINT_STYLE(' ',#333,POSITIVE_LENGTH_MEASURE(1.0E-006),#334);
#226=CARTESIAN_POINT('',(-3.87298334620747,2.11127985398465E-014,-6.92779167366098E-014));
#227=CURVE_STYLE('',#335,POSITIVE_LENGTH_MEASURE(1.0E-006),#336);
#228=CIRCLE('',#337,8.00000000000001);
#229=PRODUCT_CONTEXT('',#46,'mechanical');
#230=PRODUCT_DEFINITION_FORMATION_WITH_SPECIFIED_SOURCE(' ','NONE',#131,.NOT_KNOWN.);
#231=CARTESIAN_POINT('',(0.0,0.0,0.0));
#232=DIRECTION('',(0.0,0.0,1.0));
#233=DIRECTION('',(1.0,0.0,0.0));
#234= (NAMED_UNIT(#139)LENGTH_UNIT()SI_UNIT(.MILLI.,.METRE.));
#235=SURFACE_SIDE_STYLE('',(#339));
#236=EDGE_LOOP('',(#340,#341,#342,#343));
#237=AXIS2_PLACEMENT_3D('',#344,#345,#346);
#238=PRE_DEFINED_MARKER('');
#239=COLOUR_RGB('',0.509803950786591,0.509803950786591,0.588235318660736);
#240=DRAUGHTING_PRE_DEFINED_CURVE_FONT('continuous');
#241=COLOUR_RGB('',0.509803950786591,0.509803950786591,0.588235318660736);
#242=AXIS2_PLACEMENT_3D('',#347,#348,#349);
#243=DRAUGHTING_PRE_DEFINED_CURVE_FONT('continuous');
#244=COLOUR_RGB('',0.509803950786591,0.509803950786591,0.588235318660736);
#245=CARTESIAN_POINT('',(-1.82500000000005,2.087357216921E-014,0.174999999999923));
#246=VECTOR('',#350,1.0);
#247=DRAUGHTING_PRE_DEFINED_CURVE_FONT('continuous');
#248=COLOUR_RGB('',0.509803950786591,0.509803950786591,0.588235318660736);
#249=AXIS2_PLACEMENT_3D('',#351,#352,#353);
#250=SURFACE_SIDE_STYLE('',(#354));
#251=EDGE_LOOP('',(#355,#356,#357));
#252=AXIS2_PLACEMENT_3D('',#358,#359,#360);
#253=DRAUGHTING_PRE_DEFINED_CURVE_FONT('continuous');
#254=COLOUR_RGB('',0.509803950786591,0.509803950786591,0.588235318660736);
#255=AXIS2_PLACEMENT_3D('',#361,#362,#363);
#256=DRAUGHTING_PRE_DEFINED_CURVE_FONT('continuous');
#257=COLOUR_RGB('',0.509803950786591,0.509803950786591,0.588235318660736);
#258=CARTESIAN_POINT('',(1.82499999999993,2.13209158302278E-014,0.174999999999923));
#259=VECTOR('',#364,1.0);
#260=PRE_DEFINED_MARKER('');
#261=COLOUR_RGB('',0.509803950786591,0.509803950786591,0.588235318660736);
#262=SURFACE_SIDE_STYLE('',(#365));
#263=EDGE_LOOP('',(#366,#367));
#264=EDGE_LOOP('',(#368,#369));
#265=AXIS2_PLACEMENT_3D('',#370,#371,#372);
#266=SURFACE_SIDE_STYLE('',(#373));
#267=EDGE_LOOP('',(#374,#375,#376,#377));
#268=AXIS2_PLACEMENT_3D('',#378,#379,#380);
#269=PRE_DEFINED_MARKER('');
#270=COLOUR_RGB('',0.509803950786591,0.509803950786591,0.588235318660736);
#271=SURFACE_SIDE_STYLE('',(#381));
#272=EDGE_LOOP('',(#382,#383,#384));
#273=AXIS2_PLACEMENT_3D('',#385,#386,#387);
#274=SURFACE_SIDE_STYLE('',(#388));
#275=EDGE_LOOP('',(#389,#390,#391));
#276=AXIS2_PLACEMENT_3D('',#392,#393,#394);
#277=PRE_DEFINED_MARKER('');
#278=COLOUR_RGB('',0.509803950786591,0.509803950786591,0.588235318660736);
#279=DRAUGHTING_PRE_DEFINED_CURVE_FONT('continuous');
#280=COLOUR_RGB('',0.509803950786591,0.509803950786591,0.588235318660736);
#281=AXIS2_PLACEMENT_3D('',#395,#396,#397);
#282=DRAUGHTING_PRE_DEFINED_CURVE_FONT('continuous');
#283=COLOUR_RGB('',0.509803950786591,0.509803950786591,0.588235318660736);
#284=AXIS2_PLACEMENT_3D('',#398,#399,#400);
#285=PRE_DEFINED_MARKER('');
#286=COLOUR_RGB('',0.509803950786591,0.509803950786591,0.588235318660736);
#287=SURFACE_SIDE_STYLE('',(#401));
#288=EDGE_LOOP('',(#402,#403,#404,#405));
#289=AXIS2_PLACEMENT_3D('',#406,#407,#408);
#290=SURFACE_SIDE_STYLE('',(#409));
#291=DRAUGHTING_PRE_DEFINED_CURVE_FONT('continuous');
#292=COLOUR_RGB('',0.509803950786591,0.509803950786591,0.588235318660736);
#293=AXIS2_PLACEMENT_3D('',#410,#411,#412);
#294=PRE_DEFINED_MARKER('');
#295=COLOUR_RGB('',0.509803950786591,0.509803950786591,0.588235318660736);
#296=PRE_DEFINED_MARKER('');
#297=COLOUR_RGB('',0.509803950786591,0.509803950786591,0.588235318660736);
#298=DRAUGHTING_PRE_DEFINED_CURVE_FONT('continuous');
#299=COLOUR_RGB('',0.509803950786591,0.509803950786591,0.588235318660736);
#300=CARTESIAN_POINT('',(-1.65000000000006,2.08950201529574E-014,3.82499999999993));
#301=VECTOR('',#413,1.0);
#302=SURFACE_SIDE_STYLE('',(#414));
#303=EDGE_LOOP('',(#415,#416,#417));
#304=AXIS2_PLACEMENT_3D('',#418,#419,#420);
#305=PRE_DEFINED_MARKER('');
#306=COLOUR_RGB('',0.509803950786591,0.509803950786591,0.588235318660736);
#307=SURFACE_SIDE_STYLE('',(#421));
#308=EDGE_LOOP('',(#422,#423,#424,#425));
#309=AXIS2_PLACEMENT_3D('',#426,#427,#428);
#310=DRAUGHTING_PRE_DEFINED_CURVE_FONT('continuous');
#311=COLOUR_RGB('',0.509803950786591,0.509803950786591,0.588235318660736);
#312=AXIS2_PLACEMENT_3D('',#429,#430,#431);
#313=DRAUGHTING_PRE_DEFINED_CURVE_FONT('continuous');
#314=COLOUR_RGB('',0.509803950786591,0.509803950786591,0.588235318660736);
#315=AXIS2_PLACEMENT_3D('',#432,#433,#434);
#316=DRAUGHTING_PRE_DEFINED_CURVE_FONT('continuous');
#317=COLOUR_RGB('',0.509803950786591,0.509803950786591,0.588235318660736);
#318=CARTESIAN_POINT('',(0.824999999999946,2.11983559230996E-014,7.77631397208141));
#319=VECTOR('',#435,1.0);
#320=DRAUGHTING_PRE_DEFINED_CURVE_FONT('continuous');
#321=COLOUR_RGB('',0.509803950786591,0.509803950786591,0.588235318660736);
#322=CARTESIAN_POINT('',(-0.82500000000006,2.09961320763381E-014,7.77631397208141));
#323=VECTOR('',#436,1.0);
#324=PRE_DEFINED_MARKER('');
#325=COLOUR_RGB('',0.509803950786591,0.509803950786591,0.588235318660736);
#326=DRAUGHTING_PRE_DEFINED_CURVE_FONT('continuous');
#327=COLOUR_RGB('',0.509803950786591,0.509803950786591,0.588235318660736);
#328=AXIS2_PLACEMENT_3D('',#437,#438,#439);
#329=DRAUGHTING_PRE_DEFINED_CURVE_FONT('continuous');
#330=COLOUR_RGB('',0.509803950786591,0.509803950786591,0.588235318660736);
#331=CARTESIAN_POINT('',(1.64999999999995,2.12994678464804E-014,3.82499999999993));
#332=VECTOR('',#440,1.0);
#333=PRE_DEFINED_MARKER('');
#334=COLOUR_RGB('',0.509803950786591,0.509803950786591,0.588235318660736);
#335=DRAUGHTING_PRE_DEFINED_CURVE_FONT('continuous');
#336=COLOUR_RGB('',0.509803950786591,0.509803950786591,0.588235318660736);
#337=AXIS2_PLACEMENT_3D('',#441,#442,#443);
#339=SURFACE_STYLE_FILL_AREA(#444);
#340=ORIENTED_EDGE('',*,*,#74,.F.);
#341=ORIENTED_EDGE('',*,*,#64,.F.);
#342=ORIENTED_EDGE('',*,*,#66,.F.);
#343=ORIENTED_EDGE('',*,*,#100,.T.);
#344=CARTESIAN_POINT('',(-5.6843418860808E-014,2.10972439997189E-014,0.174999999999923));
#345=DIRECTION('',(0.0,-0.0,-1.0));
#346=DIRECTION('',(1.0,9.92717459391437E-020,0.0));
#347=CARTESIAN_POINT('',(-5.6843418860808E-014,2.10972439997189E-014,0.349999999999906));
#348=DIRECTION('',(0.0,0.0,-1.0));
#349=DIRECTION('',(1.0,9.92717459391437E-020,0.0));
#350=DIRECTION('',(0.707106781186548,8.6662941431927E-017,0.707106781186547));
#351=CARTESIAN_POINT('',(-5.29847770596664E-014,2.15870865412478E-014,6.99999999999994));
#352=DIRECTION('',(1.22460635382238E-016,-1.0,0.0));
#353=DIRECTION('',(0.0,0.0,1.0));
#354=SURFACE_STYLE_FILL_AREA(#445);
#355=ORIENTED_EDGE('',*,*,#120,.F.);
#356=ORIENTED_EDGE('',*,*,#92,.T.);
#357=ORIENTED_EDGE('',*,*,#118,.F.);
#358=CARTESIAN_POINT('',(-5.6843418860808E-014,2.10972439997189E-014,7.77631397208141));
#359=DIRECTION('',(0.0,-0.0,-1.0));
#360=DIRECTION('',(1.0,9.92717459391437E-020,0.0));
#361=CARTESIAN_POINT('',(-5.6843418860808E-014,2.10972439997189E-014,7.29999999999995));
#362=DIRECTION('',(0.0,0.0,-1.0));
#363=DIRECTION('',(1.0,9.92717459391437E-020,0.0));
#364=DIRECTION('',(0.707106781186548,8.6662941431927E-017,-0.707106781186547));
#365=SURFACE_STYLE_FILL_AREA(#446);
#366=ORIENTED_EDGE('',*,*,#114,.F.);
#367=ORIENTED_EDGE('',*,*,#100,.F.);
#368=ORIENTED_EDGE('',*,*,#116,.T.);
#369=ORIENTED_EDGE('',*,*,#124,.T.);
#370=CARTESIAN_POINT('',(2.93649167310364,2.20156987650857E-014,-6.3948846218409E-014));
#371=DIRECTION('',(0.0,0.0,-1.0));
#372=DIRECTION('',(-1.0,0.0,0.0));
#373=SURFACE_STYLE_FILL_AREA(#447);
#374=ORIENTED_EDGE('',*,*,#126,.T.);
#375=ORIENTED_EDGE('',*,*,#90,.T.);
#376=ORIENTED_EDGE('',*,*,#106,.T.);
#377=ORIENTED_EDGE('',*,*,#72,.F.);
#378=CARTESIAN_POINT('',(-5.6843418860808E-014,2.10972439997189E-014,3.82499999999993));
#379=DIRECTION('',(-0.0,-0.0,1.0));
#380=DIRECTION('',(1.0,9.92717459391437E-020,0.0));
#381=SURFACE_STYLE_FILL_AREA(#448);
#382=ORIENTED_EDGE('',*,*,#120,.T.);
#383=ORIENTED_EDGE('',*,*,#118,.T.);
#384=ORIENTED_EDGE('',*,*,#72,.T.);
#385=CARTESIAN_POINT('',(-5.6843418860808E-014,2.10972439997189E-014,7.77631397208141));
#386=DIRECTION('',(0.0,-0.0,-1.0));
#387=DIRECTION('',(1.0,9.92717459391437E-020,0.0));
#388=SURFACE_STYLE_FILL_AREA(#449);
#389=ORIENTED_EDGE('',*,*,#68,.F.);
#390=ORIENTED_EDGE('',*,*,#130,.F.);
#391=ORIENTED_EDGE('',*,*,#124,.F.);
#392=CARTESIAN_POINT('',(-5.29847770596664E-014,2.15870865412478E-014,6.99999999999994));
#393=DIRECTION('',(0.0,0.0,-1.0));
#394=DIRECTION('',(-1.0,0.0,0.0));
#395=CARTESIAN_POINT('',(-5.6843418860808E-014,2.10972439997189E-014,0.349999999999906));
#396=DIRECTION('',(0.0,0.0,-1.0));
#397=DIRECTION('',(1.0,9.92717459391437E-020,0.0));
#398=CARTESIAN_POINT('',(-5.6843418860808E-014,2.10972439997189E-014,7.29999999999995));
#399=DIRECTION('',(0.0,0.0,-1.0));
#400=DIRECTION('',(1.0,9.92717459391437E-020,0.0));
#401=SURFACE_STYLE_FILL_AREA(#450);
#402=ORIENTED_EDGE('',*,*,#126,.F.);
#403=ORIENTED_EDGE('',*,*,#92,.F.);
#404=ORIENTED_EDGE('',*,*,#106,.F.);
#405=ORIENTED_EDGE('',*,*,#64,.T.);
#406=CARTESIAN_POINT('',(-5.6843418860808E-014,2.10972439997189E-014,3.82499999999993));
#407=DIRECTION('',(-0.0,-0.0,1.0));
#408=DIRECTION('',(1.0,9.92717459391437E-020,0.0));
#409=SURFACE_STYLE_FILL_AREA(#451);
#410=CARTESIAN_POINT('',(-5.6843418860808E-014,2.10972439997189E-014,-6.03961325396085E-014));
#411=DIRECTION('',(0.0,0.0,-1.0));
#412=DIRECTION('',(1.0,9.92717459391437E-020,0.0));
#413=DIRECTION('',(-0.0,-0.0,1.0));
#414=SURFACE_STYLE_FILL_AREA(#452);
#415=ORIENTED_EDGE('',*,*,#68,.T.);
#416=ORIENTED_EDGE('',*,*,#116,.F.);
#417=ORIENTED_EDGE('',*,*,#130,.T.);
#418=CARTESIAN_POINT('',(-5.29847770596664E-014,2.15870865412478E-014,6.99999999999994));
#419=DIRECTION('',(0.0,0.0,-1.0));
#420=DIRECTION('',(-1.0,0.0,0.0));
#421=SURFACE_STYLE_FILL_AREA(#453);
#422=ORIENTED_EDGE('',*,*,#74,.T.);
#423=ORIENTED_EDGE('',*,*,#114,.T.);
#424=ORIENTED_EDGE('',*,*,#66,.T.);
#425=ORIENTED_EDGE('',*,*,#90,.F.);
#426=CARTESIAN_POINT('',(-5.6843418860808E-014,2.10972439997189E-014,0.174999999999923));
#427=DIRECTION('',(0.0,-0.0,-1.0));
#428=DIRECTION('',(1.0,9.92717459391437E-020,0.0));
#429=CARTESIAN_POINT('',(-5.6843418860808E-014,2.10972439997189E-014,-6.03961325396085E-014));
#430=DIRECTION('',(0.0,0.0,-1.0));
#431=DIRECTION('',(1.0,9.92717459391437E-020,0.0));
#432=CARTESIAN_POINT('',(-5.6843418860808E-014,2.10972439997189E-014,-6.92779167366098E-014));
#433=DIRECTION('',(0.0,0.0,-1.0));
#434=DIRECTION('',(1.0,9.92717459391437E-020,0.0));
#435=DIRECTION('',(0.866025403784439,1.06139993058461E-016,-0.5));
#436=DIRECTION('',(0.866025403784439,1.06139993058461E-016,0.5));
#437=CARTESIAN_POINT('',(-5.6843418860808E-014,2.10972439997189E-014,-6.92779167366098E-014));
#438=DIRECTION('',(0.0,0.0,-1.0));
#439=DIRECTION('',(1.0,9.92717459391437E-020,0.0));
#440=DIRECTION('',(-0.0,-0.0,-1.0));
#441=CARTESIAN_POINT('',(-5.29847770596664E-014,2.15870865412478E-014,6.99999999999994));
#442=DIRECTION('',(1.22460635382238E-016,-1.0,0.0));
#443=DIRECTION('',(0.0,0.0,1.0));
#444=FILL_AREA_STYLE('',(#454));
#445=FILL_AREA_STYLE('',(#455));
#446=FILL_AREA_STYLE('',(#456));
#447=FILL_AREA_STYLE('',(#457));
#448=FILL_AREA_STYLE('',(#458));
#449=FILL_AREA_STYLE('',(#459));
#450=FILL_AREA_STYLE('',(#460));
#451=FILL_AREA_STYLE('',(#461));
#452=FILL_AREA_STYLE('',(#462));
#453=FILL_AREA_STYLE('',(#463));
#454=FILL_AREA_STYLE_COLOUR('',#464);
#455=FILL_AREA_STYLE_COLOUR('',#465);
#456=FILL_AREA_STYLE_COLOUR('',#466);
#457=FILL_AREA_STYLE_COLOUR('',#467);
#458=FILL_AREA_STYLE_COLOUR('',#468);
#459=FILL_AREA_STYLE_COLOUR('',#469);
#460=FILL_AREA_STYLE_COLOUR('',#470);
#461=FILL_AREA_STYLE_COLOUR('',#471);
#462=FILL_AREA_STYLE_COLOUR('',#472);
#463=FILL_AREA_STYLE_COLOUR('',#473);
#464=COLOUR_RGB('',0.509803950786591,0.509803950786591,0.588235318660736);
#465=COLOUR_RGB('',0.509803950786591,0.509803950786591,0.588235318660736);
#466=COLOUR_RGB('',0.509803950786591,0.509803950786591,0.588235318660736);
#467=COLOUR_RGB('',0.509803950786591,0.509803950786591,0.588235318660736);
#468=COLOUR_RGB('',0.509803950786591,0.509803950786591,0.588235318660736);
#469=COLOUR_RGB('',0.509803950786591,0.509803950786591,0.588235318660736);
#470=COLOUR_RGB('',0.509803950786591,0.509803950786591,0.588235318660736);
#471=COLOUR_RGB('',0.509803950786591,0.509803950786591,0.588235318660736);
#472=COLOUR_RGB('',0.509803950786591,0.509803950786591,0.588235318660736);
#473=COLOUR_RGB('',0.509803950786591,0.509803950786591,0.588235318660736);
ENDSEC;
END-ISO-10303-21;
