ISO-10303-21;
HEADER;
FILE_DESCRIPTION(('STEP AP214'),'1');
FILE_NAME(' ','  ',('TraceParts'),('TraceParts S.A.'),'XStep 1.0',' ',' ');
FILE_SCHEMA(('automotive_design'));
ENDSEC;
DATA;
#1=MECHANICAL_DESIGN_GEOMETRIC_PRESENTATION_REPRESENTATION(' ',(#10,#11,#12,#13,#14,#15,#16,#17,#18,#19,#20,#21,#22,#23,#24,#25,#26,#27,#28,#29,#30,#31,#32,#33,#34,#35,#36,#37,#38,#39,#40,#41,#42,#43,#44,#45,#46,#47,#48,#49,#50,#51,#52,#53,#54,#55,#56,#57),#6);
#2=PRODUCT_DEFINITION_CONTEXT('',#58,'design');
#3=APPLICATION_PROTOCOL_DEFINITION('INTERNATIONAL STANDARD','automotive_design',1994,#58);
#4=PRODUCT_CATEGORY_RELATIONSHIP('NONE','NONE',#59,#60);
#5=SHAPE_DEFINITION_REPRESENTATION(#61,#62);
#6= (GEOMETRIC_REPRESENTATION_CONTEXT(3)GLOBAL_UNCERTAINTY_ASSIGNED_CONTEXT((#65))GLOBAL_UNIT_ASSIGNED_CONTEXT((#67,#68,#69))REPRESENTATION_CONTEXT('NONE','WORKSPACE'));
#10=STYLED_ITEM('',(#71),#72);
#11=STYLED_ITEM('',(#73),#74);
#12=STYLED_ITEM('',(#75),#76);
#13=STYLED_ITEM('',(#77),#78);
#14=STYLED_ITEM('',(#79),#80);
#15=STYLED_ITEM('',(#81),#82);
#16=STYLED_ITEM('',(#83),#84);
#17=STYLED_ITEM('',(#85),#86);
#18=STYLED_ITEM('',(#87),#88);
#19=STYLED_ITEM('',(#89),#90);
#20=STYLED_ITEM('',(#91),#92);
#21=STYLED_ITEM('',(#93),#94);
#22=STYLED_ITEM('',(#95),#96);
#23=STYLED_ITEM('',(#97),#98);
#24=STYLED_ITEM('',(#99),#100);
#25=STYLED_ITEM('',(#101),#102);
#26=STYLED_ITEM('',(#103),#104);
#27=STYLED_ITEM('',(#105),#106);
#28=STYLED_ITEM('',(#107),#108);
#29=STYLED_ITEM('',(#109),#110);
#30=STYLED_ITEM('',(#111),#112);
#31=STYLED_ITEM('',(#113),#114);
#32=STYLED_ITEM('',(#115),#116);
#33=STYLED_ITEM('',(#117),#118);
#34=STYLED_ITEM('',(#119),#120);
#35=STYLED_ITEM('',(#121),#122);
#36=STYLED_ITEM('',(#123),#124);
#37=STYLED_ITEM('',(#125),#126);
#38=STYLED_ITEM('',(#127),#128);
#39=STYLED_ITEM('',(#129),#130);
#40=STYLED_ITEM('',(#131),#132);
#41=STYLED_ITEM('',(#133),#134);
#42=STYLED_ITEM('',(#135),#136);
#43=STYLED_ITEM('',(#137),#138);
#44=STYLED_ITEM('',(#139),#140);
#45=STYLED_ITEM('',(#141),#142);
#46=STYLED_ITEM('',(#143),#144);
#47=STYLED_ITEM('',(#145),#146);
#48=STYLED_ITEM('',(#147),#148);
#49=STYLED_ITEM('',(#149),#150);
#50=STYLED_ITEM('',(#151),#152);
#51=STYLED_ITEM('',(#153),#154);
#52=STYLED_ITEM('',(#155),#156);
#53=STYLED_ITEM('',(#157),#158);
#54=STYLED_ITEM('',(#159),#160);
#55=STYLED_ITEM('',(#161),#162);
#56=STYLED_ITEM('',(#163),#164);
#57=STYLED_ITEM('',(#165),#166);
#58=APPLICATION_CONTEXT(' ');
#59=PRODUCT_CATEGORY('part','NONE');
#60=PRODUCT_RELATED_PRODUCT_CATEGORY('detail',' ',(#167));
#61=PRODUCT_DEFINITION_SHAPE('NONE','NONE',#168);
#62=ADVANCED_BREP_SHAPE_REPRESENTATION('1',(#88,#169),#6);
#65=UNCERTAINTY_MEASURE_WITH_UNIT(LENGTH_MEASURE(1.0E-006),#67,'','');
#67= (CONVERSION_BASED_UNIT('MILLIMETRE',#172)LENGTH_UNIT()NAMED_UNIT(#175));
#68= (NAMED_UNIT(#177)PLANE_ANGLE_UNIT()SI_UNIT($,.RADIAN.));
#69= (NAMED_UNIT(#177)SOLID_ANGLE_UNIT()SI_UNIT($,.STERADIAN.));
#71=PRESENTATION_STYLE_ASSIGNMENT((#183));
#72=ADVANCED_FACE('',(#184),#185,.F.);
#73=PRESENTATION_STYLE_ASSIGNMENT((#186));
#74=EDGE_CURVE('',#82,#90,#187,.T.);
#75=PRESENTATION_STYLE_ASSIGNMENT((#188));
#76=ADVANCED_FACE('',(#189),#190,.T.);
#77=PRESENTATION_STYLE_ASSIGNMENT((#191));
#78=EDGE_CURVE('',#160,#86,#192,.T.);
#79=PRESENTATION_STYLE_ASSIGNMENT((#193));
#80=VERTEX_POINT('',#194);
#81=PRESENTATION_STYLE_ASSIGNMENT((#195));
#82=VERTEX_POINT('',#196);
#83=PRESENTATION_STYLE_ASSIGNMENT((#197));
#84=VERTEX_POINT('',#198);
#85=PRESENTATION_STYLE_ASSIGNMENT((#199));
#86=VERTEX_POINT('',#200);
#87=PRESENTATION_STYLE_ASSIGNMENT((#201));
#88=MANIFOLD_SOLID_BREP('1',#202);
#89=PRESENTATION_STYLE_ASSIGNMENT((#203));
#90=VERTEX_POINT('',#204);
#91=PRESENTATION_STYLE_ASSIGNMENT((#205));
#92=EDGE_CURVE('',#82,#128,#206,.T.);
#93=PRESENTATION_STYLE_ASSIGNMENT((#207));
#94=ADVANCED_FACE('',(#208,#209),#210,.T.);
#95=PRESENTATION_STYLE_ASSIGNMENT((#211));
#96=EDGE_CURVE('',#84,#120,#212,.T.);
#97=PRESENTATION_STYLE_ASSIGNMENT((#213));
#98=EDGE_CURVE('',#150,#80,#214,.T.);
#99=PRESENTATION_STYLE_ASSIGNMENT((#215));
#100=EDGE_CURVE('',#166,#112,#216,.T.);
#101=PRESENTATION_STYLE_ASSIGNMENT((#217));
#102=ADVANCED_FACE('',(#218),#219,.T.);
#103=PRESENTATION_STYLE_ASSIGNMENT((#220));
#104=EDGE_CURVE('',#148,#128,#221,.T.);
#105=PRESENTATION_STYLE_ASSIGNMENT((#222));
#106=EDGE_CURVE('',#112,#80,#223,.T.);
#107=PRESENTATION_STYLE_ASSIGNMENT((#224));
#108=ADVANCED_FACE('',(#225),#226,.F.);
#109=PRESENTATION_STYLE_ASSIGNMENT((#227));
#110=EDGE_CURVE('',#150,#166,#228,.T.);
#111=PRESENTATION_STYLE_ASSIGNMENT((#229));
#112=VERTEX_POINT('',#230);
#113=PRESENTATION_STYLE_ASSIGNMENT((#231));
#114=EDGE_CURVE('',#112,#166,#232,.T.);
#115=PRESENTATION_STYLE_ASSIGNMENT((#233));
#116=ADVANCED_FACE('',(#234),#235,.T.);
#117=PRESENTATION_STYLE_ASSIGNMENT((#236));
#118=ADVANCED_FACE('',(#237),#238,.T.);
#119=PRESENTATION_STYLE_ASSIGNMENT((#239));
#120=VERTEX_POINT('',#240);
#121=PRESENTATION_STYLE_ASSIGNMENT((#241));
#122=EDGE_CURVE('',#138,#112,#242,.T.);
#123=PRESENTATION_STYLE_ASSIGNMENT((#243));
#124=EDGE_CURVE('',#166,#138,#244,.T.);
#125=PRESENTATION_STYLE_ASSIGNMENT((#245));
#126=EDGE_CURVE('',#128,#148,#246,.T.);
#127=PRESENTATION_STYLE_ASSIGNMENT((#247));
#128=VERTEX_POINT('',#248);
#129=PRESENTATION_STYLE_ASSIGNMENT((#249));
#130=EDGE_CURVE('',#120,#84,#250,.T.);
#131=PRESENTATION_STYLE_ASSIGNMENT((#251));
#132=EDGE_CURVE('',#148,#84,#252,.T.);
#133=PRESENTATION_STYLE_ASSIGNMENT((#253));
#134=EDGE_CURVE('',#120,#86,#254,.T.);
#135=PRESENTATION_STYLE_ASSIGNMENT((#255));
#136=EDGE_CURVE('',#80,#150,#256,.T.);
#137=PRESENTATION_STYLE_ASSIGNMENT((#257));
#138=VERTEX_POINT('',#258);
#139=PRESENTATION_STYLE_ASSIGNMENT((#259));
#140=ADVANCED_FACE('',(#260),#261,.T.);
#141=PRESENTATION_STYLE_ASSIGNMENT((#262));
#142=ADVANCED_FACE('',(#263),#264,.F.);
#143=PRESENTATION_STYLE_ASSIGNMENT((#265));
#144=ADVANCED_FACE('',(#266),#267,.F.);
#145=PRESENTATION_STYLE_ASSIGNMENT((#268));
#146=ADVANCED_FACE('',(#269),#270,.T.);
#147=PRESENTATION_STYLE_ASSIGNMENT((#271));
#148=VERTEX_POINT('',#272);
#149=PRESENTATION_STYLE_ASSIGNMENT((#273));
#150=VERTEX_POINT('',#274);
#151=PRESENTATION_STYLE_ASSIGNMENT((#275));
#152=EDGE_CURVE('',#148,#150,#276,.T.);
#153=PRESENTATION_STYLE_ASSIGNMENT((#277));
#154=EDGE_CURVE('',#80,#90,#278,.T.);
#155=PRESENTATION_STYLE_ASSIGNMENT((#279));
#156=EDGE_CURVE('',#90,#82,#280,.T.);
#157=PRESENTATION_STYLE_ASSIGNMENT((#281));
#158=EDGE_CURVE('',#120,#128,#282,.T.);
#159=PRESENTATION_STYLE_ASSIGNMENT((#283));
#160=VERTEX_POINT('',#284);
#161=PRESENTATION_STYLE_ASSIGNMENT((#285));
#162=EDGE_CURVE('',#160,#84,#286,.T.);
#163=PRESENTATION_STYLE_ASSIGNMENT((#287));
#164=EDGE_CURVE('',#86,#160,#288,.T.);
#165=PRESENTATION_STYLE_ASSIGNMENT((#289));
#166=VERTEX_POINT('',#290);
#167=PRODUCT('1','1','PART-1-DESC',(#291));
#168=PRODUCT_DEFINITION('NONE','NONE',#292,#2);
#169=AXIS2_PLACEMENT_3D('',#293,#294,#295);
#172=LENGTH_MEASURE_WITH_UNIT(LENGTH_MEASURE(1.0),#296);
#175=DIMENSIONAL_EXPONENTS(1.0,0.0,0.0,0.0,0.0,0.0,0.0);
#177=DIMENSIONAL_EXPONENTS(0.0,0.0,0.0,0.0,0.0,0.0,0.0);
#183=SURFACE_STYLE_USAGE(.BOTH.,#297);
#184=FACE_OUTER_BOUND('',#298,.T.);
#185=CYLINDRICAL_SURFACE('',#299,7.0);
#186=CURVE_STYLE('',#300,POSITIVE_LENGTH_MEASURE(1.0E-006),#301);
#187=CIRCLE('',#302,12.4899959967968);
#188=SURFACE_STYLE_USAGE(.BOTH.,#303);
#189=FACE_OUTER_BOUND('',#304,.T.);
#190=SPHERICAL_SURFACE('',#305,10.0);
#191=CURVE_STYLE('',#306,POSITIVE_LENGTH_MEASURE(1.0E-006),#307);
#192=CIRCLE('',#308,8.00000000000005);
#193=POINT_STYLE(' ',#309,POSITIVE_LENGTH_MEASURE(1.0E-006),#310);
#194=CARTESIAN_POINT('',(15.8461031777289,2.99166753740843E-012,7.78617659223492));
#195=POINT_STYLE(' ',#311,POSITIVE_LENGTH_MEASURE(1.0E-006),#312);
#196=CARTESIAN_POINT('',(-12.4899959967968,-1.39868844608285E-015,-5.6843418860808E-014));
#197=POINT_STYLE(' ',#313,POSITIVE_LENGTH_MEASURE(1.0E-006),#314);
#198=CARTESIAN_POINT('',(7.0,8.23879997825791E-015,0.577350269189598));
#199=POINT_STYLE(' ',#315,POSITIVE_LENGTH_MEASURE(1.0E-006),#316);
#200=CARTESIAN_POINT('',(-8.00000000000006,1.07528540081728E-014,-2.50190493322755E-014));
#201=SURFACE_STYLE_USAGE(.BOTH.,#317);
#202=CLOSED_SHELL('',(#140,#72,#142,#102,#118,#146,#76,#108,#94,#144,#116));
#203=POINT_STYLE(' ',#318,POSITIVE_LENGTH_MEASURE(1.0E-006),#319);
#204=CARTESIAN_POINT('',(12.4899959967968,2.57760691407398E-015,-5.6843418860808E-014));
#205=CURVE_STYLE('',#320,POSITIVE_LENGTH_MEASURE(1.0E-006),#321);
#206=CIRCLE('',#322,16.0);
#207=SURFACE_STYLE_USAGE(.BOTH.,#323);
#208=FACE_BOUND('',#324,.T.);
#209=FACE_OUTER_BOUND('',#325,.T.);
#210=PLANE('',#326);
#211=CURVE_STYLE('',#327,POSITIVE_LENGTH_MEASURE(1.0E-006),#328);
#212=CIRCLE('',#329,7.0);
#213=CURVE_STYLE('',#330,POSITIVE_LENGTH_MEASURE(1.0E-006),#331);
#214=CIRCLE('',#332,7.50000000000007);
#215=CURVE_STYLE('',#333,POSITIVE_LENGTH_MEASURE(1.0E-006),#334);
#216=CIRCLE('',#335,9.99692232482357);
#217=SURFACE_STYLE_USAGE(.BOTH.,#336);
#218=FACE_OUTER_BOUND('',#337,.T.);
#219=SPHERICAL_SURFACE('',#338,10.0);
#220=CURVE_STYLE('',#339,POSITIVE_LENGTH_MEASURE(1.0E-006),#340);
#221=CIRCLE('',#341,6.99999999999999);
#222=CURVE_STYLE('',#342,POSITIVE_LENGTH_MEASURE(1.0E-006),#343);
#223=LINE('',#344,#345);
#224=SURFACE_STYLE_USAGE(.BOTH.,#346);
#225=FACE_OUTER_BOUND('',#347,.T.);
#226=CONICAL_SURFACE('',#348,7.45868412263473,1.0471975511966);
#227=CURVE_STYLE('',#349,POSITIVE_LENGTH_MEASURE(1.0E-006),#350);
#228=LINE('',#351,#352);
#229=POINT_STYLE(' ',#353,POSITIVE_LENGTH_MEASURE(1.0E-006),#354);
#230=CARTESIAN_POINT('',(111.250680597878,3.97703016016337E-012,39.8534337482383));
#231=CURVE_STYLE('',#355,POSITIVE_LENGTH_MEASURE(1.0E-006),#356);
#232=CIRCLE('',#357,9.99692232482357);
#233=SURFACE_STYLE_USAGE(.BOTH.,#358);
#234=FACE_OUTER_BOUND('',#359,.T.);
#235=SPHERICAL_SURFACE('',#360,16.0);
#236=SURFACE_STYLE_USAGE(.BOTH.,#361);
#237=FACE_OUTER_BOUND('',#362,.T.);
#238=CONICAL_SURFACE('',#363,8.74846116241178,0.0248106148955192);
#239=POINT_STYLE(' ',#364,POSITIVE_LENGTH_MEASURE(1.0E-006),#365);
#240=CARTESIAN_POINT('',(-7.0,3.37580249007143E-015,0.577350269189598));
#241=CURVE_STYLE('',#366,POSITIVE_LENGTH_MEASURE(1.0E-006),#367);
#242=CIRCLE('',#368,10.0);
#243=CURVE_STYLE('',#369,POSITIVE_LENGTH_MEASURE(1.0E-006),#370);
#244=CIRCLE('',#371,10.0);
#245=CURVE_STYLE('',#372,POSITIVE_LENGTH_MEASURE(1.0E-006),#373);
#246=CIRCLE('',#374,6.99999999999999);
#247=POINT_STYLE(' ',#375,POSITIVE_LENGTH_MEASURE(1.0E-006),#376);
#248=CARTESIAN_POINT('',(-6.99999999999999,1.6613535947201E-015,24.3874945699381));
#249=CURVE_STYLE('',#377,POSITIVE_LENGTH_MEASURE(1.0E-006),#378);
#250=CIRCLE('',#379,7.0);
#251=CURVE_STYLE('',#380,POSITIVE_LENGTH_MEASURE(1.0E-006),#381);
#252=LINE('',#382,#383);
#253=CURVE_STYLE('',#384,POSITIVE_LENGTH_MEASURE(1.0E-006),#385);
#254=LINE('',#386,#387);
#255=CURVE_STYLE('',#388,POSITIVE_LENGTH_MEASURE(1.0E-006),#389);
#256=CIRCLE('',#390,7.50000000000007);
#257=POINT_STYLE(' ',#391,POSITIVE_LENGTH_MEASURE(1.0E-006),#392);
#258=CARTESIAN_POINT('',(117.461577598239,7.50288972225203E-014,52.7525179157084));
#259=SURFACE_STYLE_USAGE(.BOTH.,#393);
#260=FACE_OUTER_BOUND('',#394,.T.);
#261=SPHERICAL_SURFACE('',#395,16.0);
#262=SURFACE_STYLE_USAGE(.BOTH.,#396);
#263=FACE_OUTER_BOUND('',#397,.T.);
#264=CONICAL_SURFACE('',#398,7.45868412263473,1.0471975511966);
#265=SURFACE_STYLE_USAGE(.BOTH.,#399);
#266=FACE_OUTER_BOUND('',#400,.T.);
#267=CYLINDRICAL_SURFACE('',#401,7.0);
#268=SURFACE_STYLE_USAGE(.BOTH.,#402);
#269=FACE_OUTER_BOUND('',#403,.T.);
#270=CONICAL_SURFACE('',#404,8.74846116241178,0.0248106148955192);
#271=POINT_STYLE(' ',#405,POSITIVE_LENGTH_MEASURE(1.0E-006),#406);
#272=CARTESIAN_POINT('',(6.99999999999999,3.39855255626805E-015,24.3874945699381));
#273=POINT_STYLE(' ',#407,POSITIVE_LENGTH_MEASURE(1.0E-006),#408);
#274=CARTESIAN_POINT('',(10.7158010278439,6.95478561827579E-014,21.8815659040235));
#275=CURVE_STYLE('',#409,POSITIVE_LENGTH_MEASURE(1.0E-006),#410);
#276=CIRCLE('',#411,16.0);
#277=CURVE_STYLE('',#412,POSITIVE_LENGTH_MEASURE(1.0E-006),#413);
#278=CIRCLE('',#414,16.0);
#279=CURVE_STYLE('',#415,POSITIVE_LENGTH_MEASURE(1.0E-006),#416);
#280=CIRCLE('',#417,12.4899959967968);
#281=CURVE_STYLE('',#418,POSITIVE_LENGTH_MEASURE(1.0E-006),#419);
#282=LINE('',#420,#421);
#283=POINT_STYLE(' ',#422,POSITIVE_LENGTH_MEASURE(1.0E-006),#423);
#284=CARTESIAN_POINT('',(7.99999999999999,7.85799828687132E-015,-5.44564393578639E-014));
#285=CURVE_STYLE('',#424,POSITIVE_LENGTH_MEASURE(1.0E-006),#425);
#286=LINE('',#426,#427);
#287=CURVE_STYLE('',#428,POSITIVE_LENGTH_MEASURE(1.0E-006),#429);
#288=CIRCLE('',#430,8.00000000000005);
#289=POINT_STYLE(' ',#431,POSITIVE_LENGTH_MEASURE(1.0E-006),#432);
#290=CARTESIAN_POINT('',(104.412382985174,7.61968930757844E-014,58.6415020266516));
#291=PRODUCT_CONTEXT('',#58,'mechanical');
#292=PRODUCT_DEFINITION_FORMATION_WITH_SPECIFIED_SOURCE(' ','NONE',#167,.NOT_KNOWN.);
#293=CARTESIAN_POINT('',(0.0,0.0,0.0));
#294=DIRECTION('',(0.0,0.0,1.0));
#295=DIRECTION('',(1.0,0.0,0.0));
#296= (NAMED_UNIT(#175)LENGTH_UNIT()SI_UNIT(.MILLI.,.METRE.));
#297=SURFACE_SIDE_STYLE('',(#434));
#298=EDGE_LOOP('',(#435,#436,#437,#438));
#299=AXIS2_PLACEMENT_3D('',#439,#440,#441);
#300=DRAUGHTING_PRE_DEFINED_CURVE_FONT('continuous');
#301=COLOUR_RGB('',0.509803950786591,0.509803950786591,0.588235318660736);
#302=AXIS2_PLACEMENT_3D('',#442,#443,#444);
#303=SURFACE_SIDE_STYLE('',(#445));
#304=EDGE_LOOP('',(#446,#447,#448));
#305=AXIS2_PLACEMENT_3D('',#449,#450,#451);
#306=DRAUGHTING_PRE_DEFINED_CURVE_FONT('continuous');
#307=COLOUR_RGB('',0.509803950786591,0.509803950786591,0.588235318660736);
#308=AXIS2_PLACEMENT_3D('',#452,#453,#454);
#309=PRE_DEFINED_MARKER('');
#310=COLOUR_RGB('',0.509803950786591,0.509803950786591,0.588235318660736);
#311=PRE_DEFINED_MARKER('');
#312=COLOUR_RGB('',0.509803950786591,0.509803950786591,0.588235318660736);
#313=PRE_DEFINED_MARKER('');
#314=COLOUR_RGB('',0.509803950786591,0.509803950786591,0.588235318660736);
#315=PRE_DEFINED_MARKER('');
#316=COLOUR_RGB('',0.509803950786591,0.509803950786591,0.588235318660736);
#317=SURFACE_SIDE_STYLE('',(#455));
#318=PRE_DEFINED_MARKER('');
#319=COLOUR_RGB('',0.509803950786591,0.509803950786591,0.588235318660736);
#320=DRAUGHTING_PRE_DEFINED_CURVE_FONT('continuous');
#321=COLOUR_RGB('',0.509803950786591,0.509803950786591,0.588235318660736);
#322=AXIS2_PLACEMENT_3D('',#456,#457,#458);
#323=SURFACE_SIDE_STYLE('',(#459));
#324=EDGE_LOOP('',(#460,#461));
#325=EDGE_LOOP('',(#462,#463));
#326=AXIS2_PLACEMENT_3D('',#464,#465,#466);
#327=DRAUGHTING_PRE_DEFINED_CURVE_FONT('continuous');
#328=COLOUR_RGB('',0.509803950786591,0.509803950786591,0.588235318660736);
#329=AXIS2_PLACEMENT_3D('',#467,#468,#469);
#330=DRAUGHTING_PRE_DEFINED_CURVE_FONT('continuous');
#331=COLOUR_RGB('',0.509803950786591,0.509803950786591,0.588235318660736);
#332=AXIS2_PLACEMENT_3D('',#470,#471,#472);
#333=DRAUGHTING_PRE_DEFINED_CURVE_FONT('continuous');
#334=COLOUR_RGB('',0.509803950786591,0.509803950786591,0.588235318660736);
#335=AXIS2_PLACEMENT_3D('',#473,#474,#475);
#336=SURFACE_SIDE_STYLE('',(#476));
#337=EDGE_LOOP('',(#477,#478,#479));
#338=AXIS2_PLACEMENT_3D('',#480,#481,#482);
#339=DRAUGHTING_PRE_DEFINED_CURVE_FONT('continuous');
#340=COLOUR_RGB('',0.509803950786591,0.509803950786591,0.588235318660736);
#341=AXIS2_PLACEMENT_3D('',#483,#484,#485);
#342=DRAUGHTING_PRE_DEFINED_CURVE_FONT('continuous');
#343=COLOUR_RGB('',0.509803950786591,0.509803950786591,0.588235318660736);
#344=CARTESIAN_POINT('',(63.5483918878034,3.48434884878591E-012,23.8198051702366));
#345=VECTOR('',#486,1.0);
#346=SURFACE_SIDE_STYLE('',(#487));
#347=EDGE_LOOP('',(#488,#489,#490,#491));
#348=AXIS2_PLACEMENT_3D('',#492,#493,#494);
#349=DRAUGHTING_PRE_DEFINED_CURVE_FONT('continuous');
#350=COLOUR_RGB('',0.509803950786591,0.509803950786591,0.588235318660736);
#351=CARTESIAN_POINT('',(57.5640920065091,-3.33386183347214E-012,40.2615339653376));
#352=VECTOR('',#495,1.0);
#353=PRE_DEFINED_MARKER('');
#354=COLOUR_RGB('',0.509803950786591,0.509803950786591,0.588235318660736);
#355=DRAUGHTING_PRE_DEFINED_CURVE_FONT('continuous');
#356=COLOUR_RGB('',0.509803950786591,0.509803950786591,0.588235318660736);
#357=AXIS2_PLACEMENT_3D('',#496,#497,#498);
#358=SURFACE_SIDE_STYLE('',(#499));
#359=EDGE_LOOP('',(#500,#501,#502,#503,#504,#505));
#360=AXIS2_PLACEMENT_3D('',#506,#507,#508);
#361=SURFACE_SIDE_STYLE('',(#509));
#362=EDGE_LOOP('',(#510,#511,#512,#513));
#363=AXIS2_PLACEMENT_3D('',#514,#515,#516);
#364=PRE_DEFINED_MARKER('');
#365=COLOUR_RGB('',0.509803950786591,0.509803950786591,0.588235318660736);
#366=DRAUGHTING_PRE_DEFINED_CURVE_FONT('continuous');
#367=COLOUR_RGB('',0.509803950786591,0.509803950786591,0.588235318660736);
#368=AXIS2_PLACEMENT_3D('',#517,#518,#519);
#369=DRAUGHTING_PRE_DEFINED_CURVE_FONT('continuous');
#370=COLOUR_RGB('',0.509803950786591,0.509803950786591,0.588235318660736);
#371=AXIS2_PLACEMENT_3D('',#520,#521,#522);
#372=DRAUGHTING_PRE_DEFINED_CURVE_FONT('continuous');
#373=COLOUR_RGB('',0.509803950786591,0.509803950786591,0.588235318660736);
#374=AXIS2_PLACEMENT_3D('',#523,#524,#525);
#375=PRE_DEFINED_MARKER('');
#376=COLOUR_RGB('',0.509803950786591,0.509803950786591,0.588235318660736);
#377=DRAUGHTING_PRE_DEFINED_CURVE_FONT('continuous');
#378=COLOUR_RGB('',0.509803950786591,0.509803950786591,0.588235318660736);
#379=AXIS2_PLACEMENT_3D('',#526,#527,#528);
#380=DRAUGHTING_PRE_DEFINED_CURVE_FONT('continuous');
#381=COLOUR_RGB('',0.509803950786591,0.509803950786591,0.588235318660736);
#382=CARTESIAN_POINT('',(7.0,3.42130262246468E-015,12.193747284969));
#383=VECTOR('',#529,1.0);
#384=DRAUGHTING_PRE_DEFINED_CURVE_FONT('continuous');
#385=COLOUR_RGB('',0.509803950786591,0.509803950786591,0.588235318660736);
#386=CARTESIAN_POINT('',(-7.45868412263478,1.16352954964474E-014,0.312528867513434));
#387=VECTOR('',#530,1.0);
#388=DRAUGHTING_PRE_DEFINED_CURVE_FONT('continuous');
#389=COLOUR_RGB('',0.509803950786591,0.509803950786591,0.588235318660736);
#390=AXIS2_PLACEMENT_3D('',#531,#532,#533);
#391=PRE_DEFINED_MARKER('');
#392=COLOUR_RGB('',0.509803950786591,0.509803950786591,0.588235318660736);
#393=SURFACE_SIDE_STYLE('',(#534));
#394=EDGE_LOOP('',(#535,#536,#537,#538,#539,#540));
#395=AXIS2_PLACEMENT_3D('',#541,#542,#543);
#396=SURFACE_SIDE_STYLE('',(#544));
#397=EDGE_LOOP('',(#545,#546,#547,#548));
#398=AXIS2_PLACEMENT_3D('',#549,#550,#551);
#399=SURFACE_SIDE_STYLE('',(#552));
#400=EDGE_LOOP('',(#553,#554,#555,#556));
#401=AXIS2_PLACEMENT_3D('',#557,#558,#559);
#402=SURFACE_SIDE_STYLE('',(#560));
#403=EDGE_LOOP('',(#561,#562,#563,#564));
#404=AXIS2_PLACEMENT_3D('',#565,#566,#567);
#405=PRE_DEFINED_MARKER('');
#406=COLOUR_RGB('',0.509803950786591,0.509803950786591,0.588235318660736);
#407=PRE_DEFINED_MARKER('');
#408=COLOUR_RGB('',0.509803950786591,0.509803950786591,0.588235318660736);
#409=DRAUGHTING_PRE_DEFINED_CURVE_FONT('continuous');
#410=COLOUR_RGB('',0.509803950786591,0.509803950786591,0.588235318660736);
#411=AXIS2_PLACEMENT_3D('',#568,#569,#570);
#412=DRAUGHTING_PRE_DEFINED_CURVE_FONT('continuous');
#413=COLOUR_RGB('',0.509803950786591,0.509803950786591,0.588235318660736);
#414=AXIS2_PLACEMENT_3D('',#571,#572,#573);
#415=DRAUGHTING_PRE_DEFINED_CURVE_FONT('continuous');
#416=COLOUR_RGB('',0.509803950786591,0.509803950786591,0.588235318660736);
#417=AXIS2_PLACEMENT_3D('',#574,#575,#576);
#418=DRAUGHTING_PRE_DEFINED_CURVE_FONT('continuous');
#419=COLOUR_RGB('',0.509803950786591,0.509803950786591,0.588235318660736);
#420=CARTESIAN_POINT('',(-7.0,1.6613535947201E-015,12.193747284969));
#421=VECTOR('',#577,1.0);
#422=PRE_DEFINED_MARKER('');
#423=COLOUR_RGB('',0.509803950786591,0.509803950786591,0.588235318660736);
#424=DRAUGHTING_PRE_DEFINED_CURVE_FONT('continuous');
#425=COLOUR_RGB('',0.509803950786591,0.509803950786591,0.588235318660736);
#426=CARTESIAN_POINT('',(7.45868412263467,8.06413228854645E-015,0.312528867513431));
#427=VECTOR('',#578,1.0);
#428=DRAUGHTING_PRE_DEFINED_CURVE_FONT('continuous');
#429=COLOUR_RGB('',0.509803950786591,0.509803950786591,0.588235318660736);
#430=AXIS2_PLACEMENT_3D('',#579,#580,#581);
#431=PRE_DEFINED_MARKER('');
#432=COLOUR_RGB('',0.509803950786591,0.509803950786591,0.588235318660736);
#434=SURFACE_STYLE_FILL_AREA(#582);
#435=ORIENTED_EDGE('',*,*,#132,.F.);
#436=ORIENTED_EDGE('',*,*,#126,.F.);
#437=ORIENTED_EDGE('',*,*,#158,.F.);
#438=ORIENTED_EDGE('',*,*,#130,.T.);
#439=CARTESIAN_POINT('',(0.0,2.54132810859239E-015,12.193747284969));
#440=DIRECTION('',(-0.0,-0.0,1.0));
#441=DIRECTION('',(1.0,3.25000945666128E-018,0.0));
#442=CARTESIAN_POINT('',(0.0,2.54132810859239E-015,-5.6843418860808E-014));
#443=DIRECTION('',(0.0,0.0,-1.0));
#444=DIRECTION('',(1.0,3.25000945666128E-018,0.0));
#445=SURFACE_STYLE_FILL_AREA(#583);
#446=ORIENTED_EDGE('',*,*,#124,.F.);
#447=ORIENTED_EDGE('',*,*,#100,.T.);
#448=ORIENTED_EDGE('',*,*,#122,.F.);
#449=CARTESIAN_POINT('',(108.06465139038,7.44127493602896E-014,49.3323164824517));
#450=DIRECTION('',(0.939692620785909,1.22845103914193E-016,0.342020143325668));
#451=DIRECTION('',(-0.342020143325668,1.79998313084964E-016,0.939692620785909));
#452=CARTESIAN_POINT('',(-5.6843418860808E-014,9.77316892511493E-015,-5.44564393578639E-014));
#453=DIRECTION('',(0.0,0.0,1.0));
#454=DIRECTION('',(-1.0,1.16935694398212E-016,0.0));
#455=SURFACE_STYLE_FILL_AREA(#584);
#456=CARTESIAN_POINT('',(1.07881802459828E-031,1.66037724529583E-015,9.99999999999993));
#457=DIRECTION('',(-2.44921270764475E-016,1.0,0.0));
#458=DIRECTION('',(0.0,0.0,-1.0));
#459=SURFACE_STYLE_FILL_AREA(#585);
#460=ORIENTED_EDGE('',*,*,#164,.T.);
#461=ORIENTED_EDGE('',*,*,#78,.T.);
#462=ORIENTED_EDGE('',*,*,#156,.T.);
#463=ORIENTED_EDGE('',*,*,#74,.T.);
#464=CARTESIAN_POINT('',(9.7449979983984,2.24145271506714E-015,-5.6843418860808E-014));
#465=DIRECTION('',(0.0,0.0,-1.0));
#466=DIRECTION('',(1.0,1.22460635382238E-016,0.0));
#467=CARTESIAN_POINT('',(0.0,2.54132810859239E-015,0.577350269189598));
#468=DIRECTION('',(0.0,0.0,-1.0));
#469=DIRECTION('',(1.0,3.25000945666128E-018,0.0));
#470=CARTESIAN_POINT('',(13.2809521027864,3.39658321845939E-015,14.8338712481293));
#471=DIRECTION('',(-0.939692620785909,-1.22845103914193E-016,-0.342020143325668));
#472=DIRECTION('',(0.342020143325668,0.0,-0.939692620785909));
#473=CARTESIAN_POINT('',(107.831531791526,8.14237603959593E-014,49.247467887445));
#474=DIRECTION('',(0.939692620785909,1.22845103914178E-016,0.342020143325668));
#475=DIRECTION('',(-0.342020143325668,-3.89803031634134E-013,0.939692620785909));
#476=SURFACE_STYLE_FILL_AREA(#586);
#477=ORIENTED_EDGE('',*,*,#124,.T.);
#478=ORIENTED_EDGE('',*,*,#122,.T.);
#479=ORIENTED_EDGE('',*,*,#114,.T.);
#480=CARTESIAN_POINT('',(108.06465139038,7.44127493602896E-014,49.3323164824517));
#481=DIRECTION('',(0.939692620785909,1.22845103914193E-016,0.342020143325668));
#482=DIRECTION('',(-0.342020143325668,1.79998313084964E-016,0.939692620785909));
#483=CARTESIAN_POINT('',(0.0,2.54132810859239E-015,24.3874945699381));
#484=DIRECTION('',(0.0,0.0,-1.0));
#485=DIRECTION('',(1.0,3.25000945666128E-018,0.0));
#486=DIRECTION('',(-0.947888273421336,-9.79003000101166E-015,-0.318602920749823));
#487=SURFACE_STYLE_FILL_AREA(#587);
#488=ORIENTED_EDGE('',*,*,#134,.T.);
#489=ORIENTED_EDGE('',*,*,#78,.F.);
#490=ORIENTED_EDGE('',*,*,#162,.T.);
#491=ORIENTED_EDGE('',*,*,#130,.F.);
#492=CARTESIAN_POINT('',(-5.6766873893426E-014,9.84971389249691E-015,0.312528867513432));
#493=DIRECTION('',(-2.44921270764476E-016,-2.44921270764475E-016,-1.0));
#494=DIRECTION('',(-1.0,1.16935694398212E-016,2.44921270764475E-016));
#495=DIRECTION('',(0.930918554419987,-9.54441540864864E-015,0.365226840520522));
#496=CARTESIAN_POINT('',(107.831531791526,8.14237603959593E-014,49.247467887445));
#497=DIRECTION('',(0.939692620785909,1.22845103914178E-016,0.342020143325668));
#498=DIRECTION('',(-0.342020143325668,-3.89803031634134E-013,0.939692620785909));
#499=SURFACE_STYLE_FILL_AREA(#588);
#500=ORIENTED_EDGE('',*,*,#152,.T.);
#501=ORIENTED_EDGE('',*,*,#98,.T.);
#502=ORIENTED_EDGE('',*,*,#154,.T.);
#503=ORIENTED_EDGE('',*,*,#74,.F.);
#504=ORIENTED_EDGE('',*,*,#92,.T.);
#505=ORIENTED_EDGE('',*,*,#126,.T.);
#506=CARTESIAN_POINT('',(1.07881802459828E-031,1.66037724529583E-015,9.99999999999993));
#507=DIRECTION('',(0.0,0.0,-1.0));
#508=DIRECTION('',(1.0,1.22460635382238E-016,0.0));
#509=SURFACE_STYLE_FILL_AREA(#589);
#510=ORIENTED_EDGE('',*,*,#110,.F.);
#511=ORIENTED_EDGE('',*,*,#136,.F.);
#512=ORIENTED_EDGE('',*,*,#106,.F.);
#513=ORIENTED_EDGE('',*,*,#100,.F.);
#514=CARTESIAN_POINT('',(60.5562419471563,7.52435076568794E-014,32.0406695677871));
#515=DIRECTION('',(0.939692620785909,1.22845103914187E-016,0.342020143325668));
#516=DIRECTION('',(-0.342020143325668,-3.89803031634134E-013,0.939692620785909));
#517=CARTESIAN_POINT('',(108.06465139038,7.44127493602896E-014,49.3323164824517));
#518=DIRECTION('',(-1.19895847429617E-017,1.0,-3.26233942012884E-016));
#519=DIRECTION('',(0.0,-3.26233942012884E-016,-1.0));
#520=CARTESIAN_POINT('',(108.06465139038,7.44127493602896E-014,49.3323164824517));
#521=DIRECTION('',(-1.19895847429617E-017,1.0,-3.26233942012884E-016));
#522=DIRECTION('',(0.0,-3.26233942012884E-016,-1.0));
#523=CARTESIAN_POINT('',(0.0,2.54132810859239E-015,24.3874945699381));
#524=DIRECTION('',(0.0,0.0,-1.0));
#525=DIRECTION('',(1.0,3.25000945666128E-018,0.0));
#526=CARTESIAN_POINT('',(0.0,2.54132810859239E-015,0.577350269189598));
#527=DIRECTION('',(0.0,0.0,-1.0));
#528=DIRECTION('',(1.0,3.25000945666128E-018,0.0));
#529=DIRECTION('',(-0.0,-0.0,-1.0));
#530=DIRECTION('',(-0.866025403784439,8.48626677803886E-017,-0.5));
#531=CARTESIAN_POINT('',(13.2809521027864,3.39658321845939E-015,14.8338712481293));
#532=DIRECTION('',(-0.939692620785909,-1.22845103914193E-016,-0.342020143325668));
#533=DIRECTION('',(0.342020143325668,0.0,-0.939692620785909));
#534=SURFACE_STYLE_FILL_AREA(#590);
#535=ORIENTED_EDGE('',*,*,#152,.F.);
#536=ORIENTED_EDGE('',*,*,#104,.T.);
#537=ORIENTED_EDGE('',*,*,#92,.F.);
#538=ORIENTED_EDGE('',*,*,#156,.F.);
#539=ORIENTED_EDGE('',*,*,#154,.F.);
#540=ORIENTED_EDGE('',*,*,#136,.T.);
#541=CARTESIAN_POINT('',(1.07881802459828E-031,1.66037724529583E-015,9.99999999999993));
#542=DIRECTION('',(0.0,0.0,-1.0));
#543=DIRECTION('',(1.0,1.22460635382238E-016,0.0));
#544=SURFACE_STYLE_FILL_AREA(#591);
#545=ORIENTED_EDGE('',*,*,#134,.F.);
#546=ORIENTED_EDGE('',*,*,#96,.F.);
#547=ORIENTED_EDGE('',*,*,#162,.F.);
#548=ORIENTED_EDGE('',*,*,#164,.F.);
#549=CARTESIAN_POINT('',(-5.6766873893426E-014,9.84971389249691E-015,0.312528867513432));
#550=DIRECTION('',(-2.44921270764476E-016,-2.44921270764475E-016,-1.0));
#551=DIRECTION('',(-1.0,1.16935694398212E-016,2.44921270764475E-016));
#552=SURFACE_STYLE_FILL_AREA(#592);
#553=ORIENTED_EDGE('',*,*,#132,.T.);
#554=ORIENTED_EDGE('',*,*,#96,.T.);
#555=ORIENTED_EDGE('',*,*,#158,.T.);
#556=ORIENTED_EDGE('',*,*,#104,.F.);
#557=CARTESIAN_POINT('',(0.0,2.54132810859239E-015,12.193747284969));
#558=DIRECTION('',(-0.0,-0.0,1.0));
#559=DIRECTION('',(1.0,3.25000945666128E-018,0.0));
#560=SURFACE_STYLE_FILL_AREA(#593);
#561=ORIENTED_EDGE('',*,*,#110,.T.);
#562=ORIENTED_EDGE('',*,*,#114,.F.);
#563=ORIENTED_EDGE('',*,*,#106,.T.);
#564=ORIENTED_EDGE('',*,*,#98,.F.);
#565=CARTESIAN_POINT('',(60.5562419471563,7.52435076568794E-014,32.0406695677871));
#566=DIRECTION('',(0.939692620785909,1.22845103914187E-016,0.342020143325668));
#567=DIRECTION('',(-0.342020143325668,-3.89803031634134E-013,0.939692620785909));
#568=CARTESIAN_POINT('',(1.07881802459828E-031,1.66037724529583E-015,9.99999999999993));
#569=DIRECTION('',(-2.44921270764475E-016,1.0,0.0));
#570=DIRECTION('',(0.0,0.0,-1.0));
#571=CARTESIAN_POINT('',(1.07881802459828E-031,1.66037724529583E-015,9.99999999999993));
#572=DIRECTION('',(-2.44921270764475E-016,1.0,0.0));
#573=DIRECTION('',(0.0,0.0,-1.0));
#574=CARTESIAN_POINT('',(0.0,2.54132810859239E-015,-5.6843418860808E-014));
#575=DIRECTION('',(0.0,0.0,-1.0));
#576=DIRECTION('',(1.0,3.25000945666128E-018,0.0));
#577=DIRECTION('',(-0.0,-0.0,1.0));
#578=DIRECTION('',(-0.866025403784439,3.29783938544864E-016,0.5));
#579=CARTESIAN_POINT('',(-5.6843418860808E-014,9.77316892511493E-015,-5.44564393578639E-014));
#580=DIRECTION('',(0.0,0.0,1.0));
#581=DIRECTION('',(-1.0,1.16935694398212E-016,0.0));
#582=FILL_AREA_STYLE('',(#594));
#583=FILL_AREA_STYLE('',(#595));
#584=FILL_AREA_STYLE('',(#596));
#585=FILL_AREA_STYLE('',(#597));
#586=FILL_AREA_STYLE('',(#598));
#587=FILL_AREA_STYLE('',(#599));
#588=FILL_AREA_STYLE('',(#600));
#589=FILL_AREA_STYLE('',(#601));
#590=FILL_AREA_STYLE('',(#602));
#591=FILL_AREA_STYLE('',(#603));
#592=FILL_AREA_STYLE('',(#604));
#593=FILL_AREA_STYLE('',(#605));
#594=FILL_AREA_STYLE_COLOUR('',#606);
#595=FILL_AREA_STYLE_COLOUR('',#607);
#596=FILL_AREA_STYLE_COLOUR('',#608);
#597=FILL_AREA_STYLE_COLOUR('',#609);
#598=FILL_AREA_STYLE_COLOUR('',#610);
#599=FILL_AREA_STYLE_COLOUR('',#611);
#600=FILL_AREA_STYLE_COLOUR('',#612);
#601=FILL_AREA_STYLE_COLOUR('',#613);
#602=FILL_AREA_STYLE_COLOUR('',#614);
#603=FILL_AREA_STYLE_COLOUR('',#615);
#604=FILL_AREA_STYLE_COLOUR('',#616);
#605=FILL_AREA_STYLE_COLOUR('',#617);
#606=COLOUR_RGB('',0.509803950786591,0.509803950786591,0.588235318660736);
#607=COLOUR_RGB('',0.509803950786591,0.509803950786591,0.588235318660736);
#608=COLOUR_RGB('',0.509803950786591,0.509803950786591,0.588235318660736);
#609=COLOUR_RGB('',0.509803950786591,0.509803950786591,0.588235318660736);
#610=COLOUR_RGB('',0.509803950786591,0.509803950786591,0.588235318660736);
#611=COLOUR_RGB('',0.509803950786591,0.509803950786591,0.588235318660736);
#612=COLOUR_RGB('',0.509803950786591,0.509803950786591,0.588235318660736);
#613=COLOUR_RGB('',0.509803950786591,0.509803950786591,0.588235318660736);
#614=COLOUR_RGB('',0.509803950786591,0.509803950786591,0.588235318660736);
#615=COLOUR_RGB('',0.509803950786591,0.509803950786591,0.588235318660736);
#616=COLOUR_RGB('',0.509803950786591,0.509803950786591,0.588235318660736);
#617=COLOUR_RGB('',0.509803950786591,0.509803950786591,0.588235318660736);
ENDSEC;
END-ISO-10303-21;
