ISO-10303-21;
HEADER;
FILE_DESCRIPTION(('STEP AP214'),'1');
FILE_NAME('HALDERN_EH_24450_0036.stp','2017-05-09T08:15:13',('TraceParts'),('TraceParts S.A.'),'Spatial InterOp 3D',' ',' ');
FILE_SCHEMA(('automotive_design'));
ENDSEC;
DATA;
#1=MECHANICAL_DESIGN_GEOMETRIC_PRESENTATION_REPRESENTATION(' ',(#10,#11,#12,#13,#14,#15,#16,#17,#18,#19,#20,#21,#22,#23,#24),#6);
#2=PRODUCT_DEFINITION_CONTEXT('',#25,'design');
#3=APPLICATION_PROTOCOL_DEFINITION('INTERNATIONAL STANDARD','automotive_design',1994,#25);
#4=PRODUCT_CATEGORY_RELATIONSHIP('NONE','NONE',#26,#27);
#5=SHAPE_DEFINITION_REPRESENTATION(#28,#29);
#6= (GEOMETRIC_REPRESENTATION_CONTEXT(3)GLOBAL_UNCERTAINTY_ASSIGNED_CONTEXT((#32))GLOBAL_UNIT_ASSIGNED_CONTEXT((#34,#35,#36))REPRESENTATION_CONTEXT('NONE','WORKSPACE'));
#10=STYLED_ITEM('',(#38),#39);
#11=STYLED_ITEM('',(#40),#41);
#12=STYLED_ITEM('',(#42),#43);
#13=STYLED_ITEM('',(#44),#45);
#14=STYLED_ITEM('',(#46),#47);
#15=STYLED_ITEM('',(#48),#49);
#16=STYLED_ITEM('',(#50),#51);
#17=STYLED_ITEM('',(#52),#53);
#18=STYLED_ITEM('',(#54),#55);
#19=STYLED_ITEM('',(#56),#57);
#20=STYLED_ITEM('',(#58),#59);
#21=STYLED_ITEM('',(#60),#61);
#22=STYLED_ITEM('',(#62),#63);
#23=STYLED_ITEM('',(#64),#65);
#24=STYLED_ITEM('',(#66),#67);
#25=APPLICATION_CONTEXT(' ');
#26=PRODUCT_CATEGORY('part','NONE');
#27=PRODUCT_RELATED_PRODUCT_CATEGORY('detail',' ',(#68));
#28=PRODUCT_DEFINITION_SHAPE('NONE','NONE',#69);
#29=ADVANCED_BREP_SHAPE_REPRESENTATION('HALDERN_EH_24450_0036',(#67,#70),#6);
#32=UNCERTAINTY_MEASURE_WITH_UNIT(LENGTH_MEASURE(1.0E-006),#34,'','');
#34= (CONVERSION_BASED_UNIT('MILLIMETRE',#73)LENGTH_UNIT()NAMED_UNIT(#76));
#35= (NAMED_UNIT(#78)PLANE_ANGLE_UNIT()SI_UNIT($,.RADIAN.));
#36= (NAMED_UNIT(#78)SOLID_ANGLE_UNIT()SI_UNIT($,.STERADIAN.));
#38=PRESENTATION_STYLE_ASSIGNMENT((#84));
#39=ADVANCED_FACE('',(#85),#86,.F.);
#40=PRESENTATION_STYLE_ASSIGNMENT((#87));
#41=ADVANCED_FACE('',(#88),#89,.F.);
#42=PRESENTATION_STYLE_ASSIGNMENT((#90));
#43=ADVANCED_FACE('',(#91),#92,.T.);
#44=PRESENTATION_STYLE_ASSIGNMENT((#93));
#45=ADVANCED_FACE('',(#94),#95,.T.);
#46=PRESENTATION_STYLE_ASSIGNMENT((#96));
#47=ADVANCED_FACE('',(#97),#98,.F.);
#48=PRESENTATION_STYLE_ASSIGNMENT((#99));
#49=ADVANCED_FACE('',(#100),#101,.T.);
#50=PRESENTATION_STYLE_ASSIGNMENT((#102));
#51=ADVANCED_FACE('',(#103),#104,.T.);
#52=PRESENTATION_STYLE_ASSIGNMENT((#105));
#53=ADVANCED_FACE('',(#106),#107,.T.);
#54=PRESENTATION_STYLE_ASSIGNMENT((#108));
#55=ADVANCED_FACE('',(#109),#110,.T.);
#56=PRESENTATION_STYLE_ASSIGNMENT((#111));
#57=ADVANCED_FACE('',(#112,#113),#114,.T.);
#58=PRESENTATION_STYLE_ASSIGNMENT((#115));
#59=ADVANCED_FACE('',(#116),#117,.T.);
#60=PRESENTATION_STYLE_ASSIGNMENT((#118));
#61=ADVANCED_FACE('',(#119),#120,.F.);
#62=PRESENTATION_STYLE_ASSIGNMENT((#121));
#63=ADVANCED_FACE('',(#122),#123,.T.);
#64=PRESENTATION_STYLE_ASSIGNMENT((#124));
#65=ADVANCED_FACE('',(#125),#126,.T.);
#66=PRESENTATION_STYLE_ASSIGNMENT((#127));
#67=MANIFOLD_SOLID_BREP('HALDERN_EH_24450_0036',#128);
#68=PRODUCT('HALDERN_EH_24450_0036','HALDERN_EH_24450_0036','PART-HALDERN_EH_24450_0036-DESC',(#129));
#69=PRODUCT_DEFINITION('NONE','NONE',#130,#2);
#70=AXIS2_PLACEMENT_3D('',#131,#132,#133);
#73=LENGTH_MEASURE_WITH_UNIT(LENGTH_MEASURE(1.0),#134);
#76=DIMENSIONAL_EXPONENTS(1.0,0.0,0.0,0.0,0.0,0.0,0.0);
#78=DIMENSIONAL_EXPONENTS(0.0,0.0,0.0,0.0,0.0,0.0,0.0);
#84=SURFACE_STYLE_USAGE(.BOTH.,#135);
#85=FACE_OUTER_BOUND('',#136,.T.);
#86=TOROIDAL_SURFACE('',#137,49.9930216665148,41.0);
#87=SURFACE_STYLE_USAGE(.BOTH.,#138);
#88=FACE_OUTER_BOUND('',#139,.T.);
#89=TOROIDAL_SURFACE('',#140,49.9930216665148,41.0);
#90=SURFACE_STYLE_USAGE(.BOTH.,#141);
#91=FACE_OUTER_BOUND('',#142,.T.);
#92=SPHERICAL_SURFACE('',#143,7.00000000000005);
#93=SURFACE_STYLE_USAGE(.BOTH.,#144);
#94=FACE_OUTER_BOUND('',#145,.T.);
#95=TOROIDAL_SURFACE('',#146,-50.0,68.0000000000001);
#96=SURFACE_STYLE_USAGE(.BOTH.,#147);
#97=FACE_OUTER_BOUND('',#148,.T.);
#98=TOROIDAL_SURFACE('',#149,49.9930216665148,41.0);
#99=SURFACE_STYLE_USAGE(.BOTH.,#150);
#100=FACE_OUTER_BOUND('',#151,.T.);
#101=CYLINDRICAL_SURFACE('',#152,11.0);
#102=SURFACE_STYLE_USAGE(.BOTH.,#153);
#103=FACE_OUTER_BOUND('',#154,.T.);
#104=CYLINDRICAL_SURFACE('',#155,8.00000000000005);
#105=SURFACE_STYLE_USAGE(.BOTH.,#156);
#106=FACE_OUTER_BOUND('',#157,.T.);
#107=PLANE('',#158);
#108=SURFACE_STYLE_USAGE(.BOTH.,#159);
#109=FACE_OUTER_BOUND('',#160,.T.);
#110=CYLINDRICAL_SURFACE('',#161,8.00000000000005);
#111=SURFACE_STYLE_USAGE(.BOTH.,#162);
#112=FACE_OUTER_BOUND('',#163,.T.);
#113=FACE_BOUND('',#164,.T.);
#114=PLANE('',#165);
#115=SURFACE_STYLE_USAGE(.BOTH.,#166);
#116=FACE_OUTER_BOUND('',#167,.T.);
#117=CYLINDRICAL_SURFACE('',#168,11.0);
#118=SURFACE_STYLE_USAGE(.BOTH.,#169);
#119=FACE_OUTER_BOUND('',#170,.T.);
#120=TOROIDAL_SURFACE('',#171,49.9930216665148,41.0);
#121=SURFACE_STYLE_USAGE(.BOTH.,#172);
#122=FACE_OUTER_BOUND('',#173,.T.);
#123=TOROIDAL_SURFACE('',#174,-50.0,68.0000000000001);
#124=SURFACE_STYLE_USAGE(.BOTH.,#175);
#125=FACE_OUTER_BOUND('',#176,.T.);
#126=SPHERICAL_SURFACE('',#177,7.00000000000005);
#127=SURFACE_STYLE_USAGE(.BOTH.,#178);
#128=CLOSED_SHELL('',(#39,#41,#43,#45,#47,#49,#51,#53,#55,#57,#59,#61,#63,#65));
#129=PRODUCT_CONTEXT('',#25,'mechanical');
#130=PRODUCT_DEFINITION_FORMATION_WITH_SPECIFIED_SOURCE(' ','NONE',#68,.NOT_KNOWN.);
#131=CARTESIAN_POINT('',(0.0,0.0,0.0));
#132=DIRECTION('',(0.0,0.0,1.0));
#133=DIRECTION('',(1.0,0.0,0.0));
#134= (NAMED_UNIT(#76)LENGTH_UNIT()SI_UNIT(.MILLI.,.METRE.));
#135=SURFACE_SIDE_STYLE('',(#180));
#136=EDGE_LOOP('',(#181,#182,#183,#184));
#137=AXIS2_PLACEMENT_3D('',#185,#186,#187);
#138=SURFACE_SIDE_STYLE('',(#188));
#139=EDGE_LOOP('',(#189,#190,#191,#192));
#140=AXIS2_PLACEMENT_3D('',#193,#194,#195);
#141=SURFACE_SIDE_STYLE('',(#196));
#142=EDGE_LOOP('',(#197,#198,#199));
#143=AXIS2_PLACEMENT_3D('',#200,#201,#202);
#144=SURFACE_SIDE_STYLE('',(#203));
#145=EDGE_LOOP('',(#204,#205,#206,#207));
#146=AXIS2_PLACEMENT_3D('',#208,#209,#210);
#147=SURFACE_SIDE_STYLE('',(#211));
#148=EDGE_LOOP('',(#212,#213,#214,#215));
#149=AXIS2_PLACEMENT_3D('',#216,#217,#218);
#150=SURFACE_SIDE_STYLE('',(#219));
#151=EDGE_LOOP('',(#220,#221,#222,#223));
#152=AXIS2_PLACEMENT_3D('',#224,#225,#226);
#153=SURFACE_SIDE_STYLE('',(#227));
#154=EDGE_LOOP('',(#228,#229,#230,#231));
#155=AXIS2_PLACEMENT_3D('',#232,#233,#234);
#156=SURFACE_SIDE_STYLE('',(#235));
#157=EDGE_LOOP('',(#236,#237));
#158=AXIS2_PLACEMENT_3D('',#238,#239,#240);
#159=SURFACE_SIDE_STYLE('',(#241));
#160=EDGE_LOOP('',(#242,#243,#244,#245));
#161=AXIS2_PLACEMENT_3D('',#246,#247,#248);
#162=SURFACE_SIDE_STYLE('',(#249));
#163=EDGE_LOOP('',(#250,#251));
#164=EDGE_LOOP('',(#252,#253));
#165=AXIS2_PLACEMENT_3D('',#254,#255,#256);
#166=SURFACE_SIDE_STYLE('',(#257));
#167=EDGE_LOOP('',(#258,#259,#260,#261));
#168=AXIS2_PLACEMENT_3D('',#262,#263,#264);
#169=SURFACE_SIDE_STYLE('',(#265));
#170=EDGE_LOOP('',(#266,#267,#268,#269));
#171=AXIS2_PLACEMENT_3D('',#270,#271,#272);
#172=SURFACE_SIDE_STYLE('',(#273));
#173=EDGE_LOOP('',(#274,#275,#276,#277));
#174=AXIS2_PLACEMENT_3D('',#278,#279,#280);
#175=SURFACE_SIDE_STYLE('',(#281));
#176=EDGE_LOOP('',(#282,#283,#284));
#177=AXIS2_PLACEMENT_3D('',#285,#286,#287);
#178=SURFACE_SIDE_STYLE('',(#288));
#180=SURFACE_STYLE_FILL_AREA(#289);
#181=ORIENTED_EDGE('',*,*,#290,.F.);
#182=ORIENTED_EDGE('',*,*,#291,.T.);
#183=ORIENTED_EDGE('',*,*,#292,.F.);
#184=ORIENTED_EDGE('',*,*,#293,.T.);
#185=CARTESIAN_POINT('',(26.6706061936557,-5.6843418860808E-014,-5.15402429212889E-014));
#186=DIRECTION('',(1.0,0.0,0.0));
#187=DIRECTION('',(0.0,1.0,-1.22460635382238E-016));
#188=SURFACE_STYLE_FILL_AREA(#294);
#189=ORIENTED_EDGE('',*,*,#295,.F.);
#190=ORIENTED_EDGE('',*,*,#293,.F.);
#191=ORIENTED_EDGE('',*,*,#296,.F.);
#192=ORIENTED_EDGE('',*,*,#291,.F.);
#193=CARTESIAN_POINT('',(26.6706061936557,-5.6843418860808E-014,-5.15402429212889E-014));
#194=DIRECTION('',(1.0,0.0,0.0));
#195=DIRECTION('',(0.0,1.0,-1.22460635382238E-016));
#196=SURFACE_STYLE_FILL_AREA(#297);
#197=ORIENTED_EDGE('',*,*,#298,.F.);
#198=ORIENTED_EDGE('',*,*,#299,.F.);
#199=ORIENTED_EDGE('',*,*,#300,.T.);
#200=CARTESIAN_POINT('',(105.0,-7.41442559434345E-014,-4.35190713037523E-014));
#201=DIRECTION('',(1.0,0.0,0.0));
#202=DIRECTION('',(0.0,1.0,-1.22460635382238E-016));
#203=SURFACE_STYLE_FILL_AREA(#301);
#204=ORIENTED_EDGE('',*,*,#302,.F.);
#205=ORIENTED_EDGE('',*,*,#292,.T.);
#206=ORIENTED_EDGE('',*,*,#303,.F.);
#207=ORIENTED_EDGE('',*,*,#300,.F.);
#208=CARTESIAN_POINT('',(70.0571895806877,-5.6843418860808E-014,-5.15402429212889E-014));
#209=DIRECTION('',(1.0,0.0,0.0));
#210=DIRECTION('',(0.0,1.0,-1.22460635382238E-016));
#211=SURFACE_STYLE_FILL_AREA(#304);
#212=ORIENTED_EDGE('',*,*,#295,.T.);
#213=ORIENTED_EDGE('',*,*,#305,.F.);
#214=ORIENTED_EDGE('',*,*,#306,.T.);
#215=ORIENTED_EDGE('',*,*,#307,.F.);
#216=CARTESIAN_POINT('',(26.6706061936557,-5.6843418860808E-014,-5.15402429212889E-014));
#217=DIRECTION('',(1.0,0.0,0.0));
#218=DIRECTION('',(0.0,1.0,-1.22460635382238E-016));
#219=SURFACE_STYLE_FILL_AREA(#308);
#220=ORIENTED_EDGE('',*,*,#309,.F.);
#221=ORIENTED_EDGE('',*,*,#310,.T.);
#222=ORIENTED_EDGE('',*,*,#311,.F.);
#223=ORIENTED_EDGE('',*,*,#312,.F.);
#224=CARTESIAN_POINT('',(7.00000000000006,-5.6843418860808E-014,-5.15402429212889E-014));
#225=DIRECTION('',(1.0,0.0,-0.0));
#226=DIRECTION('',(0.0,1.0,1.02126888300822E-012));
#227=SURFACE_STYLE_FILL_AREA(#313);
#228=ORIENTED_EDGE('',*,*,#314,.F.);
#229=ORIENTED_EDGE('',*,*,#315,.T.);
#230=ORIENTED_EDGE('',*,*,#316,.F.);
#231=ORIENTED_EDGE('',*,*,#317,.F.);
#232=CARTESIAN_POINT('',(-12.9999999999999,-5.6843418860808E-014,-5.15402429212889E-014));
#233=DIRECTION('',(1.0,0.0,-0.0));
#234=DIRECTION('',(0.0,1.0,1.02126888300822E-012));
#235=SURFACE_STYLE_FILL_AREA(#318);
#236=ORIENTED_EDGE('',*,*,#315,.F.);
#237=ORIENTED_EDGE('',*,*,#319,.F.);
#238=CARTESIAN_POINT('',(-25.9999999999999,3.99999999999999,-5.20300854628178E-014));
#239=DIRECTION('',(-1.0,0.0,0.0));
#240=DIRECTION('',(0.0,-1.0,1.22460635382238E-016));
#241=SURFACE_STYLE_FILL_AREA(#320);
#242=ORIENTED_EDGE('',*,*,#314,.T.);
#243=ORIENTED_EDGE('',*,*,#321,.F.);
#244=ORIENTED_EDGE('',*,*,#316,.T.);
#245=ORIENTED_EDGE('',*,*,#319,.T.);
#246=CARTESIAN_POINT('',(-12.9999999999999,-5.6843418860808E-014,-5.15402429212889E-014));
#247=DIRECTION('',(1.0,0.0,-0.0));
#248=DIRECTION('',(0.0,1.0,1.02126888300822E-012));
#249=SURFACE_STYLE_FILL_AREA(#322);
#250=ORIENTED_EDGE('',*,*,#310,.F.);
#251=ORIENTED_EDGE('',*,*,#323,.F.);
#252=ORIENTED_EDGE('',*,*,#317,.T.);
#253=ORIENTED_EDGE('',*,*,#321,.T.);
#254=CARTESIAN_POINT('',(5.6843418860808E-014,9.49999999999999,-5.1111630697451E-014));
#255=DIRECTION('',(-1.0,0.0,0.0));
#256=DIRECTION('',(0.0,-1.0,1.22460635382238E-016));
#257=SURFACE_STYLE_FILL_AREA(#324);
#258=ORIENTED_EDGE('',*,*,#309,.T.);
#259=ORIENTED_EDGE('',*,*,#306,.F.);
#260=ORIENTED_EDGE('',*,*,#311,.T.);
#261=ORIENTED_EDGE('',*,*,#323,.T.);
#262=CARTESIAN_POINT('',(7.00000000000006,-5.6843418860808E-014,-5.15402429212889E-014));
#263=DIRECTION('',(1.0,0.0,-0.0));
#264=DIRECTION('',(0.0,1.0,1.02126888300822E-012));
#265=SURFACE_STYLE_FILL_AREA(#325);
#266=ORIENTED_EDGE('',*,*,#290,.T.);
#267=ORIENTED_EDGE('',*,*,#307,.T.);
#268=ORIENTED_EDGE('',*,*,#312,.T.);
#269=ORIENTED_EDGE('',*,*,#305,.T.);
#270=CARTESIAN_POINT('',(26.6706061936557,-5.6843418860808E-014,-5.15402429212889E-014));
#271=DIRECTION('',(1.0,0.0,0.0));
#272=DIRECTION('',(0.0,1.0,-1.22460635382238E-016));
#273=SURFACE_STYLE_FILL_AREA(#326);
#274=ORIENTED_EDGE('',*,*,#302,.T.);
#275=ORIENTED_EDGE('',*,*,#327,.F.);
#276=ORIENTED_EDGE('',*,*,#303,.T.);
#277=ORIENTED_EDGE('',*,*,#296,.T.);
#278=CARTESIAN_POINT('',(70.0571895806877,-5.6843418860808E-014,-5.15402429212889E-014));
#279=DIRECTION('',(1.0,0.0,0.0));
#280=DIRECTION('',(0.0,1.0,-1.22460635382238E-016));
#281=SURFACE_STYLE_FILL_AREA(#328);
#282=ORIENTED_EDGE('',*,*,#298,.T.);
#283=ORIENTED_EDGE('',*,*,#327,.T.);
#284=ORIENTED_EDGE('',*,*,#299,.T.);
#285=CARTESIAN_POINT('',(105.0,-7.41442559434345E-014,-4.35190713037523E-014));
#286=DIRECTION('',(1.0,0.0,0.0));
#287=DIRECTION('',(0.0,1.0,-1.22460635382238E-016));
#288=SURFACE_STYLE_FILL_AREA(#329);
#289=FILL_AREA_STYLE('',(#330));
#290=EDGE_CURVE('',#331,#332,#333,.T.);
#291=EDGE_CURVE('',#331,#334,#335,.T.);
#292=EDGE_CURVE('',#336,#334,#337,.T.);
#293=EDGE_CURVE('',#336,#332,#338,.T.);
#294=FILL_AREA_STYLE('',(#339));
#295=EDGE_CURVE('',#332,#331,#340,.T.);
#296=EDGE_CURVE('',#334,#336,#341,.T.);
#297=FILL_AREA_STYLE('',(#342));
#298=EDGE_CURVE('',#343,#344,#345,.T.);
#299=EDGE_CURVE('',#346,#343,#347,.T.);
#300=EDGE_CURVE('',#346,#344,#348,.T.);
#301=FILL_AREA_STYLE('',(#349));
#302=EDGE_CURVE('',#336,#346,#350,.T.);
#303=EDGE_CURVE('',#344,#334,#351,.T.);
#304=FILL_AREA_STYLE('',(#352));
#305=EDGE_CURVE('',#353,#331,#354,.T.);
#306=EDGE_CURVE('',#353,#355,#356,.T.);
#307=EDGE_CURVE('',#332,#355,#357,.T.);
#308=FILL_AREA_STYLE('',(#358));
#309=EDGE_CURVE('',#359,#355,#360,.T.);
#310=EDGE_CURVE('',#359,#361,#362,.T.);
#311=EDGE_CURVE('',#353,#361,#363,.T.);
#312=EDGE_CURVE('',#355,#353,#364,.T.);
#313=FILL_AREA_STYLE('',(#365));
#314=EDGE_CURVE('',#366,#367,#368,.T.);
#315=EDGE_CURVE('',#366,#369,#370,.T.);
#316=EDGE_CURVE('',#371,#369,#372,.T.);
#317=EDGE_CURVE('',#367,#371,#373,.T.);
#318=FILL_AREA_STYLE('',(#374));
#319=EDGE_CURVE('',#369,#366,#375,.T.);
#320=FILL_AREA_STYLE('',(#376));
#321=EDGE_CURVE('',#371,#367,#377,.T.);
#322=FILL_AREA_STYLE('',(#378));
#323=EDGE_CURVE('',#361,#359,#379,.T.);
#324=FILL_AREA_STYLE('',(#380));
#325=FILL_AREA_STYLE('',(#381));
#326=FILL_AREA_STYLE('',(#382));
#327=EDGE_CURVE('',#344,#346,#383,.T.);
#328=FILL_AREA_STYLE('',(#384));
#329=FILL_AREA_STYLE('',(#385));
#330=FILL_AREA_STYLE_COLOUR('',#386);
#331=VERTEX_POINT('',#387);
#332=VERTEX_POINT('',#388);
#333=CIRCLE('',#389,8.99302166651484);
#334=VERTEX_POINT('',#390);
#335=CIRCLE('',#391,41.0);
#336=VERTEX_POINT('',#392);
#337=CIRCLE('',#393,12.3809676451654);
#338=CIRCLE('',#394,41.0);
#339=FILL_AREA_STYLE_COLOUR('',#395);
#340=CIRCLE('',#396,8.99302166651484);
#341=CIRCLE('',#397,12.3809676451654);
#342=FILL_AREA_STYLE_COLOUR('',#398);
#343=VERTEX_POINT('',#399);
#344=VERTEX_POINT('',#400);
#345=CIRCLE('',#401,7.00000000000005);
#346=VERTEX_POINT('',#402);
#347=CIRCLE('',#403,7.00000000000005);
#348=CIRCLE('',#404,5.73770491803281);
#349=FILL_AREA_STYLE_COLOUR('',#405);
#350=CIRCLE('',#406,68.0000000000001);
#351=CIRCLE('',#407,68.0000000000001);
#352=FILL_AREA_STYLE_COLOUR('',#408);
#353=VERTEX_POINT('',#409);
#354=CIRCLE('',#410,41.0);
#355=VERTEX_POINT('',#411);
#356=CIRCLE('',#412,11.0);
#357=CIRCLE('',#413,41.0);
#358=FILL_AREA_STYLE_COLOUR('',#414);
#359=VERTEX_POINT('',#415);
#360=LINE('',#416,#417);
#361=VERTEX_POINT('',#418);
#362=CIRCLE('',#419,11.0000000000001);
#363=LINE('',#420,#421);
#364=CIRCLE('',#422,11.0);
#365=FILL_AREA_STYLE_COLOUR('',#423);
#366=VERTEX_POINT('',#424);
#367=VERTEX_POINT('',#425);
#368=LINE('',#426,#427);
#369=VERTEX_POINT('',#428);
#370=CIRCLE('',#429,8.00000000000005);
#371=VERTEX_POINT('',#430);
#372=LINE('',#431,#432);
#373=CIRCLE('',#433,8.00000000000005);
#374=FILL_AREA_STYLE_COLOUR('',#434);
#375=CIRCLE('',#435,8.00000000000005);
#376=FILL_AREA_STYLE_COLOUR('',#436);
#377=CIRCLE('',#437,8.00000000000005);
#378=FILL_AREA_STYLE_COLOUR('',#438);
#379=CIRCLE('',#439,11.0000000000001);
#380=FILL_AREA_STYLE_COLOUR('',#440);
#381=FILL_AREA_STYLE_COLOUR('',#441);
#382=FILL_AREA_STYLE_COLOUR('',#442);
#383=CIRCLE('',#443,5.73770491803281);
#384=FILL_AREA_STYLE_COLOUR('',#444);
#385=FILL_AREA_STYLE_COLOUR('',#445);
#386=COLOUR_RGB('',0.509803950786591,0.509803950786591,0.588235318660736);
#387=CARTESIAN_POINT('',(26.6706061936557,-8.9930216665149,-4.92166943080905E-014));
#388=CARTESIAN_POINT('',(26.6706061936557,8.99302166651479,-5.3812002377124E-014));
#389=AXIS2_PLACEMENT_3D('',#446,#447,#448);
#390=CARTESIAN_POINT('',(42.9903302199705,-12.3809676451654,-4.85078805923411E-014));
#391=AXIS2_PLACEMENT_3D('',#449,#450,#451);
#392=CARTESIAN_POINT('',(42.9903302199705,12.3809676451653,-4.88321242487787E-014));
#393=AXIS2_PLACEMENT_3D('',#452,#453,#454);
#394=AXIS2_PLACEMENT_3D('',#455,#456,#457);
#395=COLOUR_RGB('',0.509803950786591,0.509803950786591,0.588235318660736);
#396=AXIS2_PLACEMENT_3D('',#458,#459,#460);
#397=AXIS2_PLACEMENT_3D('',#461,#462,#463);
#398=COLOUR_RGB('',0.509803950786591,0.509803950786591,0.588235318660736);
#399=CARTESIAN_POINT('',(112.0,-5.6843418860808E-014,-4.30904590799145E-014));
#400=CARTESIAN_POINT('',(109.009830703856,-5.73770491803287,-5.01349569414927E-014));
#401=AXIS2_PLACEMENT_3D('',#464,#465,#466);
#402=CARTESIAN_POINT('',(109.009830703856,5.73770491803276,-4.39761910857657E-014));
#403=AXIS2_PLACEMENT_3D('',#467,#468,#469);
#404=AXIS2_PLACEMENT_3D('',#470,#471,#472);
#405=COLOUR_RGB('',0.509803950786591,0.509803950786591,0.588235318660736);
#406=AXIS2_PLACEMENT_3D('',#473,#474,#475);
#407=AXIS2_PLACEMENT_3D('',#476,#477,#478);
#408=COLOUR_RGB('',0.509803950786591,0.509803950786591,0.588235318660736);
#409=CARTESIAN_POINT('',(14.0,-11.0000000000001,-1.12841508890225E-011));
#410=AXIS2_PLACEMENT_3D('',#479,#480,#481);
#411=CARTESIAN_POINT('',(14.0,10.9999999999999,-5.04380972028487E-014));
#412=AXIS2_PLACEMENT_3D('',#482,#483,#484);
#413=AXIS2_PLACEMENT_3D('',#485,#486,#487);
#414=COLOUR_RGB('',0.509803950786591,0.509803950786591,0.588235318660736);
#415=CARTESIAN_POINT('',(5.6843418860808E-014,11.0,-5.12953216505244E-014));
#416=CARTESIAN_POINT('',(7.00000000000006,11.0,1.11810704031799E-011));
#417=VECTOR('',#488,1.0);
#418=CARTESIAN_POINT('',(5.6843418860808E-014,-11.0000000000001,-1.12841508890225E-011));
#419=AXIS2_PLACEMENT_3D('',#489,#490,#491);
#420=CARTESIAN_POINT('',(7.00000000000006,-11.0000000000001,-1.12841508890225E-011));
#421=VECTOR('',#492,1.0);
#422=AXIS2_PLACEMENT_3D('',#493,#494,#495);
#423=COLOUR_RGB('',0.509803950786591,0.509803950786591,0.588235318660736);
#424=CARTESIAN_POINT('',(-25.9999999999999,7.99999999999999,-5.25199280043468E-014));
#425=CARTESIAN_POINT('',(5.6843418860808E-014,7.99999999999999,-5.09279397443777E-014));
#426=CARTESIAN_POINT('',(-12.9999999999999,7.99999999999999,8.11763113606144E-012));
#427=VECTOR('',#496,1.0);
#428=CARTESIAN_POINT('',(-25.9999999999999,-8.00000000000011,-8.22071162190401E-012));
#429=AXIS2_PLACEMENT_3D('',#497,#498,#499);
#430=CARTESIAN_POINT('',(5.6843418860808E-014,-8.00000000000011,-8.22071162190401E-012));
#431=CARTESIAN_POINT('',(-12.9999999999999,-8.00000000000011,-8.22071162190401E-012));
#432=VECTOR('',#500,1.0);
#433=AXIS2_PLACEMENT_3D('',#501,#502,#503);
#434=COLOUR_RGB('',0.509803950786591,0.509803950786591,0.588235318660736);
#435=AXIS2_PLACEMENT_3D('',#504,#505,#506);
#436=COLOUR_RGB('',0.509803950786591,0.509803950786591,0.588235318660736);
#437=AXIS2_PLACEMENT_3D('',#507,#508,#509);
#438=COLOUR_RGB('',0.509803950786591,0.509803950786591,0.588235318660736);
#439=AXIS2_PLACEMENT_3D('',#510,#511,#512);
#440=COLOUR_RGB('',0.509803950786591,0.509803950786591,0.588235318660736);
#441=COLOUR_RGB('',0.509803950786591,0.509803950786591,0.588235318660736);
#442=COLOUR_RGB('',0.509803950786591,0.509803950786591,0.588235318660736);
#443=AXIS2_PLACEMENT_3D('',#513,#514,#515);
#444=COLOUR_RGB('',0.509803950786591,0.509803950786591,0.588235318660736);
#445=COLOUR_RGB('',0.509803950786591,0.509803950786591,0.588235318660736);
#446=CARTESIAN_POINT('',(26.6706061936557,-5.6843418860808E-014,-5.15402429212889E-014));
#447=DIRECTION('',(-1.0,0.0,0.0));
#448=DIRECTION('',(0.0,0.0,1.0));
#449=CARTESIAN_POINT('',(26.6706061936557,-49.9930216665149,-3.92958885253701E-014));
#450=DIRECTION('',(0.0,-2.44921270764475E-016,-1.0));
#451=DIRECTION('',(-0.0,-1.0,2.44921270764475E-016));
#452=CARTESIAN_POINT('',(42.9903302199705,-5.6843418860808E-014,-5.15402429212889E-014));
#453=DIRECTION('',(1.0,0.0,-0.0));
#454=DIRECTION('',(0.0,1.0,1.02126888300822E-012));
#455=CARTESIAN_POINT('',(26.6706061936557,49.9930216665148,-6.37845973172076E-014));
#456=DIRECTION('',(0.0,-2.44921270764475E-016,-1.0));
#457=DIRECTION('',(0.0,1.0,-2.44921270764475E-016));
#458=CARTESIAN_POINT('',(26.6706061936557,-5.6843418860808E-014,-5.15402429212889E-014));
#459=DIRECTION('',(-1.0,0.0,0.0));
#460=DIRECTION('',(0.0,0.0,1.0));
#461=CARTESIAN_POINT('',(42.9903302199705,-5.6843418860808E-014,-5.15402429212889E-014));
#462=DIRECTION('',(1.0,0.0,-0.0));
#463=DIRECTION('',(0.0,1.0,1.02126888300822E-012));
#464=CARTESIAN_POINT('',(105.0,-7.41442559434345E-014,-4.35190713037523E-014));
#465=DIRECTION('',(0.0,-2.44921270764476E-016,-1.0));
#466=DIRECTION('',(0.0,-1.0,2.44921270764476E-016));
#467=CARTESIAN_POINT('',(105.0,-7.41442559434345E-014,-4.35190713037523E-014));
#468=DIRECTION('',(0.0,-2.44921270764476E-016,-1.0));
#469=DIRECTION('',(0.0,-1.0,2.44921270764476E-016));
#470=CARTESIAN_POINT('',(109.009830703856,-5.6843418860808E-014,-5.15402429212889E-014));
#471=DIRECTION('',(1.0,0.0,-0.0));
#472=DIRECTION('',(0.0,1.0,1.02126888300822E-012));
#473=CARTESIAN_POINT('',(70.0571895806877,-50.0000000000001,-3.92941793830651E-014));
#474=DIRECTION('',(0.0,-2.44921270764476E-016,-1.0));
#475=DIRECTION('',(-0.0,1.0,-2.44921270764476E-016));
#476=CARTESIAN_POINT('',(70.0571895806877,50.0,-6.37863064595126E-014));
#477=DIRECTION('',(0.0,-2.44921270764476E-016,-1.0));
#478=DIRECTION('',(0.0,-1.0,2.44921270764476E-016));
#479=CARTESIAN_POINT('',(26.6706061936557,-49.9930216665149,-3.92958885253701E-014));
#480=DIRECTION('',(0.0,-2.44921270764475E-016,-1.0));
#481=DIRECTION('',(-0.0,-1.0,2.44921270764475E-016));
#482=CARTESIAN_POINT('',(14.0,-5.6843418860808E-014,-5.15402429212889E-014));
#483=DIRECTION('',(1.0,0.0,-0.0));
#484=DIRECTION('',(0.0,1.0,1.02126888300822E-012));
#485=CARTESIAN_POINT('',(26.6706061936557,49.9930216665148,-6.37845973172076E-014));
#486=DIRECTION('',(0.0,-2.44921270764475E-016,-1.0));
#487=DIRECTION('',(0.0,1.0,-2.44921270764475E-016));
#488=DIRECTION('',(1.0,0.0,0.0));
#489=CARTESIAN_POINT('',(5.6843418860808E-014,-5.6843418860808E-014,-5.15402429212889E-014));
#490=DIRECTION('',(1.0,0.0,-0.0));
#491=DIRECTION('',(0.0,1.0,1.02126888300822E-012));
#492=DIRECTION('',(-1.0,-0.0,-0.0));
#493=CARTESIAN_POINT('',(14.0,-5.6843418860808E-014,-5.15402429212889E-014));
#494=DIRECTION('',(1.0,0.0,-0.0));
#495=DIRECTION('',(0.0,1.0,1.02126888300822E-012));
#496=DIRECTION('',(1.0,0.0,0.0));
#497=CARTESIAN_POINT('',(-25.9999999999999,-5.6843418860808E-014,-5.15402429212889E-014));
#498=DIRECTION('',(1.0,0.0,-0.0));
#499=DIRECTION('',(0.0,1.0,1.02126888300822E-012));
#500=DIRECTION('',(-1.0,-0.0,-0.0));
#501=CARTESIAN_POINT('',(5.6843418860808E-014,-5.6843418860808E-014,-5.15402429212889E-014));
#502=DIRECTION('',(1.0,0.0,-0.0));
#503=DIRECTION('',(0.0,1.0,1.02126888300822E-012));
#504=CARTESIAN_POINT('',(-25.9999999999999,-5.6843418860808E-014,-5.15402429212889E-014));
#505=DIRECTION('',(1.0,0.0,-0.0));
#506=DIRECTION('',(0.0,1.0,1.02126888300822E-012));
#507=CARTESIAN_POINT('',(5.6843418860808E-014,-5.6843418860808E-014,-5.15402429212889E-014));
#508=DIRECTION('',(1.0,0.0,-0.0));
#509=DIRECTION('',(0.0,1.0,1.02126888300822E-012));
#510=CARTESIAN_POINT('',(5.6843418860808E-014,-5.6843418860808E-014,-5.15402429212889E-014));
#511=DIRECTION('',(1.0,0.0,-0.0));
#512=DIRECTION('',(0.0,1.0,1.02126888300822E-012));
#513=CARTESIAN_POINT('',(109.009830703856,-5.6843418860808E-014,-5.15402429212889E-014));
#514=DIRECTION('',(1.0,0.0,-0.0));
#515=DIRECTION('',(0.0,1.0,1.02126888300822E-012));
ENDSEC;
END-ISO-10303-21;
