ISO-10303-21;
HEADER;
FILE_DESCRIPTION(('STEP AP214'),'1');
FILE_NAME('C:/Temp/output/halder/CAD/Temp/HALDERN_EH_23231_0023.stp','2015-05-04T09:25:08',('TraceParts'),('TraceParts S.A.'),'Spatial InterOp 3D',' ',' ');
FILE_SCHEMA(('automotive_design'));
ENDSEC;
DATA;
#1=MECHANICAL_DESIGN_GEOMETRIC_PRESENTATION_REPRESENTATION(' ',(#10,#11,#12,#13,#14,#15,#16,#17,#18,#19,#20,#21,#22,#23,#24,#25),#6);
#2=PRODUCT_DEFINITION_CONTEXT('',#26,'design');
#3=APPLICATION_PROTOCOL_DEFINITION('INTERNATIONAL STANDARD','automotive_design',1994,#26);
#4=PRODUCT_CATEGORY_RELATIONSHIP('NONE','NONE',#27,#28);
#5=SHAPE_DEFINITION_REPRESENTATION(#29,#30);
#6= (GEOMETRIC_REPRESENTATION_CONTEXT(3)GLOBAL_UNCERTAINTY_ASSIGNED_CONTEXT((#33))GLOBAL_UNIT_ASSIGNED_CONTEXT((#35,#36,#37))REPRESENTATION_CONTEXT('NONE','WORKSPACE'));
#10=STYLED_ITEM('',(#39),#40);
#11=STYLED_ITEM('',(#41),#42);
#12=STYLED_ITEM('',(#43),#44);
#13=STYLED_ITEM('',(#45),#46);
#14=STYLED_ITEM('',(#47),#48);
#15=STYLED_ITEM('',(#49),#50);
#16=STYLED_ITEM('',(#51),#52);
#17=STYLED_ITEM('',(#53),#54);
#18=STYLED_ITEM('',(#55),#56);
#19=STYLED_ITEM('',(#57),#58);
#20=STYLED_ITEM('',(#59),#60);
#21=STYLED_ITEM('',(#61),#62);
#22=STYLED_ITEM('',(#63),#64);
#23=STYLED_ITEM('',(#65),#66);
#24=STYLED_ITEM('',(#67),#68);
#25=STYLED_ITEM('',(#69),#70);
#26=APPLICATION_CONTEXT(' ');
#27=PRODUCT_CATEGORY('part','NONE');
#28=PRODUCT_RELATED_PRODUCT_CATEGORY('detail',' ',(#71));
#29=PRODUCT_DEFINITION_SHAPE('NONE','NONE',#72);
#30=ADVANCED_BREP_SHAPE_REPRESENTATION('1',(#73,#74),#6);
#33=UNCERTAINTY_MEASURE_WITH_UNIT(LENGTH_MEASURE(1.0E-006),#35,'','');
#35= (CONVERSION_BASED_UNIT('MILLIMETRE',#77)LENGTH_UNIT()NAMED_UNIT(#80));
#36= (NAMED_UNIT(#82)PLANE_ANGLE_UNIT()SI_UNIT($,.RADIAN.));
#37= (NAMED_UNIT(#82)SOLID_ANGLE_UNIT()SI_UNIT($,.STERADIAN.));
#39=PRESENTATION_STYLE_ASSIGNMENT((#88));
#40=ADVANCED_FACE('',(#89),#90,.F.);
#41=PRESENTATION_STYLE_ASSIGNMENT((#91));
#42=ADVANCED_FACE('',(#92,#93),#94,.F.);
#43=PRESENTATION_STYLE_ASSIGNMENT((#95));
#44=ADVANCED_FACE('',(#96),#97,.F.);
#45=PRESENTATION_STYLE_ASSIGNMENT((#98));
#46=ADVANCED_FACE('',(#99),#100,.F.);
#47=PRESENTATION_STYLE_ASSIGNMENT((#101));
#48=ADVANCED_FACE('',(#102),#103,.F.);
#49=PRESENTATION_STYLE_ASSIGNMENT((#104));
#50=ADVANCED_FACE('',(#105),#106,.F.);
#51=PRESENTATION_STYLE_ASSIGNMENT((#107));
#52=ADVANCED_FACE('',(#108),#109,.F.);
#53=PRESENTATION_STYLE_ASSIGNMENT((#110));
#54=ADVANCED_FACE('',(#111),#112,.F.);
#55=PRESENTATION_STYLE_ASSIGNMENT((#113));
#56=ADVANCED_FACE('',(#114),#115,.F.);
#57=PRESENTATION_STYLE_ASSIGNMENT((#116));
#58=ADVANCED_FACE('',(#117,#118,#119),#120,.F.);
#59=PRESENTATION_STYLE_ASSIGNMENT((#121));
#60=ADVANCED_FACE('',(#122),#123,.F.);
#61=PRESENTATION_STYLE_ASSIGNMENT((#124));
#62=ADVANCED_FACE('',(#125),#126,.F.);
#63=PRESENTATION_STYLE_ASSIGNMENT((#127));
#64=ADVANCED_FACE('',(#128),#129,.F.);
#65=PRESENTATION_STYLE_ASSIGNMENT((#130));
#66=ADVANCED_FACE('',(#131,#132),#133,.F.);
#67=PRESENTATION_STYLE_ASSIGNMENT((#134));
#68=ADVANCED_FACE('',(#135,#136,#137),#138,.T.);
#69=PRESENTATION_STYLE_ASSIGNMENT((#139));
#70=ADVANCED_FACE('',(#140),#141,.F.);
#71=PRODUCT('1','1','PART-1-DESC',(#142));
#72=PRODUCT_DEFINITION('NONE','NONE',#143,#2);
#73=MANIFOLD_SOLID_BREP('1',#144);
#74=AXIS2_PLACEMENT_3D('',#145,#146,#147);
#77=LENGTH_MEASURE_WITH_UNIT(LENGTH_MEASURE(1.0),#148);
#80=DIMENSIONAL_EXPONENTS(1.0,0.0,0.0,0.0,0.0,0.0,0.0);
#82=DIMENSIONAL_EXPONENTS(0.0,0.0,0.0,0.0,0.0,0.0,0.0);
#88=SURFACE_STYLE_USAGE(.BOTH.,#149);
#89=FACE_OUTER_BOUND('',#150,.T.);
#90=CYLINDRICAL_SURFACE('',#151,5.25);
#91=SURFACE_STYLE_USAGE(.BOTH.,#152);
#92=FACE_OUTER_BOUND('',#153,.T.);
#93=FACE_BOUND('',#154,.T.);
#94=PLANE('',#155);
#95=SURFACE_STYLE_USAGE(.BOTH.,#156);
#96=FACE_OUTER_BOUND('',#157,.T.);
#97=CYLINDRICAL_SURFACE('',#158,3.3);
#98=SURFACE_STYLE_USAGE(.BOTH.,#159);
#99=FACE_OUTER_BOUND('',#160,.T.);
#100=CYLINDRICAL_SURFACE('',#161,5.25);
#101=SURFACE_STYLE_USAGE(.BOTH.,#162);
#102=FACE_OUTER_BOUND('',#163,.T.);
#103=PLANE('',#164);
#104=SURFACE_STYLE_USAGE(.BOTH.,#165);
#105=FACE_OUTER_BOUND('',#166,.T.);
#106=CYLINDRICAL_SURFACE('',#167,3.3);
#107=SURFACE_STYLE_USAGE(.BOTH.,#168);
#108=FACE_OUTER_BOUND('',#169,.T.);
#109=CYLINDRICAL_SURFACE('',#170,5.25);
#110=SURFACE_STYLE_USAGE(.BOTH.,#171);
#111=FACE_OUTER_BOUND('',#172,.T.);
#112=CYLINDRICAL_SURFACE('',#173,3.3);
#113=SURFACE_STYLE_USAGE(.BOTH.,#174);
#114=FACE_OUTER_BOUND('',#175,.T.);
#115=CYLINDRICAL_SURFACE('',#176,5.25);
#116=SURFACE_STYLE_USAGE(.BOTH.,#177);
#117=FACE_BOUND('',#178,.T.);
#118=FACE_BOUND('',#179,.T.);
#119=FACE_OUTER_BOUND('',#180,.T.);
#120=PLANE('',#181);
#121=SURFACE_STYLE_USAGE(.BOTH.,#182);
#122=FACE_OUTER_BOUND('',#183,.T.);
#123=PLANE('',#184);
#124=SURFACE_STYLE_USAGE(.BOTH.,#185);
#125=FACE_OUTER_BOUND('',#186,.T.);
#126=PLANE('',#187);
#127=SURFACE_STYLE_USAGE(.BOTH.,#188);
#128=FACE_OUTER_BOUND('',#189,.T.);
#129=PLANE('',#190);
#130=SURFACE_STYLE_USAGE(.BOTH.,#191);
#131=FACE_OUTER_BOUND('',#192,.T.);
#132=FACE_BOUND('',#193,.T.);
#133=PLANE('',#194);
#134=SURFACE_STYLE_USAGE(.BOTH.,#195);
#135=FACE_BOUND('',#196,.T.);
#136=FACE_BOUND('',#197,.T.);
#137=FACE_OUTER_BOUND('',#198,.T.);
#138=PLANE('',#199);
#139=SURFACE_STYLE_USAGE(.BOTH.,#200);
#140=FACE_OUTER_BOUND('',#201,.T.);
#141=CYLINDRICAL_SURFACE('',#202,3.3);
#142=PRODUCT_CONTEXT('',#26,'mechanical');
#143=PRODUCT_DEFINITION_FORMATION_WITH_SPECIFIED_SOURCE(' ','NONE',#71,.NOT_KNOWN.);
#144=CLOSED_SHELL('',(#54,#56,#50,#52,#66,#46,#44,#42,#40,#70,#68,#58,#60,#62,#48,#64));
#145=CARTESIAN_POINT('',(0.0,0.0,0.0));
#146=DIRECTION('',(0.0,0.0,1.0));
#147=DIRECTION('',(1.0,0.0,0.0));
#148= (NAMED_UNIT(#80)LENGTH_UNIT()SI_UNIT(.MILLI.,.METRE.));
#149=SURFACE_SIDE_STYLE('',(#204));
#150=EDGE_LOOP('',(#205,#206,#207,#208));
#151=AXIS2_PLACEMENT_3D('',#209,#210,#211);
#152=SURFACE_SIDE_STYLE('',(#212));
#153=EDGE_LOOP('',(#213,#214));
#154=EDGE_LOOP('',(#215,#216));
#155=AXIS2_PLACEMENT_3D('',#217,#218,#219);
#156=SURFACE_SIDE_STYLE('',(#220));
#157=EDGE_LOOP('',(#221,#222,#223,#224));
#158=AXIS2_PLACEMENT_3D('',#225,#226,#227);
#159=SURFACE_SIDE_STYLE('',(#228));
#160=EDGE_LOOP('',(#229,#230,#231,#232));
#161=AXIS2_PLACEMENT_3D('',#233,#234,#235);
#162=SURFACE_SIDE_STYLE('',(#236));
#163=EDGE_LOOP('',(#237,#238,#239,#240));
#164=AXIS2_PLACEMENT_3D('',#241,#242,#243);
#165=SURFACE_SIDE_STYLE('',(#244));
#166=EDGE_LOOP('',(#245,#246,#247,#248));
#167=AXIS2_PLACEMENT_3D('',#249,#250,#251);
#168=SURFACE_SIDE_STYLE('',(#252));
#169=EDGE_LOOP('',(#253,#254,#255,#256));
#170=AXIS2_PLACEMENT_3D('',#257,#258,#259);
#171=SURFACE_SIDE_STYLE('',(#260));
#172=EDGE_LOOP('',(#261,#262,#263,#264));
#173=AXIS2_PLACEMENT_3D('',#265,#266,#267);
#174=SURFACE_SIDE_STYLE('',(#268));
#175=EDGE_LOOP('',(#269,#270,#271,#272));
#176=AXIS2_PLACEMENT_3D('',#273,#274,#275);
#177=SURFACE_SIDE_STYLE('',(#276));
#178=EDGE_LOOP('',(#277,#278));
#179=EDGE_LOOP('',(#279,#280));
#180=EDGE_LOOP('',(#281,#282,#283,#284));
#181=AXIS2_PLACEMENT_3D('',#285,#286,#287);
#182=SURFACE_SIDE_STYLE('',(#288));
#183=EDGE_LOOP('',(#289,#290,#291,#292));
#184=AXIS2_PLACEMENT_3D('',#293,#294,#295);
#185=SURFACE_SIDE_STYLE('',(#296));
#186=EDGE_LOOP('',(#297,#298,#299,#300));
#187=AXIS2_PLACEMENT_3D('',#301,#302,#303);
#188=SURFACE_SIDE_STYLE('',(#304));
#189=EDGE_LOOP('',(#305,#306,#307,#308));
#190=AXIS2_PLACEMENT_3D('',#309,#310,#311);
#191=SURFACE_SIDE_STYLE('',(#312));
#192=EDGE_LOOP('',(#313,#314));
#193=EDGE_LOOP('',(#315,#316));
#194=AXIS2_PLACEMENT_3D('',#317,#318,#319);
#195=SURFACE_SIDE_STYLE('',(#320));
#196=EDGE_LOOP('',(#321,#322));
#197=EDGE_LOOP('',(#323,#324));
#198=EDGE_LOOP('',(#325,#326,#327,#328));
#199=AXIS2_PLACEMENT_3D('',#329,#330,#331);
#200=SURFACE_SIDE_STYLE('',(#332));
#201=EDGE_LOOP('',(#333,#334,#335,#336));
#202=AXIS2_PLACEMENT_3D('',#337,#338,#339);
#204=SURFACE_STYLE_FILL_AREA(#340);
#205=ORIENTED_EDGE('',*,*,#341,.T.);
#206=ORIENTED_EDGE('',*,*,#342,.F.);
#207=ORIENTED_EDGE('',*,*,#343,.T.);
#208=ORIENTED_EDGE('',*,*,#344,.T.);
#209=CARTESIAN_POINT('',(0.0,0.0,12.0));
#210=DIRECTION('',(0.0,0.0,-1.0));
#211=DIRECTION('',(1.0,0.0,0.0));
#212=SURFACE_STYLE_FILL_AREA(#345);
#213=ORIENTED_EDGE('',*,*,#346,.F.);
#214=ORIENTED_EDGE('',*,*,#344,.F.);
#215=ORIENTED_EDGE('',*,*,#347,.T.);
#216=ORIENTED_EDGE('',*,*,#348,.T.);
#217=CARTESIAN_POINT('',(0.0,0.0,4.0));
#218=DIRECTION('',(0.0,0.0,-1.0));
#219=DIRECTION('',(1.0,0.0,0.0));
#220=SURFACE_STYLE_FILL_AREA(#349);
#221=ORIENTED_EDGE('',*,*,#350,.T.);
#222=ORIENTED_EDGE('',*,*,#351,.F.);
#223=ORIENTED_EDGE('',*,*,#352,.T.);
#224=ORIENTED_EDGE('',*,*,#353,.F.);
#225=CARTESIAN_POINT('',(65.0,0.0,10.0));
#226=DIRECTION('',(0.0,0.0,-1.0));
#227=DIRECTION('',(1.0,0.0,0.0));
#228=SURFACE_STYLE_FILL_AREA(#354);
#229=ORIENTED_EDGE('',*,*,#355,.T.);
#230=ORIENTED_EDGE('',*,*,#356,.F.);
#231=ORIENTED_EDGE('',*,*,#357,.T.);
#232=ORIENTED_EDGE('',*,*,#358,.T.);
#233=CARTESIAN_POINT('',(65.0,0.0,12.0));
#234=DIRECTION('',(0.0,0.0,-1.0));
#235=DIRECTION('',(1.0,0.0,0.0));
#236=SURFACE_STYLE_FILL_AREA(#359);
#237=ORIENTED_EDGE('',*,*,#360,.T.);
#238=ORIENTED_EDGE('',*,*,#361,.F.);
#239=ORIENTED_EDGE('',*,*,#362,.F.);
#240=ORIENTED_EDGE('',*,*,#363,.F.);
#241=CARTESIAN_POINT('',(32.5,25.0,10.0));
#242=DIRECTION('',(0.0,-1.0,0.0));
#243=DIRECTION('',(0.0,0.0,-1.0));
#244=SURFACE_STYLE_FILL_AREA(#364);
#245=ORIENTED_EDGE('',*,*,#350,.F.);
#246=ORIENTED_EDGE('',*,*,#365,.F.);
#247=ORIENTED_EDGE('',*,*,#352,.F.);
#248=ORIENTED_EDGE('',*,*,#366,.F.);
#249=CARTESIAN_POINT('',(65.0,0.0,10.0));
#250=DIRECTION('',(0.0,0.0,-1.0));
#251=DIRECTION('',(1.0,0.0,0.0));
#252=SURFACE_STYLE_FILL_AREA(#367);
#253=ORIENTED_EDGE('',*,*,#355,.F.);
#254=ORIENTED_EDGE('',*,*,#368,.T.);
#255=ORIENTED_EDGE('',*,*,#357,.F.);
#256=ORIENTED_EDGE('',*,*,#369,.F.);
#257=CARTESIAN_POINT('',(65.0,0.0,12.0));
#258=DIRECTION('',(0.0,0.0,-1.0));
#259=DIRECTION('',(1.0,0.0,0.0));
#260=SURFACE_STYLE_FILL_AREA(#370);
#261=ORIENTED_EDGE('',*,*,#371,.F.);
#262=ORIENTED_EDGE('',*,*,#372,.F.);
#263=ORIENTED_EDGE('',*,*,#373,.F.);
#264=ORIENTED_EDGE('',*,*,#348,.F.);
#265=CARTESIAN_POINT('',(0.0,0.0,10.0));
#266=DIRECTION('',(0.0,0.0,-1.0));
#267=DIRECTION('',(1.0,0.0,0.0));
#268=SURFACE_STYLE_FILL_AREA(#374);
#269=ORIENTED_EDGE('',*,*,#341,.F.);
#270=ORIENTED_EDGE('',*,*,#346,.T.);
#271=ORIENTED_EDGE('',*,*,#343,.F.);
#272=ORIENTED_EDGE('',*,*,#375,.F.);
#273=CARTESIAN_POINT('',(0.0,0.0,12.0));
#274=DIRECTION('',(0.0,0.0,-1.0));
#275=DIRECTION('',(1.0,0.0,0.0));
#276=SURFACE_STYLE_FILL_AREA(#376);
#277=ORIENTED_EDGE('',*,*,#353,.T.);
#278=ORIENTED_EDGE('',*,*,#365,.T.);
#279=ORIENTED_EDGE('',*,*,#377,.T.);
#280=ORIENTED_EDGE('',*,*,#372,.T.);
#281=ORIENTED_EDGE('',*,*,#378,.T.);
#282=ORIENTED_EDGE('',*,*,#379,.T.);
#283=ORIENTED_EDGE('',*,*,#380,.T.);
#284=ORIENTED_EDGE('',*,*,#361,.T.);
#285=CARTESIAN_POINT('',(32.5,7.0,0.0));
#286=DIRECTION('',(0.0,0.0,1.0));
#287=DIRECTION('',(1.0,0.0,0.0));
#288=SURFACE_STYLE_FILL_AREA(#381);
#289=ORIENTED_EDGE('',*,*,#382,.T.);
#290=ORIENTED_EDGE('',*,*,#379,.F.);
#291=ORIENTED_EDGE('',*,*,#383,.F.);
#292=ORIENTED_EDGE('',*,*,#384,.F.);
#293=CARTESIAN_POINT('',(32.5,-11.0,10.0));
#294=DIRECTION('',(0.0,1.0,0.0));
#295=DIRECTION('',(0.0,0.0,1.0));
#296=SURFACE_STYLE_FILL_AREA(#385);
#297=ORIENTED_EDGE('',*,*,#362,.T.);
#298=ORIENTED_EDGE('',*,*,#380,.F.);
#299=ORIENTED_EDGE('',*,*,#382,.F.);
#300=ORIENTED_EDGE('',*,*,#386,.F.);
#301=CARTESIAN_POINT('',(-17.5,7.0,10.0));
#302=DIRECTION('',(1.0,0.0,0.0));
#303=DIRECTION('',(0.0,0.0,-1.0));
#304=SURFACE_STYLE_FILL_AREA(#387);
#305=ORIENTED_EDGE('',*,*,#383,.T.);
#306=ORIENTED_EDGE('',*,*,#378,.F.);
#307=ORIENTED_EDGE('',*,*,#360,.F.);
#308=ORIENTED_EDGE('',*,*,#388,.F.);
#309=CARTESIAN_POINT('',(82.5,7.0,10.0));
#310=DIRECTION('',(-1.0,0.0,0.0));
#311=DIRECTION('',(0.0,0.0,1.0));
#312=SURFACE_STYLE_FILL_AREA(#389);
#313=ORIENTED_EDGE('',*,*,#368,.F.);
#314=ORIENTED_EDGE('',*,*,#358,.F.);
#315=ORIENTED_EDGE('',*,*,#351,.T.);
#316=ORIENTED_EDGE('',*,*,#366,.T.);
#317=CARTESIAN_POINT('',(65.0,0.0,4.0));
#318=DIRECTION('',(0.0,0.0,-1.0));
#319=DIRECTION('',(1.0,0.0,0.0));
#320=SURFACE_STYLE_FILL_AREA(#390);
#321=ORIENTED_EDGE('',*,*,#369,.T.);
#322=ORIENTED_EDGE('',*,*,#356,.T.);
#323=ORIENTED_EDGE('',*,*,#375,.T.);
#324=ORIENTED_EDGE('',*,*,#342,.T.);
#325=ORIENTED_EDGE('',*,*,#388,.T.);
#326=ORIENTED_EDGE('',*,*,#363,.T.);
#327=ORIENTED_EDGE('',*,*,#386,.T.);
#328=ORIENTED_EDGE('',*,*,#384,.T.);
#329=CARTESIAN_POINT('',(32.5,7.0,20.0));
#330=DIRECTION('',(0.0,0.0,1.0));
#331=DIRECTION('',(1.0,0.0,0.0));
#332=SURFACE_STYLE_FILL_AREA(#391);
#333=ORIENTED_EDGE('',*,*,#371,.T.);
#334=ORIENTED_EDGE('',*,*,#347,.F.);
#335=ORIENTED_EDGE('',*,*,#373,.T.);
#336=ORIENTED_EDGE('',*,*,#377,.F.);
#337=CARTESIAN_POINT('',(0.0,0.0,10.0));
#338=DIRECTION('',(0.0,0.0,-1.0));
#339=DIRECTION('',(1.0,0.0,0.0));
#340=FILL_AREA_STYLE('',(#392));
#341=EDGE_CURVE('',#393,#394,#395,.T.);
#342=EDGE_CURVE('',#396,#394,#397,.T.);
#343=EDGE_CURVE('',#396,#398,#399,.T.);
#344=EDGE_CURVE('',#398,#393,#400,.T.);
#345=FILL_AREA_STYLE('',(#401));
#346=EDGE_CURVE('',#393,#398,#402,.T.);
#347=EDGE_CURVE('',#403,#404,#405,.T.);
#348=EDGE_CURVE('',#404,#403,#406,.T.);
#349=FILL_AREA_STYLE('',(#407));
#350=EDGE_CURVE('',#408,#409,#410,.T.);
#351=EDGE_CURVE('',#411,#409,#412,.T.);
#352=EDGE_CURVE('',#411,#413,#414,.T.);
#353=EDGE_CURVE('',#408,#413,#415,.T.);
#354=FILL_AREA_STYLE('',(#416));
#355=EDGE_CURVE('',#417,#418,#419,.T.);
#356=EDGE_CURVE('',#420,#418,#421,.T.);
#357=EDGE_CURVE('',#420,#422,#423,.T.);
#358=EDGE_CURVE('',#422,#417,#424,.T.);
#359=FILL_AREA_STYLE('',(#425));
#360=EDGE_CURVE('',#426,#427,#428,.T.);
#361=EDGE_CURVE('',#429,#427,#430,.T.);
#362=EDGE_CURVE('',#431,#429,#432,.T.);
#363=EDGE_CURVE('',#426,#431,#433,.T.);
#364=FILL_AREA_STYLE('',(#434));
#365=EDGE_CURVE('',#413,#408,#435,.T.);
#366=EDGE_CURVE('',#409,#411,#436,.T.);
#367=FILL_AREA_STYLE('',(#437));
#368=EDGE_CURVE('',#417,#422,#438,.T.);
#369=EDGE_CURVE('',#418,#420,#439,.T.);
#370=FILL_AREA_STYLE('',(#440));
#371=EDGE_CURVE('',#441,#404,#442,.T.);
#372=EDGE_CURVE('',#443,#441,#444,.T.);
#373=EDGE_CURVE('',#403,#443,#445,.T.);
#374=FILL_AREA_STYLE('',(#446));
#375=EDGE_CURVE('',#394,#396,#447,.T.);
#376=FILL_AREA_STYLE('',(#448));
#377=EDGE_CURVE('',#441,#443,#449,.T.);
#378=EDGE_CURVE('',#427,#450,#451,.T.);
#379=EDGE_CURVE('',#450,#452,#453,.T.);
#380=EDGE_CURVE('',#452,#429,#454,.T.);
#381=FILL_AREA_STYLE('',(#455));
#382=EDGE_CURVE('',#456,#452,#457,.T.);
#383=EDGE_CURVE('',#458,#450,#459,.T.);
#384=EDGE_CURVE('',#456,#458,#460,.T.);
#385=FILL_AREA_STYLE('',(#461));
#386=EDGE_CURVE('',#431,#456,#462,.T.);
#387=FILL_AREA_STYLE('',(#463));
#388=EDGE_CURVE('',#458,#426,#464,.T.);
#389=FILL_AREA_STYLE('',(#465));
#390=FILL_AREA_STYLE('',(#466));
#391=FILL_AREA_STYLE('',(#467));
#392=FILL_AREA_STYLE_COLOUR('',#468);
#393=VERTEX_POINT('',#469);
#394=VERTEX_POINT('',#470);
#395=LINE('',#471,#472);
#396=VERTEX_POINT('',#473);
#397=CIRCLE('',#474,5.25);
#398=VERTEX_POINT('',#475);
#399=LINE('',#476,#477);
#400=CIRCLE('',#478,5.25);
#401=FILL_AREA_STYLE_COLOUR('',#479);
#402=CIRCLE('',#480,5.25);
#403=VERTEX_POINT('',#481);
#404=VERTEX_POINT('',#482);
#405=CIRCLE('',#483,3.3);
#406=CIRCLE('',#484,3.3);
#407=FILL_AREA_STYLE_COLOUR('',#485);
#408=VERTEX_POINT('',#486);
#409=VERTEX_POINT('',#487);
#410=LINE('',#488,#489);
#411=VERTEX_POINT('',#490);
#412=CIRCLE('',#491,3.3);
#413=VERTEX_POINT('',#492);
#414=LINE('',#493,#494);
#415=CIRCLE('',#495,3.3);
#416=FILL_AREA_STYLE_COLOUR('',#496);
#417=VERTEX_POINT('',#497);
#418=VERTEX_POINT('',#498);
#419=LINE('',#499,#500);
#420=VERTEX_POINT('',#501);
#421=CIRCLE('',#502,5.25);
#422=VERTEX_POINT('',#503);
#423=LINE('',#504,#505);
#424=CIRCLE('',#506,5.25);
#425=FILL_AREA_STYLE_COLOUR('',#507);
#426=VERTEX_POINT('',#508);
#427=VERTEX_POINT('',#509);
#428=LINE('',#510,#511);
#429=VERTEX_POINT('',#512);
#430=LINE('',#513,#514);
#431=VERTEX_POINT('',#515);
#432=LINE('',#516,#517);
#433=LINE('',#518,#519);
#434=FILL_AREA_STYLE_COLOUR('',#520);
#435=CIRCLE('',#521,3.3);
#436=CIRCLE('',#522,3.3);
#437=FILL_AREA_STYLE_COLOUR('',#523);
#438=CIRCLE('',#524,5.25);
#439=CIRCLE('',#525,5.25);
#440=FILL_AREA_STYLE_COLOUR('',#526);
#441=VERTEX_POINT('',#527);
#442=LINE('',#528,#529);
#443=VERTEX_POINT('',#530);
#444=CIRCLE('',#531,3.3);
#445=LINE('',#532,#533);
#446=FILL_AREA_STYLE_COLOUR('',#534);
#447=CIRCLE('',#535,5.25);
#448=FILL_AREA_STYLE_COLOUR('',#536);
#449=CIRCLE('',#537,3.3);
#450=VERTEX_POINT('',#538);
#451=LINE('',#539,#540);
#452=VERTEX_POINT('',#541);
#453=LINE('',#542,#543);
#454=LINE('',#544,#545);
#455=FILL_AREA_STYLE_COLOUR('',#546);
#456=VERTEX_POINT('',#547);
#457=LINE('',#548,#549);
#458=VERTEX_POINT('',#550);
#459=LINE('',#551,#552);
#460=LINE('',#553,#554);
#461=FILL_AREA_STYLE_COLOUR('',#555);
#462=LINE('',#556,#557);
#463=FILL_AREA_STYLE_COLOUR('',#558);
#464=LINE('',#559,#560);
#465=FILL_AREA_STYLE_COLOUR('',#561);
#466=FILL_AREA_STYLE_COLOUR('',#562);
#467=FILL_AREA_STYLE_COLOUR('',#563);
#468=COLOUR_RGB('',0.372549027204514,0.372549027204514,0.372549027204514);
#469=CARTESIAN_POINT('',(5.25,0.0,4.0));
#470=CARTESIAN_POINT('',(5.25,0.0,20.0));
#471=CARTESIAN_POINT('',(5.25,6.42918335756748E-016,12.0));
#472=VECTOR('',#564,1.0);
#473=CARTESIAN_POINT('',(-5.25,-6.42918335756748E-016,20.0));
#474=AXIS2_PLACEMENT_3D('',#565,#566,#567);
#475=CARTESIAN_POINT('',(-5.25,-6.42918335756748E-016,4.0));
#476=CARTESIAN_POINT('',(-5.25,-6.42918335756748E-016,12.0));
#477=VECTOR('',#568,1.0);
#478=AXIS2_PLACEMENT_3D('',#569,#570,#571);
#479=COLOUR_RGB('',0.372549027204514,0.372549027204514,0.372549027204514);
#480=AXIS2_PLACEMENT_3D('',#572,#573,#574);
#481=CARTESIAN_POINT('',(-3.3,0.0,4.0));
#482=CARTESIAN_POINT('',(3.3,4.04120096761384E-016,4.0));
#483=AXIS2_PLACEMENT_3D('',#575,#576,#577);
#484=AXIS2_PLACEMENT_3D('',#578,#579,#580);
#485=COLOUR_RGB('',0.372549027204514,0.372549027204514,0.372549027204514);
#486=CARTESIAN_POINT('',(68.3,0.0,0.0));
#487=CARTESIAN_POINT('',(68.3,4.04120096761385E-016,4.0));
#488=CARTESIAN_POINT('',(68.3,4.04120096761385E-016,2.0));
#489=VECTOR('',#581,1.0);
#490=CARTESIAN_POINT('',(61.7,0.0,4.0));
#491=AXIS2_PLACEMENT_3D('',#582,#583,#584);
#492=CARTESIAN_POINT('',(61.7,-4.04120096761385E-016,0.0));
#493=CARTESIAN_POINT('',(61.7,-4.04120096761385E-016,2.0));
#494=VECTOR('',#585,1.0);
#495=AXIS2_PLACEMENT_3D('',#586,#587,#588);
#496=COLOUR_RGB('',0.372549027204514,0.372549027204514,0.372549027204514);
#497=CARTESIAN_POINT('',(70.25,0.0,4.0));
#498=CARTESIAN_POINT('',(70.25,0.0,20.0));
#499=CARTESIAN_POINT('',(70.25,6.42918335756748E-016,12.0));
#500=VECTOR('',#589,1.0);
#501=CARTESIAN_POINT('',(59.75,-6.42918335756748E-016,20.0));
#502=AXIS2_PLACEMENT_3D('',#590,#591,#592);
#503=CARTESIAN_POINT('',(59.75,-6.42918335756748E-016,4.0));
#504=CARTESIAN_POINT('',(59.75,-6.42918335756748E-016,12.0));
#505=VECTOR('',#593,1.0);
#506=AXIS2_PLACEMENT_3D('',#594,#595,#596);
#507=COLOUR_RGB('',0.372549027204514,0.372549027204514,0.372549027204514);
#508=CARTESIAN_POINT('',(82.5,25.0,20.0));
#509=CARTESIAN_POINT('',(82.5,25.0,0.0));
#510=CARTESIAN_POINT('',(82.5,25.0,10.0));
#511=VECTOR('',#597,1.0);
#512=CARTESIAN_POINT('',(-17.5,25.0,0.0));
#513=CARTESIAN_POINT('',(32.5,25.0,0.0));
#514=VECTOR('',#598,1.0);
#515=CARTESIAN_POINT('',(-17.5,25.0,20.0));
#516=CARTESIAN_POINT('',(-17.5,25.0,10.0));
#517=VECTOR('',#599,1.0);
#518=CARTESIAN_POINT('',(32.5,25.0,20.0));
#519=VECTOR('',#600,1.0);
#520=COLOUR_RGB('',0.372549027204514,0.372549027204514,0.372549027204514);
#521=AXIS2_PLACEMENT_3D('',#601,#602,#603);
#522=AXIS2_PLACEMENT_3D('',#604,#605,#606);
#523=COLOUR_RGB('',0.372549027204514,0.372549027204514,0.372549027204514);
#524=AXIS2_PLACEMENT_3D('',#607,#608,#609);
#525=AXIS2_PLACEMENT_3D('',#610,#611,#612);
#526=COLOUR_RGB('',0.372549027204514,0.372549027204514,0.372549027204514);
#527=CARTESIAN_POINT('',(3.3,0.0,0.0));
#528=CARTESIAN_POINT('',(3.3,4.04120096761384E-016,2.0));
#529=VECTOR('',#613,1.0);
#530=CARTESIAN_POINT('',(-3.3,-4.04120096761384E-016,0.0));
#531=AXIS2_PLACEMENT_3D('',#614,#615,#616);
#532=CARTESIAN_POINT('',(-3.3,-4.04120096761384E-016,2.0));
#533=VECTOR('',#617,1.0);
#534=COLOUR_RGB('',0.372549027204514,0.372549027204514,0.372549027204514);
#535=AXIS2_PLACEMENT_3D('',#618,#619,#620);
#536=COLOUR_RGB('',0.372549027204514,0.372549027204514,0.372549027204514);
#537=AXIS2_PLACEMENT_3D('',#621,#622,#623);
#538=CARTESIAN_POINT('',(82.5,-11.0,0.0));
#539=CARTESIAN_POINT('',(82.5,7.0,0.0));
#540=VECTOR('',#624,1.0);
#541=CARTESIAN_POINT('',(-17.5,-11.0,0.0));
#542=CARTESIAN_POINT('',(32.5,-11.0,0.0));
#543=VECTOR('',#625,1.0);
#544=CARTESIAN_POINT('',(-17.5,7.0,0.0));
#545=VECTOR('',#626,1.0);
#546=COLOUR_RGB('',0.372549027204514,0.372549027204514,0.372549027204514);
#547=CARTESIAN_POINT('',(-17.5,-11.0,20.0));
#548=CARTESIAN_POINT('',(-17.5,-11.0,10.0));
#549=VECTOR('',#627,1.0);
#550=CARTESIAN_POINT('',(82.5,-11.0,20.0));
#551=CARTESIAN_POINT('',(82.5,-11.0,10.0));
#552=VECTOR('',#628,1.0);
#553=CARTESIAN_POINT('',(32.5,-11.0,20.0));
#554=VECTOR('',#629,1.0);
#555=COLOUR_RGB('',0.372549027204514,0.372549027204514,0.372549027204514);
#556=CARTESIAN_POINT('',(-17.5,7.0,20.0));
#557=VECTOR('',#630,1.0);
#558=COLOUR_RGB('',0.372549027204514,0.372549027204514,0.372549027204514);
#559=CARTESIAN_POINT('',(82.5,7.0,20.0));
#560=VECTOR('',#631,1.0);
#561=COLOUR_RGB('',0.372549027204514,0.372549027204514,0.372549027204514);
#562=COLOUR_RGB('',0.372549027204514,0.372549027204514,0.372549027204514);
#563=COLOUR_RGB('',0.372549027204514,0.372549027204514,0.372549027204514);
#564=DIRECTION('',(-0.0,-0.0,1.0));
#565=CARTESIAN_POINT('',(0.0,0.0,20.0));
#566=DIRECTION('',(0.0,0.0,-1.0));
#567=DIRECTION('',(1.0,0.0,0.0));
#568=DIRECTION('',(-0.0,-0.0,-1.0));
#569=CARTESIAN_POINT('',(0.0,0.0,4.0));
#570=DIRECTION('',(0.0,0.0,-1.0));
#571=DIRECTION('',(1.0,0.0,0.0));
#572=CARTESIAN_POINT('',(0.0,0.0,4.0));
#573=DIRECTION('',(0.0,0.0,-1.0));
#574=DIRECTION('',(1.0,0.0,0.0));
#575=CARTESIAN_POINT('',(0.0,0.0,4.0));
#576=DIRECTION('',(0.0,0.0,-1.0));
#577=DIRECTION('',(1.0,0.0,0.0));
#578=CARTESIAN_POINT('',(0.0,0.0,4.0));
#579=DIRECTION('',(0.0,0.0,-1.0));
#580=DIRECTION('',(1.0,0.0,0.0));
#581=DIRECTION('',(-0.0,-0.0,1.0));
#582=CARTESIAN_POINT('',(65.0,0.0,4.0));
#583=DIRECTION('',(0.0,0.0,-1.0));
#584=DIRECTION('',(1.0,0.0,0.0));
#585=DIRECTION('',(-0.0,-0.0,-1.0));
#586=CARTESIAN_POINT('',(65.0,0.0,0.0));
#587=DIRECTION('',(0.0,0.0,1.0));
#588=DIRECTION('',(1.0,0.0,0.0));
#589=DIRECTION('',(-0.0,-0.0,1.0));
#590=CARTESIAN_POINT('',(65.0,0.0,20.0));
#591=DIRECTION('',(0.0,0.0,-1.0));
#592=DIRECTION('',(1.0,0.0,0.0));
#593=DIRECTION('',(-0.0,-0.0,-1.0));
#594=CARTESIAN_POINT('',(65.0,0.0,4.0));
#595=DIRECTION('',(0.0,0.0,-1.0));
#596=DIRECTION('',(1.0,0.0,0.0));
#597=DIRECTION('',(0.0,0.0,-1.0));
#598=DIRECTION('',(1.0,0.0,0.0));
#599=DIRECTION('',(0.0,0.0,-1.0));
#600=DIRECTION('',(-1.0,0.0,0.0));
#601=CARTESIAN_POINT('',(65.0,0.0,0.0));
#602=DIRECTION('',(0.0,0.0,1.0));
#603=DIRECTION('',(1.0,0.0,0.0));
#604=CARTESIAN_POINT('',(65.0,0.0,4.0));
#605=DIRECTION('',(0.0,0.0,-1.0));
#606=DIRECTION('',(1.0,0.0,0.0));
#607=CARTESIAN_POINT('',(65.0,0.0,4.0));
#608=DIRECTION('',(0.0,0.0,-1.0));
#609=DIRECTION('',(1.0,0.0,0.0));
#610=CARTESIAN_POINT('',(65.0,0.0,20.0));
#611=DIRECTION('',(0.0,0.0,-1.0));
#612=DIRECTION('',(1.0,0.0,0.0));
#613=DIRECTION('',(-0.0,-0.0,1.0));
#614=CARTESIAN_POINT('',(0.0,0.0,0.0));
#615=DIRECTION('',(0.0,0.0,1.0));
#616=DIRECTION('',(1.0,0.0,0.0));
#617=DIRECTION('',(-0.0,-0.0,-1.0));
#618=CARTESIAN_POINT('',(0.0,0.0,20.0));
#619=DIRECTION('',(0.0,0.0,-1.0));
#620=DIRECTION('',(1.0,0.0,0.0));
#621=CARTESIAN_POINT('',(0.0,0.0,0.0));
#622=DIRECTION('',(0.0,0.0,1.0));
#623=DIRECTION('',(1.0,0.0,0.0));
#624=DIRECTION('',(0.0,-1.0,0.0));
#625=DIRECTION('',(-1.0,0.0,0.0));
#626=DIRECTION('',(0.0,1.0,0.0));
#627=DIRECTION('',(0.0,0.0,-1.0));
#628=DIRECTION('',(0.0,0.0,-1.0));
#629=DIRECTION('',(1.0,0.0,0.0));
#630=DIRECTION('',(0.0,-1.0,0.0));
#631=DIRECTION('',(0.0,1.0,0.0));
ENDSEC;
END-ISO-10303-21;
