ISO-10303-21;
HEADER;
FILE_DESCRIPTION(('STEP AP214'),'1');
FILE_NAME(' ','  ',('TraceParts'),('TraceParts S.A.'),'XStep 1.0',' ',' ');
FILE_SCHEMA(('automotive_design'));
ENDSEC;
DATA;
#1=PRODUCT_DEFINITION_CONTEXT('',#9,'design');
#2=APPLICATION_PROTOCOL_DEFINITION('INTERNATIONAL STANDARD','automotive_design',1994,#9);
#3=PRODUCT_CATEGORY_RELATIONSHIP('NONE','NONE',#10,#11);
#4=SHAPE_DEFINITION_REPRESENTATION(#12,#13);
#5= (GEOMETRIC_REPRESENTATION_CONTEXT(3)GLOBAL_UNCERTAINTY_ASSIGNED_CONTEXT((#16))GLOBAL_UNIT_ASSIGNED_CONTEXT((#18,#19,#20))REPRESENTATION_CONTEXT('NONE','WORKSPACE'));
#9=APPLICATION_CONTEXT(' ');
#10=PRODUCT_CATEGORY('part','NONE');
#11=PRODUCT_RELATED_PRODUCT_CATEGORY('detail',' ',(#22));
#12=PRODUCT_DEFINITION_SHAPE('NONE','NONE',#23);
#13=ADVANCED_BREP_SHAPE_REPRESENTATION('1',(#24,#25),#5);
#16=UNCERTAINTY_MEASURE_WITH_UNIT(LENGTH_MEASURE(1.0E-006),#18,'','');
#18= (CONVERSION_BASED_UNIT('MILLIMETRE',#28)LENGTH_UNIT()NAMED_UNIT(#31));
#19= (NAMED_UNIT(#33)PLANE_ANGLE_UNIT()SI_UNIT($,.RADIAN.));
#20= (NAMED_UNIT(#33)SOLID_ANGLE_UNIT()SI_UNIT($,.STERADIAN.));
#22=PRODUCT('1','1','PART-1-DESC',(#39));
#23=PRODUCT_DEFINITION('NONE','NONE',#40,#1);
#24=MANIFOLD_SOLID_BREP('1',#41);
#25=AXIS2_PLACEMENT_3D('',#42,#43,#44);
#28=LENGTH_MEASURE_WITH_UNIT(LENGTH_MEASURE(1.0),#45);
#31=DIMENSIONAL_EXPONENTS(1.0,0.0,0.0,0.0,0.0,0.0,0.0);
#33=DIMENSIONAL_EXPONENTS(0.0,0.0,0.0,0.0,0.0,0.0,0.0);
#39=PRODUCT_CONTEXT('',#9,'mechanical');
#40=PRODUCT_DEFINITION_FORMATION_WITH_SPECIFIED_SOURCE(' ','NONE',#22,.NOT_KNOWN.);
#41=CLOSED_SHELL('',(#46,#47,#48,#49,#50,#51,#52,#53,#54,#55,#56,#57,#58,#59,#60));
#42=CARTESIAN_POINT('',(0.0,0.0,0.0));
#43=DIRECTION('',(0.0,0.0,1.0));
#44=DIRECTION('',(1.0,0.0,0.0));
#45= (NAMED_UNIT(#31)LENGTH_UNIT()SI_UNIT(.MILLI.,.METRE.));
#46=ADVANCED_FACE('',(#62),#63,.F.);
#47=ADVANCED_FACE('',(#64),#65,.F.);
#48=ADVANCED_FACE('',(#66,#67),#68,.F.);
#49=ADVANCED_FACE('',(#69),#70,.T.);
#50=ADVANCED_FACE('',(#71),#72,.T.);
#51=ADVANCED_FACE('',(#73,#74),#75,.F.);
#52=ADVANCED_FACE('',(#76),#77,.T.);
#53=ADVANCED_FACE('',(#78),#79,.T.);
#54=ADVANCED_FACE('',(#80),#81,.T.);
#55=ADVANCED_FACE('',(#82,#83),#84,.T.);
#56=ADVANCED_FACE('',(#85),#86,.T.);
#57=ADVANCED_FACE('',(#87),#88,.F.);
#58=ADVANCED_FACE('',(#89),#90,.F.);
#59=ADVANCED_FACE('',(#91),#92,.T.);
#60=ADVANCED_FACE('',(#93),#94,.T.);
#62=FACE_OUTER_BOUND('',#95,.T.);
#63=CYLINDRICAL_SURFACE('',#96,3.3);
#64=FACE_OUTER_BOUND('',#97,.T.);
#65=CYLINDRICAL_SURFACE('',#98,5.5);
#66=FACE_BOUND('',#99,.T.);
#67=FACE_OUTER_BOUND('',#100,.T.);
#68=PLANE('',#101);
#69=FACE_OUTER_BOUND('',#102,.T.);
#70=PLANE('',#103);
#71=FACE_OUTER_BOUND('',#104,.T.);
#72=PLANE('',#105);
#73=FACE_BOUND('',#106,.T.);
#74=FACE_OUTER_BOUND('',#107,.T.);
#75=PLANE('',#108);
#76=FACE_OUTER_BOUND('',#109,.T.);
#77=PLANE('',#110);
#78=FACE_OUTER_BOUND('',#111,.T.);
#79=PLANE('',#112);
#80=FACE_OUTER_BOUND('',#113,.T.);
#81=PLANE('',#114);
#82=FACE_BOUND('',#115,.T.);
#83=FACE_OUTER_BOUND('',#116,.T.);
#84=PLANE('',#117);
#85=FACE_OUTER_BOUND('',#118,.T.);
#86=PLANE('',#119);
#87=FACE_OUTER_BOUND('',#120,.T.);
#88=CYLINDRICAL_SURFACE('',#121,5.5);
#89=FACE_OUTER_BOUND('',#122,.T.);
#90=CYLINDRICAL_SURFACE('',#123,3.3);
#91=FACE_OUTER_BOUND('',#124,.T.);
#92=PLANE('',#125);
#93=FACE_OUTER_BOUND('',#126,.T.);
#94=PLANE('',#127);
#95=EDGE_LOOP('',(#128,#129,#130,#131));
#96=AXIS2_PLACEMENT_3D('',#132,#133,#134);
#97=EDGE_LOOP('',(#135,#136,#137,#138));
#98=AXIS2_PLACEMENT_3D('',#139,#140,#141);
#99=EDGE_LOOP('',(#142,#143));
#100=EDGE_LOOP('',(#144,#145));
#101=AXIS2_PLACEMENT_3D('',#146,#147,#148);
#102=EDGE_LOOP('',(#149,#150,#151,#152));
#103=AXIS2_PLACEMENT_3D('',#153,#154,#155);
#104=EDGE_LOOP('',(#156,#157,#158,#159,#160,#161,#162,#163));
#105=AXIS2_PLACEMENT_3D('',#164,#165,#166);
#106=EDGE_LOOP('',(#167,#168));
#107=EDGE_LOOP('',(#169,#170,#171,#172));
#108=AXIS2_PLACEMENT_3D('',#173,#174,#175);
#109=EDGE_LOOP('',(#176,#177,#178,#179));
#110=AXIS2_PLACEMENT_3D('',#180,#181,#182);
#111=EDGE_LOOP('',(#183,#184,#185,#186));
#112=AXIS2_PLACEMENT_3D('',#187,#188,#189);
#113=EDGE_LOOP('',(#190,#191,#192,#193,#194,#195,#196,#197));
#114=AXIS2_PLACEMENT_3D('',#198,#199,#200);
#115=EDGE_LOOP('',(#201,#202));
#116=EDGE_LOOP('',(#203,#204,#205,#206));
#117=AXIS2_PLACEMENT_3D('',#207,#208,#209);
#118=EDGE_LOOP('',(#210,#211,#212,#213));
#119=AXIS2_PLACEMENT_3D('',#214,#215,#216);
#120=EDGE_LOOP('',(#217,#218,#219,#220));
#121=AXIS2_PLACEMENT_3D('',#221,#222,#223);
#122=EDGE_LOOP('',(#224,#225,#226,#227));
#123=AXIS2_PLACEMENT_3D('',#228,#229,#230);
#124=EDGE_LOOP('',(#231,#232,#233,#234));
#125=AXIS2_PLACEMENT_3D('',#235,#236,#237);
#126=EDGE_LOOP('',(#238,#239,#240,#241));
#127=AXIS2_PLACEMENT_3D('',#242,#243,#244);
#128=ORIENTED_EDGE('',*,*,#245,.F.);
#129=ORIENTED_EDGE('',*,*,#246,.F.);
#130=ORIENTED_EDGE('',*,*,#247,.F.);
#131=ORIENTED_EDGE('',*,*,#248,.F.);
#132=CARTESIAN_POINT('',(0.0,0.0,0.0));
#133=DIRECTION('',(-0.0,-0.0,-1.0));
#134=DIRECTION('',(-1.0,0.0,0.0));
#135=ORIENTED_EDGE('',*,*,#249,.F.);
#136=ORIENTED_EDGE('',*,*,#250,.T.);
#137=ORIENTED_EDGE('',*,*,#251,.F.);
#138=ORIENTED_EDGE('',*,*,#252,.F.);
#139=CARTESIAN_POINT('',(0.0,0.0,12.0));
#140=DIRECTION('',(-0.0,-0.0,1.0));
#141=DIRECTION('',(-1.0,0.0,0.0));
#142=ORIENTED_EDGE('',*,*,#246,.T.);
#143=ORIENTED_EDGE('',*,*,#253,.T.);
#144=ORIENTED_EDGE('',*,*,#254,.F.);
#145=ORIENTED_EDGE('',*,*,#250,.F.);
#146=CARTESIAN_POINT('',(0.0,0.0,5.4));
#147=DIRECTION('',(0.0,0.0,-1.0));
#148=DIRECTION('',(-1.0,0.0,0.0));
#149=ORIENTED_EDGE('',*,*,#255,.T.);
#150=ORIENTED_EDGE('',*,*,#256,.T.);
#151=ORIENTED_EDGE('',*,*,#257,.T.);
#152=ORIENTED_EDGE('',*,*,#258,.T.);
#153=CARTESIAN_POINT('',(11.5,8.00000000000001,0.5));
#154=DIRECTION('',(0.707106781186547,9.81307786677359E-017,-0.707106781186548));
#155=DIRECTION('',(-0.707106781186548,-8.71576399210524E-033,-0.707106781186547));
#156=ORIENTED_EDGE('',*,*,#257,.F.);
#157=ORIENTED_EDGE('',*,*,#259,.F.);
#158=ORIENTED_EDGE('',*,*,#260,.F.);
#159=ORIENTED_EDGE('',*,*,#261,.T.);
#160=ORIENTED_EDGE('',*,*,#262,.F.);
#161=ORIENTED_EDGE('',*,*,#263,.T.);
#162=ORIENTED_EDGE('',*,*,#264,.F.);
#163=ORIENTED_EDGE('',*,*,#265,.F.);
#164=CARTESIAN_POINT('',(-12.0,16.0,0.0));
#165=DIRECTION('',(-4.62592926927148E-016,1.0,0.0));
#166=DIRECTION('',(0.0,0.0,1.0));
#167=ORIENTED_EDGE('',*,*,#266,.T.);
#168=ORIENTED_EDGE('',*,*,#248,.T.);
#169=ORIENTED_EDGE('',*,*,#256,.F.);
#170=ORIENTED_EDGE('',*,*,#267,.T.);
#171=ORIENTED_EDGE('',*,*,#268,.F.);
#172=ORIENTED_EDGE('',*,*,#259,.T.);
#173=CARTESIAN_POINT('',(-4.57786766647386E-015,3.33066907387547E-015,0.0));
#174=DIRECTION('',(0.0,0.0,1.0));
#175=DIRECTION('',(1.0,0.0,0.0));
#176=ORIENTED_EDGE('',*,*,#260,.T.);
#177=ORIENTED_EDGE('',*,*,#268,.T.);
#178=ORIENTED_EDGE('',*,*,#269,.T.);
#179=ORIENTED_EDGE('',*,*,#270,.T.);
#180=CARTESIAN_POINT('',(-11.5,-8.0,0.5));
#181=DIRECTION('',(-0.707106781186548,-4.9065389333868E-017,-0.707106781186547));
#182=DIRECTION('',(-0.707106781186547,4.35788199605263E-033,0.707106781186548));
#183=ORIENTED_EDGE('',*,*,#271,.T.);
#184=ORIENTED_EDGE('',*,*,#272,.T.);
#185=ORIENTED_EDGE('',*,*,#264,.T.);
#186=ORIENTED_EDGE('',*,*,#273,.T.);
#187=CARTESIAN_POINT('',(11.5,8.00000000000001,11.5));
#188=DIRECTION('',(0.707106781186548,9.81307786677359E-017,0.707106781186548));
#189=DIRECTION('',(0.707106781186547,0.0,-0.707106781186547));
#190=ORIENTED_EDGE('',*,*,#255,.F.);
#191=ORIENTED_EDGE('',*,*,#274,.T.);
#192=ORIENTED_EDGE('',*,*,#271,.F.);
#193=ORIENTED_EDGE('',*,*,#275,.T.);
#194=ORIENTED_EDGE('',*,*,#276,.F.);
#195=ORIENTED_EDGE('',*,*,#277,.F.);
#196=ORIENTED_EDGE('',*,*,#269,.F.);
#197=ORIENTED_EDGE('',*,*,#267,.F.);
#198=CARTESIAN_POINT('',(12.0,-16.0,0.0));
#199=DIRECTION('',(2.77555756156289E-016,-1.0,0.0));
#200=DIRECTION('',(0.0,0.0,-1.0));
#201=ORIENTED_EDGE('',*,*,#278,.T.);
#202=ORIENTED_EDGE('',*,*,#252,.T.);
#203=ORIENTED_EDGE('',*,*,#273,.F.);
#204=ORIENTED_EDGE('',*,*,#263,.F.);
#205=ORIENTED_EDGE('',*,*,#279,.F.);
#206=ORIENTED_EDGE('',*,*,#275,.F.);
#207=CARTESIAN_POINT('',(-4.66437855150959E-015,3.33066907387547E-015,12.0));
#208=DIRECTION('',(0.0,0.0,1.0));
#209=DIRECTION('',(1.0,0.0,0.0));
#210=ORIENTED_EDGE('',*,*,#262,.T.);
#211=ORIENTED_EDGE('',*,*,#280,.T.);
#212=ORIENTED_EDGE('',*,*,#276,.T.);
#213=ORIENTED_EDGE('',*,*,#279,.T.);
#214=CARTESIAN_POINT('',(-11.5,-8.0,11.5));
#215=DIRECTION('',(-0.707106781186548,-4.9065389333868E-017,0.707106781186547));
#216=DIRECTION('',(0.707106781186547,0.0,0.707106781186548));
#217=ORIENTED_EDGE('',*,*,#249,.T.);
#218=ORIENTED_EDGE('',*,*,#278,.F.);
#219=ORIENTED_EDGE('',*,*,#251,.T.);
#220=ORIENTED_EDGE('',*,*,#254,.T.);
#221=CARTESIAN_POINT('',(0.0,0.0,12.0));
#222=DIRECTION('',(-0.0,-0.0,1.0));
#223=DIRECTION('',(-1.0,0.0,0.0));
#224=ORIENTED_EDGE('',*,*,#245,.T.);
#225=ORIENTED_EDGE('',*,*,#266,.F.);
#226=ORIENTED_EDGE('',*,*,#247,.T.);
#227=ORIENTED_EDGE('',*,*,#253,.F.);
#228=CARTESIAN_POINT('',(0.0,0.0,0.0));
#229=DIRECTION('',(-0.0,-0.0,-1.0));
#230=DIRECTION('',(-1.0,0.0,0.0));
#231=ORIENTED_EDGE('',*,*,#258,.F.);
#232=ORIENTED_EDGE('',*,*,#265,.T.);
#233=ORIENTED_EDGE('',*,*,#272,.F.);
#234=ORIENTED_EDGE('',*,*,#274,.F.);
#235=CARTESIAN_POINT('',(12.0,16.0,0.0));
#236=DIRECTION('',(1.0,1.38777878078145E-016,0.0));
#237=DIRECTION('',(0.0,0.0,-1.0));
#238=ORIENTED_EDGE('',*,*,#270,.F.);
#239=ORIENTED_EDGE('',*,*,#277,.T.);
#240=ORIENTED_EDGE('',*,*,#280,.F.);
#241=ORIENTED_EDGE('',*,*,#261,.F.);
#242=CARTESIAN_POINT('',(-12.0,-16.0,0.0));
#243=DIRECTION('',(-1.0,-6.93889390390723E-017,0.0));
#244=DIRECTION('',(0.0,0.0,1.0));
#245=EDGE_CURVE('',#281,#282,#283,.T.);
#246=EDGE_CURVE('',#284,#281,#285,.T.);
#247=EDGE_CURVE('',#286,#284,#287,.T.);
#248=EDGE_CURVE('',#282,#286,#288,.T.);
#249=EDGE_CURVE('',#289,#290,#291,.T.);
#250=EDGE_CURVE('',#289,#292,#293,.T.);
#251=EDGE_CURVE('',#294,#292,#295,.T.);
#252=EDGE_CURVE('',#290,#294,#296,.T.);
#253=EDGE_CURVE('',#281,#284,#297,.T.);
#254=EDGE_CURVE('',#292,#289,#298,.T.);
#255=EDGE_CURVE('',#299,#300,#301,.T.);
#256=EDGE_CURVE('',#300,#302,#303,.T.);
#257=EDGE_CURVE('',#302,#304,#305,.T.);
#258=EDGE_CURVE('',#304,#299,#306,.T.);
#259=EDGE_CURVE('',#307,#302,#308,.T.);
#260=EDGE_CURVE('',#309,#307,#310,.T.);
#261=EDGE_CURVE('',#309,#311,#312,.T.);
#262=EDGE_CURVE('',#313,#311,#314,.T.);
#263=EDGE_CURVE('',#313,#315,#316,.T.);
#264=EDGE_CURVE('',#317,#315,#318,.T.);
#265=EDGE_CURVE('',#304,#317,#319,.T.);
#266=EDGE_CURVE('',#286,#282,#320,.T.);
#267=EDGE_CURVE('',#300,#321,#322,.T.);
#268=EDGE_CURVE('',#307,#321,#323,.T.);
#269=EDGE_CURVE('',#321,#324,#325,.T.);
#270=EDGE_CURVE('',#324,#309,#326,.T.);
#271=EDGE_CURVE('',#327,#328,#329,.T.);
#272=EDGE_CURVE('',#328,#317,#330,.T.);
#273=EDGE_CURVE('',#315,#327,#331,.T.);
#274=EDGE_CURVE('',#299,#328,#332,.T.);
#275=EDGE_CURVE('',#327,#333,#334,.T.);
#276=EDGE_CURVE('',#335,#333,#336,.T.);
#277=EDGE_CURVE('',#324,#335,#337,.T.);
#278=EDGE_CURVE('',#294,#290,#338,.T.);
#279=EDGE_CURVE('',#333,#313,#339,.T.);
#280=EDGE_CURVE('',#311,#335,#340,.T.);
#281=VERTEX_POINT('',#341);
#282=VERTEX_POINT('',#342);
#283=LINE('',#343,#344);
#284=VERTEX_POINT('',#345);
#285=CIRCLE('',#346,3.3);
#286=VERTEX_POINT('',#347);
#287=LINE('',#348,#349);
#288=CIRCLE('',#350,3.3);
#289=VERTEX_POINT('',#351);
#290=VERTEX_POINT('',#352);
#291=LINE('',#353,#354);
#292=VERTEX_POINT('',#355);
#293=CIRCLE('',#356,5.5);
#294=VERTEX_POINT('',#357);
#295=LINE('',#358,#359);
#296=CIRCLE('',#360,5.5);
#297=CIRCLE('',#361,3.3);
#298=CIRCLE('',#362,5.5);
#299=VERTEX_POINT('',#363);
#300=VERTEX_POINT('',#364);
#301=LINE('',#365,#366);
#302=VERTEX_POINT('',#367);
#303=LINE('',#368,#369);
#304=VERTEX_POINT('',#370);
#305=LINE('',#371,#372);
#306=LINE('',#373,#374);
#307=VERTEX_POINT('',#375);
#308=LINE('',#376,#377);
#309=VERTEX_POINT('',#378);
#310=LINE('',#379,#380);
#311=VERTEX_POINT('',#381);
#312=LINE('',#382,#383);
#313=VERTEX_POINT('',#384);
#314=LINE('',#385,#386);
#315=VERTEX_POINT('',#387);
#316=LINE('',#388,#389);
#317=VERTEX_POINT('',#390);
#318=LINE('',#391,#392);
#319=LINE('',#393,#394);
#320=CIRCLE('',#395,3.3);
#321=VERTEX_POINT('',#396);
#322=LINE('',#397,#398);
#323=LINE('',#399,#400);
#324=VERTEX_POINT('',#401);
#325=LINE('',#402,#403);
#326=LINE('',#404,#405);
#327=VERTEX_POINT('',#406);
#328=VERTEX_POINT('',#407);
#329=LINE('',#408,#409);
#330=LINE('',#410,#411);
#331=LINE('',#412,#413);
#332=LINE('',#414,#415);
#333=VERTEX_POINT('',#416);
#334=LINE('',#417,#418);
#335=VERTEX_POINT('',#419);
#336=LINE('',#420,#421);
#337=LINE('',#422,#423);
#338=CIRCLE('',#424,5.5);
#339=LINE('',#425,#426);
#340=LINE('',#427,#428);
#341=CARTESIAN_POINT('',(-3.3,4.04120096761385E-016,5.4));
#342=CARTESIAN_POINT('',(-3.3,4.04120096761385E-016,0.0));
#343=CARTESIAN_POINT('',(-3.3,4.04120096761385E-016,0.0));
#344=VECTOR('',#429,1.0);
#345=CARTESIAN_POINT('',(3.3,4.04133443718627E-016,5.4));
#346=AXIS2_PLACEMENT_3D('',#430,#431,#432);
#347=CARTESIAN_POINT('',(3.3,4.04133443718627E-016,0.0));
#348=CARTESIAN_POINT('',(3.3,-4.04120096761385E-016,0.0));
#349=VECTOR('',#433,1.0);
#350=AXIS2_PLACEMENT_3D('',#434,#435,#436);
#351=CARTESIAN_POINT('',(-5.5,-6.73533494602308E-016,5.4));
#352=CARTESIAN_POINT('',(-5.5,-6.73533494602308E-016,12.0));
#353=CARTESIAN_POINT('',(-5.5,-6.73533494602308E-016,12.0));
#354=VECTOR('',#437,1.0);
#355=CARTESIAN_POINT('',(5.5,6.73555739531045E-016,5.4));
#356=AXIS2_PLACEMENT_3D('',#438,#439,#440);
#357=CARTESIAN_POINT('',(5.5,6.73555739531045E-016,12.0));
#358=CARTESIAN_POINT('',(5.5,6.73533494602308E-016,12.0));
#359=VECTOR('',#441,1.0);
#360=AXIS2_PLACEMENT_3D('',#442,#443,#444);
#361=AXIS2_PLACEMENT_3D('',#445,#446,#447);
#362=AXIS2_PLACEMENT_3D('',#448,#449,#450);
#363=CARTESIAN_POINT('',(12.0,-16.0,1.0));
#364=CARTESIAN_POINT('',(11.0,-16.0,0.0));
#365=CARTESIAN_POINT('',(11.5,-16.0,0.500000000000002));
#366=VECTOR('',#451,10.0);
#367=CARTESIAN_POINT('',(11.0,16.0,0.0));
#368=CARTESIAN_POINT('',(11.0,8.00000000000001,0.0));
#369=VECTOR('',#452,10.0);
#370=CARTESIAN_POINT('',(12.0,16.0,1.0));
#371=CARTESIAN_POINT('',(5.49999999999999,16.0,-5.5));
#372=VECTOR('',#453,10.0);
#373=CARTESIAN_POINT('',(12.0,8.00000000000001,1.0));
#374=VECTOR('',#454,10.0);
#375=CARTESIAN_POINT('',(-11.0,16.0,0.0));
#376=CARTESIAN_POINT('',(-12.0,16.0,0.0));
#377=VECTOR('',#455,10.0);
#378=CARTESIAN_POINT('',(-12.0,16.0,1.0));
#379=CARTESIAN_POINT('',(-11.5,16.0,0.500000000000003));
#380=VECTOR('',#456,10.0);
#381=CARTESIAN_POINT('',(-12.0,16.0,11.0));
#382=CARTESIAN_POINT('',(-12.0,16.0,0.0));
#383=VECTOR('',#457,10.0);
#384=CARTESIAN_POINT('',(-11.0,16.0,12.0));
#385=CARTESIAN_POINT('',(-14.5,16.0,8.49999999999999));
#386=VECTOR('',#458,10.0);
#387=CARTESIAN_POINT('',(11.0,16.0,12.0));
#388=CARTESIAN_POINT('',(-12.0,16.0,12.0));
#389=VECTOR('',#459,10.0);
#390=CARTESIAN_POINT('',(12.0,16.0,11.0));
#391=CARTESIAN_POINT('',(8.5,16.0,14.5));
#392=VECTOR('',#460,10.0);
#393=CARTESIAN_POINT('',(12.0,16.0,0.0));
#394=VECTOR('',#461,10.0);
#395=AXIS2_PLACEMENT_3D('',#462,#463,#464);
#396=CARTESIAN_POINT('',(-11.0,-16.0,0.0));
#397=CARTESIAN_POINT('',(12.0,-16.0,0.0));
#398=VECTOR('',#465,10.0);
#399=CARTESIAN_POINT('',(-11.0,-8.0,0.0));
#400=VECTOR('',#466,10.0);
#401=CARTESIAN_POINT('',(-12.0,-16.0,1.0));
#402=CARTESIAN_POINT('',(-5.50000000000001,-16.0,-5.5));
#403=VECTOR('',#467,10.0);
#404=CARTESIAN_POINT('',(-12.0,-8.0,1.0));
#405=VECTOR('',#468,10.0);
#406=CARTESIAN_POINT('',(11.0,-16.0,12.0));
#407=CARTESIAN_POINT('',(12.0,-16.0,11.0));
#408=CARTESIAN_POINT('',(14.5,-16.0,8.5));
#409=VECTOR('',#469,10.0);
#410=CARTESIAN_POINT('',(12.0,8.00000000000001,11.0));
#411=VECTOR('',#470,10.0);
#412=CARTESIAN_POINT('',(11.0,8.00000000000001,12.0));
#413=VECTOR('',#471,10.0);
#414=CARTESIAN_POINT('',(12.0,-16.0,0.0));
#415=VECTOR('',#472,10.0);
#416=CARTESIAN_POINT('',(-11.0,-16.0,12.0));
#417=CARTESIAN_POINT('',(12.0,-16.0,12.0));
#418=VECTOR('',#473,10.0);
#419=CARTESIAN_POINT('',(-12.0,-16.0,11.0));
#420=CARTESIAN_POINT('',(-8.50000000000002,-16.0,14.5));
#421=VECTOR('',#474,10.0);
#422=CARTESIAN_POINT('',(-12.0,-16.0,0.0));
#423=VECTOR('',#475,10.0);
#424=AXIS2_PLACEMENT_3D('',#476,#477,#478);
#425=CARTESIAN_POINT('',(-11.0,-8.0,12.0));
#426=VECTOR('',#479,10.0);
#427=CARTESIAN_POINT('',(-12.0,-8.0,11.0));
#428=VECTOR('',#480,10.0);
#429=DIRECTION('',(0.0,-0.0,-1.0));
#430=CARTESIAN_POINT('',(0.0,0.0,5.4));
#431=DIRECTION('',(0.0,0.0,-1.0));
#432=DIRECTION('',(-1.0,0.0,0.0));
#433=DIRECTION('',(0.0,-0.0,1.0));
#434=CARTESIAN_POINT('',(0.0,0.0,0.0));
#435=DIRECTION('',(0.0,0.0,1.0));
#436=DIRECTION('',(-1.0,0.0,0.0));
#437=DIRECTION('',(0.0,0.0,1.0));
#438=CARTESIAN_POINT('',(0.0,0.0,5.4));
#439=DIRECTION('',(0.0,0.0,-1.0));
#440=DIRECTION('',(-1.0,0.0,0.0));
#441=DIRECTION('',(0.0,0.0,-1.0));
#442=CARTESIAN_POINT('',(0.0,0.0,12.0));
#443=DIRECTION('',(-0.0,0.0,-1.0));
#444=DIRECTION('',(-1.0,0.0,0.0));
#445=CARTESIAN_POINT('',(0.0,0.0,5.4));
#446=DIRECTION('',(0.0,0.0,-1.0));
#447=DIRECTION('',(-1.0,0.0,0.0));
#448=CARTESIAN_POINT('',(0.0,0.0,5.4));
#449=DIRECTION('',(0.0,0.0,-1.0));
#450=DIRECTION('',(-1.0,0.0,0.0));
#451=DIRECTION('',(-0.707106781186548,-1.96261557335472E-016,-0.707106781186547));
#452=DIRECTION('',(-1.38777878078145E-016,1.0,0.0));
#453=DIRECTION('',(0.707106781186548,3.2710259555912E-016,0.707106781186547));
#454=DIRECTION('',(1.38777878078145E-016,-1.0,0.0));
#455=DIRECTION('',(1.0,4.62592926927148E-016,0.0));
#456=DIRECTION('',(0.707106781186547,3.2710259555912E-016,-0.707106781186548));
#457=DIRECTION('',(0.0,0.0,1.0));
#458=DIRECTION('',(-0.707106781186547,-3.27102595559119E-016,-0.707106781186548));
#459=DIRECTION('',(1.0,4.62592926927148E-016,0.0));
#460=DIRECTION('',(-0.707106781186547,-3.2710259555912E-016,0.707106781186547));
#461=DIRECTION('',(0.0,0.0,1.0));
#462=CARTESIAN_POINT('',(0.0,0.0,0.0));
#463=DIRECTION('',(0.0,0.0,1.0));
#464=DIRECTION('',(-1.0,0.0,0.0));
#465=DIRECTION('',(-1.0,-2.77555756156289E-016,-0.0));
#466=DIRECTION('',(6.93889390390723E-017,-1.0,0.0));
#467=DIRECTION('',(-0.707106781186547,-1.96261557335472E-016,0.707106781186548));
#468=DIRECTION('',(-6.93889390390723E-017,1.0,0.0));
#469=DIRECTION('',(0.707106781186547,1.96261557335472E-016,-0.707106781186547));
#470=DIRECTION('',(-1.38777878078145E-016,1.0,0.0));
#471=DIRECTION('',(1.38777878078145E-016,-1.0,0.0));
#472=DIRECTION('',(0.0,0.0,1.0));
#473=DIRECTION('',(-1.0,-2.77555756156289E-016,-0.0));
#474=DIRECTION('',(0.707106781186547,1.96261557335472E-016,0.707106781186548));
#475=DIRECTION('',(0.0,0.0,1.0));
#476=CARTESIAN_POINT('',(0.0,0.0,12.0));
#477=DIRECTION('',(-0.0,0.0,-1.0));
#478=DIRECTION('',(-1.0,0.0,0.0));
#479=DIRECTION('',(-6.93889390390723E-017,1.0,0.0));
#480=DIRECTION('',(6.93889390390723E-017,-1.0,0.0));
ENDSEC;
END-ISO-10303-21;
