ISO-10303-21;
HEADER;
FILE_DESCRIPTION(('STEP AP214'),'1');
FILE_NAME('C:/Temp/output/halder/CAD/Temp/HALDERN_EH_23111_0810.stp','2015-05-04T09:25:16',('TraceParts'),('TraceParts S.A.'),'Spatial InterOp 3D',' ',' ');
FILE_SCHEMA(('automotive_design'));
ENDSEC;
DATA;
#1=MECHANICAL_DESIGN_GEOMETRIC_PRESENTATION_REPRESENTATION(' ',(#10,#11,#12,#13,#14,#15,#16,#17,#18,#19,#20,#21,#22,#23),#6);
#2=PRODUCT_DEFINITION_CONTEXT('',#24,'design');
#3=APPLICATION_PROTOCOL_DEFINITION('INTERNATIONAL STANDARD','automotive_design',1994,#24);
#4=PRODUCT_CATEGORY_RELATIONSHIP('NONE','NONE',#25,#26);
#5=SHAPE_DEFINITION_REPRESENTATION(#27,#28);
#6= (GEOMETRIC_REPRESENTATION_CONTEXT(3)GLOBAL_UNCERTAINTY_ASSIGNED_CONTEXT((#31))GLOBAL_UNIT_ASSIGNED_CONTEXT((#33,#34,#35))REPRESENTATION_CONTEXT('NONE','WORKSPACE'));
#10=STYLED_ITEM('',(#37),#38);
#11=STYLED_ITEM('',(#39),#40);
#12=STYLED_ITEM('',(#41),#42);
#13=STYLED_ITEM('',(#43),#44);
#14=STYLED_ITEM('',(#45),#46);
#15=STYLED_ITEM('',(#47),#48);
#16=STYLED_ITEM('',(#49),#50);
#17=STYLED_ITEM('',(#51),#52);
#18=STYLED_ITEM('',(#53),#54);
#19=STYLED_ITEM('',(#55),#56);
#20=STYLED_ITEM('',(#57),#58);
#21=STYLED_ITEM('',(#59),#60);
#22=STYLED_ITEM('',(#61),#62);
#23=STYLED_ITEM('',(#63),#64);
#24=APPLICATION_CONTEXT(' ');
#25=PRODUCT_CATEGORY('part','NONE');
#26=PRODUCT_RELATED_PRODUCT_CATEGORY('detail',' ',(#65));
#27=PRODUCT_DEFINITION_SHAPE('NONE','NONE',#66);
#28=ADVANCED_BREP_SHAPE_REPRESENTATION('1',(#67,#68),#6);
#31=UNCERTAINTY_MEASURE_WITH_UNIT(LENGTH_MEASURE(1.0E-006),#33,'','');
#33= (CONVERSION_BASED_UNIT('MILLIMETRE',#71)LENGTH_UNIT()NAMED_UNIT(#74));
#34= (NAMED_UNIT(#76)PLANE_ANGLE_UNIT()SI_UNIT($,.RADIAN.));
#35= (NAMED_UNIT(#76)SOLID_ANGLE_UNIT()SI_UNIT($,.STERADIAN.));
#37=PRESENTATION_STYLE_ASSIGNMENT((#82));
#38=ADVANCED_FACE('',(#83),#84,.T.);
#39=PRESENTATION_STYLE_ASSIGNMENT((#85));
#40=ADVANCED_FACE('',(#86),#87,.F.);
#41=PRESENTATION_STYLE_ASSIGNMENT((#88));
#42=ADVANCED_FACE('',(#89),#90,.F.);
#43=PRESENTATION_STYLE_ASSIGNMENT((#91));
#44=ADVANCED_FACE('',(#92),#93,.T.);
#45=PRESENTATION_STYLE_ASSIGNMENT((#94));
#46=ADVANCED_FACE('',(#95),#96,.F.);
#47=PRESENTATION_STYLE_ASSIGNMENT((#97));
#48=ADVANCED_FACE('',(#98),#99,.T.);
#49=PRESENTATION_STYLE_ASSIGNMENT((#100));
#50=ADVANCED_FACE('',(#101),#102,.T.);
#51=PRESENTATION_STYLE_ASSIGNMENT((#103));
#52=ADVANCED_FACE('',(#104),#105,.F.);
#53=PRESENTATION_STYLE_ASSIGNMENT((#106));
#54=ADVANCED_FACE('',(#107),#108,.F.);
#55=PRESENTATION_STYLE_ASSIGNMENT((#109));
#56=ADVANCED_FACE('',(#110),#111,.T.);
#57=PRESENTATION_STYLE_ASSIGNMENT((#112));
#58=ADVANCED_FACE('',(#113),#114,.F.);
#59=PRESENTATION_STYLE_ASSIGNMENT((#115));
#60=ADVANCED_FACE('',(#116,#117),#118,.T.);
#61=PRESENTATION_STYLE_ASSIGNMENT((#119));
#62=ADVANCED_FACE('',(#120),#121,.T.);
#63=PRESENTATION_STYLE_ASSIGNMENT((#122));
#64=ADVANCED_FACE('',(#123,#124),#125,.T.);
#65=PRODUCT('1','1','PART-1-DESC',(#126));
#66=PRODUCT_DEFINITION('NONE','NONE',#127,#2);
#67=MANIFOLD_SOLID_BREP('1',#128);
#68=AXIS2_PLACEMENT_3D('',#129,#130,#131);
#71=LENGTH_MEASURE_WITH_UNIT(LENGTH_MEASURE(1.0),#132);
#74=DIMENSIONAL_EXPONENTS(1.0,0.0,0.0,0.0,0.0,0.0,0.0);
#76=DIMENSIONAL_EXPONENTS(0.0,0.0,0.0,0.0,0.0,0.0,0.0);
#82=SURFACE_STYLE_USAGE(.BOTH.,#133);
#83=FACE_OUTER_BOUND('',#134,.T.);
#84=CONICAL_SURFACE('',#135,17.15,0.785398163397448);
#85=SURFACE_STYLE_USAGE(.BOTH.,#136);
#86=FACE_OUTER_BOUND('',#137,.T.);
#87=CONICAL_SURFACE('',#138,12.75,0.785398163397448);
#88=SURFACE_STYLE_USAGE(.BOTH.,#139);
#89=FACE_OUTER_BOUND('',#140,.T.);
#90=CONICAL_SURFACE('',#141,12.75,0.785398163397448);
#91=SURFACE_STYLE_USAGE(.BOTH.,#142);
#92=FACE_OUTER_BOUND('',#143,.T.);
#93=CONICAL_SURFACE('',#144,17.15,0.785398163397448);
#94=SURFACE_STYLE_USAGE(.BOTH.,#145);
#95=FACE_OUTER_BOUND('',#146,.T.);
#96=CONICAL_SURFACE('',#147,12.75,0.785398163397448);
#97=SURFACE_STYLE_USAGE(.BOTH.,#148);
#98=FACE_OUTER_BOUND('',#149,.T.);
#99=CYLINDRICAL_SURFACE('',#150,17.5);
#100=SURFACE_STYLE_USAGE(.BOTH.,#151);
#101=FACE_OUTER_BOUND('',#152,.T.);
#102=CONICAL_SURFACE('',#153,17.15,0.785398163397448);
#103=SURFACE_STYLE_USAGE(.BOTH.,#154);
#104=FACE_OUTER_BOUND('',#155,.T.);
#105=CYLINDRICAL_SURFACE('',#156,12.5);
#106=SURFACE_STYLE_USAGE(.BOTH.,#157);
#107=FACE_OUTER_BOUND('',#158,.T.);
#108=CYLINDRICAL_SURFACE('',#159,12.5);
#109=SURFACE_STYLE_USAGE(.BOTH.,#160);
#110=FACE_OUTER_BOUND('',#161,.T.);
#111=CONICAL_SURFACE('',#162,17.15,0.785398163397448);
#112=SURFACE_STYLE_USAGE(.BOTH.,#163);
#113=FACE_OUTER_BOUND('',#164,.T.);
#114=CONICAL_SURFACE('',#165,12.75,0.785398163397448);
#115=SURFACE_STYLE_USAGE(.BOTH.,#166);
#116=FACE_BOUND('',#167,.T.);
#117=FACE_OUTER_BOUND('',#168,.T.);
#118=PLANE('',#169);
#119=SURFACE_STYLE_USAGE(.BOTH.,#170);
#120=FACE_OUTER_BOUND('',#171,.T.);
#121=CYLINDRICAL_SURFACE('',#172,17.5);
#122=SURFACE_STYLE_USAGE(.BOTH.,#173);
#123=FACE_BOUND('',#174,.T.);
#124=FACE_OUTER_BOUND('',#175,.T.);
#125=PLANE('',#176);
#126=PRODUCT_CONTEXT('',#24,'mechanical');
#127=PRODUCT_DEFINITION_FORMATION_WITH_SPECIFIED_SOURCE(' ','NONE',#65,.NOT_KNOWN.);
#128=CLOSED_SHELL('',(#62,#56,#50,#40,#52,#46,#42,#54,#58,#38,#44,#48,#64,#60));
#129=CARTESIAN_POINT('',(0.0,0.0,0.0));
#130=DIRECTION('',(0.0,0.0,1.0));
#131=DIRECTION('',(1.0,0.0,0.0));
#132= (NAMED_UNIT(#74)LENGTH_UNIT()SI_UNIT(.MILLI.,.METRE.));
#133=SURFACE_SIDE_STYLE('',(#178));
#134=EDGE_LOOP('',(#179,#180,#181,#182,#183));
#135=AXIS2_PLACEMENT_3D('',#184,#185,#186);
#136=SURFACE_SIDE_STYLE('',(#187));
#137=EDGE_LOOP('',(#188,#189,#190,#191));
#138=AXIS2_PLACEMENT_3D('',#192,#193,#194);
#139=SURFACE_SIDE_STYLE('',(#195));
#140=EDGE_LOOP('',(#196,#197,#198,#199));
#141=AXIS2_PLACEMENT_3D('',#200,#201,#202);
#142=SURFACE_SIDE_STYLE('',(#203));
#143=EDGE_LOOP('',(#204,#205,#206,#207,#208));
#144=AXIS2_PLACEMENT_3D('',#209,#210,#211);
#145=SURFACE_SIDE_STYLE('',(#212));
#146=EDGE_LOOP('',(#213,#214,#215,#216));
#147=AXIS2_PLACEMENT_3D('',#217,#218,#219);
#148=SURFACE_SIDE_STYLE('',(#220));
#149=EDGE_LOOP('',(#221,#222,#223,#224,#225,#226));
#150=AXIS2_PLACEMENT_3D('',#227,#228,#229);
#151=SURFACE_SIDE_STYLE('',(#230));
#152=EDGE_LOOP('',(#231,#232,#233,#234,#235));
#153=AXIS2_PLACEMENT_3D('',#236,#237,#238);
#154=SURFACE_SIDE_STYLE('',(#239));
#155=EDGE_LOOP('',(#240,#241,#242,#243));
#156=AXIS2_PLACEMENT_3D('',#244,#245,#246);
#157=SURFACE_SIDE_STYLE('',(#247));
#158=EDGE_LOOP('',(#248,#249,#250,#251));
#159=AXIS2_PLACEMENT_3D('',#252,#253,#254);
#160=SURFACE_SIDE_STYLE('',(#255));
#161=EDGE_LOOP('',(#256,#257,#258,#259,#260));
#162=AXIS2_PLACEMENT_3D('',#261,#262,#263);
#163=SURFACE_SIDE_STYLE('',(#264));
#164=EDGE_LOOP('',(#265,#266,#267,#268));
#165=AXIS2_PLACEMENT_3D('',#269,#270,#271);
#166=SURFACE_SIDE_STYLE('',(#272));
#167=EDGE_LOOP('',(#273,#274));
#168=EDGE_LOOP('',(#275,#276));
#169=AXIS2_PLACEMENT_3D('',#277,#278,#279);
#170=SURFACE_SIDE_STYLE('',(#280));
#171=EDGE_LOOP('',(#281,#282,#283,#284,#285,#286));
#172=AXIS2_PLACEMENT_3D('',#287,#288,#289);
#173=SURFACE_SIDE_STYLE('',(#290));
#174=EDGE_LOOP('',(#291,#292));
#175=EDGE_LOOP('',(#293,#294));
#176=AXIS2_PLACEMENT_3D('',#295,#296,#297);
#178=SURFACE_STYLE_FILL_AREA(#298);
#179=ORIENTED_EDGE('',*,*,#299,.T.);
#180=ORIENTED_EDGE('',*,*,#300,.F.);
#181=ORIENTED_EDGE('',*,*,#301,.F.);
#182=ORIENTED_EDGE('',*,*,#302,.T.);
#183=ORIENTED_EDGE('',*,*,#303,.F.);
#184=CARTESIAN_POINT('',(19.65,0.0,-8.57224447675664E-017));
#185=DIRECTION('',(-1.0,0.0,-2.44921270764475E-016));
#186=DIRECTION('',(0.0,1.0,0.0));
#187=SURFACE_STYLE_FILL_AREA(#304);
#188=ORIENTED_EDGE('',*,*,#305,.F.);
#189=ORIENTED_EDGE('',*,*,#306,.F.);
#190=ORIENTED_EDGE('',*,*,#307,.F.);
#191=ORIENTED_EDGE('',*,*,#308,.F.);
#192=CARTESIAN_POINT('',(19.75,0.0,0.0));
#193=DIRECTION('',(1.0,-0.0,-0.0));
#194=DIRECTION('',(0.0,1.0,0.0));
#195=SURFACE_STYLE_FILL_AREA(#309);
#196=ORIENTED_EDGE('',*,*,#310,.T.);
#197=ORIENTED_EDGE('',*,*,#311,.F.);
#198=ORIENTED_EDGE('',*,*,#312,.T.);
#199=ORIENTED_EDGE('',*,*,#313,.T.);
#200=CARTESIAN_POINT('',(0.25,0.0,0.0));
#201=DIRECTION('',(-1.0,-0.0,-0.0));
#202=DIRECTION('',(0.0,1.0,0.0));
#203=SURFACE_STYLE_FILL_AREA(#314);
#204=ORIENTED_EDGE('',*,*,#315,.T.);
#205=ORIENTED_EDGE('',*,*,#316,.F.);
#206=ORIENTED_EDGE('',*,*,#317,.F.);
#207=ORIENTED_EDGE('',*,*,#318,.T.);
#208=ORIENTED_EDGE('',*,*,#319,.F.);
#209=CARTESIAN_POINT('',(0.35,0.0,4.28612223837832E-017));
#210=DIRECTION('',(1.0,-0.0,1.22460635382238E-016));
#211=DIRECTION('',(0.0,1.0,0.0));
#212=SURFACE_STYLE_FILL_AREA(#320);
#213=ORIENTED_EDGE('',*,*,#310,.F.);
#214=ORIENTED_EDGE('',*,*,#321,.T.);
#215=ORIENTED_EDGE('',*,*,#312,.F.);
#216=ORIENTED_EDGE('',*,*,#322,.F.);
#217=CARTESIAN_POINT('',(0.25,0.0,0.0));
#218=DIRECTION('',(-1.0,-0.0,-0.0));
#219=DIRECTION('',(0.0,1.0,0.0));
#220=SURFACE_STYLE_FILL_AREA(#323);
#221=ORIENTED_EDGE('',*,*,#324,.T.);
#222=ORIENTED_EDGE('',*,*,#325,.T.);
#223=ORIENTED_EDGE('',*,*,#301,.T.);
#224=ORIENTED_EDGE('',*,*,#326,.T.);
#225=ORIENTED_EDGE('',*,*,#327,.T.);
#226=ORIENTED_EDGE('',*,*,#317,.T.);
#227=CARTESIAN_POINT('',(10.0,0.0,0.0));
#228=DIRECTION('',(1.0,0.0,0.0));
#229=DIRECTION('',(0.0,0.0,-1.0));
#230=SURFACE_STYLE_FILL_AREA(#328);
#231=ORIENTED_EDGE('',*,*,#299,.F.);
#232=ORIENTED_EDGE('',*,*,#329,.F.);
#233=ORIENTED_EDGE('',*,*,#302,.F.);
#234=ORIENTED_EDGE('',*,*,#325,.F.);
#235=ORIENTED_EDGE('',*,*,#330,.F.);
#236=CARTESIAN_POINT('',(19.65,0.0,-8.57224447675664E-017));
#237=DIRECTION('',(-1.0,0.0,-2.44921270764475E-016));
#238=DIRECTION('',(0.0,1.0,0.0));
#239=SURFACE_STYLE_FILL_AREA(#331);
#240=ORIENTED_EDGE('',*,*,#332,.F.);
#241=ORIENTED_EDGE('',*,*,#308,.T.);
#242=ORIENTED_EDGE('',*,*,#333,.F.);
#243=ORIENTED_EDGE('',*,*,#321,.F.);
#244=CARTESIAN_POINT('',(10.0,0.0,0.0));
#245=DIRECTION('',(1.0,0.0,0.0));
#246=DIRECTION('',(0.0,1.0,0.0));
#247=SURFACE_STYLE_FILL_AREA(#334);
#248=ORIENTED_EDGE('',*,*,#332,.T.);
#249=ORIENTED_EDGE('',*,*,#313,.F.);
#250=ORIENTED_EDGE('',*,*,#333,.T.);
#251=ORIENTED_EDGE('',*,*,#335,.T.);
#252=CARTESIAN_POINT('',(10.0,0.0,0.0));
#253=DIRECTION('',(1.0,0.0,0.0));
#254=DIRECTION('',(0.0,1.0,0.0));
#255=SURFACE_STYLE_FILL_AREA(#336);
#256=ORIENTED_EDGE('',*,*,#315,.F.);
#257=ORIENTED_EDGE('',*,*,#337,.F.);
#258=ORIENTED_EDGE('',*,*,#318,.F.);
#259=ORIENTED_EDGE('',*,*,#327,.F.);
#260=ORIENTED_EDGE('',*,*,#338,.F.);
#261=CARTESIAN_POINT('',(0.35,0.0,4.28612223837832E-017));
#262=DIRECTION('',(1.0,-0.0,1.22460635382238E-016));
#263=DIRECTION('',(0.0,1.0,0.0));
#264=SURFACE_STYLE_FILL_AREA(#339);
#265=ORIENTED_EDGE('',*,*,#305,.T.);
#266=ORIENTED_EDGE('',*,*,#335,.F.);
#267=ORIENTED_EDGE('',*,*,#307,.T.);
#268=ORIENTED_EDGE('',*,*,#340,.F.);
#269=CARTESIAN_POINT('',(19.75,0.0,0.0));
#270=DIRECTION('',(1.0,-0.0,-0.0));
#271=DIRECTION('',(0.0,1.0,0.0));
#272=SURFACE_STYLE_FILL_AREA(#341);
#273=ORIENTED_EDGE('',*,*,#340,.T.);
#274=ORIENTED_EDGE('',*,*,#306,.T.);
#275=ORIENTED_EDGE('',*,*,#303,.T.);
#276=ORIENTED_EDGE('',*,*,#329,.T.);
#277=CARTESIAN_POINT('',(20.0,0.0,0.0));
#278=DIRECTION('',(1.0,0.0,0.0));
#279=DIRECTION('',(0.0,0.0,-1.0));
#280=SURFACE_STYLE_FILL_AREA(#342);
#281=ORIENTED_EDGE('',*,*,#324,.F.);
#282=ORIENTED_EDGE('',*,*,#316,.T.);
#283=ORIENTED_EDGE('',*,*,#338,.T.);
#284=ORIENTED_EDGE('',*,*,#326,.F.);
#285=ORIENTED_EDGE('',*,*,#300,.T.);
#286=ORIENTED_EDGE('',*,*,#330,.T.);
#287=CARTESIAN_POINT('',(10.0,0.0,0.0));
#288=DIRECTION('',(1.0,0.0,0.0));
#289=DIRECTION('',(0.0,0.0,-1.0));
#290=SURFACE_STYLE_FILL_AREA(#343);
#291=ORIENTED_EDGE('',*,*,#322,.T.);
#292=ORIENTED_EDGE('',*,*,#311,.T.);
#293=ORIENTED_EDGE('',*,*,#319,.T.);
#294=ORIENTED_EDGE('',*,*,#337,.T.);
#295=CARTESIAN_POINT('',(0.0,0.0,0.0));
#296=DIRECTION('',(-1.0,0.0,0.0));
#297=DIRECTION('',(0.0,0.0,1.0));
#298=FILL_AREA_STYLE('',(#344));
#299=EDGE_CURVE('',#345,#346,#347,.T.);
#300=EDGE_CURVE('',#348,#346,#349,.T.);
#301=EDGE_CURVE('',#350,#348,#351,.T.);
#302=EDGE_CURVE('',#350,#352,#353,.T.);
#303=EDGE_CURVE('',#345,#352,#354,.T.);
#304=FILL_AREA_STYLE('',(#355));
#305=EDGE_CURVE('',#356,#357,#358,.T.);
#306=EDGE_CURVE('',#359,#356,#360,.T.);
#307=EDGE_CURVE('',#361,#359,#362,.T.);
#308=EDGE_CURVE('',#357,#361,#363,.T.);
#309=FILL_AREA_STYLE('',(#364));
#310=EDGE_CURVE('',#365,#366,#367,.T.);
#311=EDGE_CURVE('',#368,#366,#369,.T.);
#312=EDGE_CURVE('',#368,#370,#371,.T.);
#313=EDGE_CURVE('',#370,#365,#372,.T.);
#314=FILL_AREA_STYLE('',(#373));
#315=EDGE_CURVE('',#374,#375,#376,.T.);
#316=EDGE_CURVE('',#377,#375,#378,.T.);
#317=EDGE_CURVE('',#379,#377,#380,.T.);
#318=EDGE_CURVE('',#379,#381,#382,.T.);
#319=EDGE_CURVE('',#374,#381,#383,.T.);
#320=FILL_AREA_STYLE('',(#384));
#321=EDGE_CURVE('',#365,#370,#385,.T.);
#322=EDGE_CURVE('',#366,#368,#386,.T.);
#323=FILL_AREA_STYLE('',(#387));
#324=EDGE_CURVE('',#377,#388,#389,.T.);
#325=EDGE_CURVE('',#388,#350,#390,.T.);
#326=EDGE_CURVE('',#348,#391,#392,.T.);
#327=EDGE_CURVE('',#391,#379,#393,.T.);
#328=FILL_AREA_STYLE('',(#394));
#329=EDGE_CURVE('',#352,#345,#395,.T.);
#330=EDGE_CURVE('',#346,#388,#396,.T.);
#331=FILL_AREA_STYLE('',(#397));
#332=EDGE_CURVE('',#357,#365,#398,.T.);
#333=EDGE_CURVE('',#370,#361,#399,.T.);
#334=FILL_AREA_STYLE('',(#400));
#335=EDGE_CURVE('',#361,#357,#401,.T.);
#336=FILL_AREA_STYLE('',(#402));
#337=EDGE_CURVE('',#381,#374,#403,.T.);
#338=EDGE_CURVE('',#375,#391,#404,.T.);
#339=FILL_AREA_STYLE('',(#405));
#340=EDGE_CURVE('',#356,#359,#406,.T.);
#341=FILL_AREA_STYLE('',(#407));
#342=FILL_AREA_STYLE('',(#408));
#343=FILL_AREA_STYLE('',(#409));
#344=FILL_AREA_STYLE_COLOUR('',#410);
#345=VERTEX_POINT('',#411);
#346=VERTEX_POINT('',#412);
#347=LINE('',#413,#414);
#348=VERTEX_POINT('',#415);
#349=CIRCLE('',#416,17.5);
#350=VERTEX_POINT('',#417);
#351=CIRCLE('',#418,17.5);
#352=VERTEX_POINT('',#419);
#353=LINE('',#420,#421);
#354=CIRCLE('',#422,16.8);
#355=FILL_AREA_STYLE_COLOUR('',#423);
#356=VERTEX_POINT('',#424);
#357=VERTEX_POINT('',#425);
#358=LINE('',#426,#427);
#359=VERTEX_POINT('',#428);
#360=CIRCLE('',#429,13.0);
#361=VERTEX_POINT('',#430);
#362=LINE('',#431,#432);
#363=CIRCLE('',#433,12.5);
#364=FILL_AREA_STYLE_COLOUR('',#434);
#365=VERTEX_POINT('',#435);
#366=VERTEX_POINT('',#436);
#367=LINE('',#437,#438);
#368=VERTEX_POINT('',#439);
#369=CIRCLE('',#440,13.0);
#370=VERTEX_POINT('',#441);
#371=LINE('',#442,#443);
#372=CIRCLE('',#444,12.5);
#373=FILL_AREA_STYLE_COLOUR('',#445);
#374=VERTEX_POINT('',#446);
#375=VERTEX_POINT('',#447);
#376=LINE('',#448,#449);
#377=VERTEX_POINT('',#450);
#378=CIRCLE('',#451,17.5);
#379=VERTEX_POINT('',#452);
#380=CIRCLE('',#453,17.5);
#381=VERTEX_POINT('',#454);
#382=LINE('',#455,#456);
#383=CIRCLE('',#457,16.8);
#384=FILL_AREA_STYLE_COLOUR('',#458);
#385=CIRCLE('',#459,12.5);
#386=CIRCLE('',#460,13.0);
#387=FILL_AREA_STYLE_COLOUR('',#461);
#388=VERTEX_POINT('',#462);
#389=LINE('',#463,#464);
#390=CIRCLE('',#465,17.5);
#391=VERTEX_POINT('',#466);
#392=LINE('',#467,#468);
#393=CIRCLE('',#469,17.5);
#394=FILL_AREA_STYLE_COLOUR('',#470);
#395=CIRCLE('',#471,16.8);
#396=CIRCLE('',#472,17.5);
#397=FILL_AREA_STYLE_COLOUR('',#473);
#398=LINE('',#474,#475);
#399=LINE('',#476,#477);
#400=FILL_AREA_STYLE_COLOUR('',#478);
#401=CIRCLE('',#479,12.5);
#402=FILL_AREA_STYLE_COLOUR('',#480);
#403=CIRCLE('',#481,16.8);
#404=CIRCLE('',#482,17.5);
#405=FILL_AREA_STYLE_COLOUR('',#483);
#406=CIRCLE('',#484,13.0);
#407=FILL_AREA_STYLE_COLOUR('',#485);
#408=FILL_AREA_STYLE_COLOUR('',#486);
#409=FILL_AREA_STYLE_COLOUR('',#487);
#410=COLOUR_RGB('',0.752941191196442,0.752941191196442,0.752941191196442);
#411=CARTESIAN_POINT('',(20.0,16.8,0.0));
#412=CARTESIAN_POINT('',(19.3,17.5,-1.71444889535133E-016));
#413=CARTESIAN_POINT('',(19.65,17.15,-2.18592234157294E-015));
#414=VECTOR('',#488,1.0);
#415=CARTESIAN_POINT('',(19.3,2.14306111918916E-015,17.5));
#416=AXIS2_PLACEMENT_3D('',#489,#490,#491);
#417=CARTESIAN_POINT('',(19.3,-17.5,1.97161622965403E-015));
#418=AXIS2_PLACEMENT_3D('',#492,#493,#494);
#419=CARTESIAN_POINT('',(20.0,-16.8,2.05733867442159E-015));
#420=CARTESIAN_POINT('',(19.65,-17.15,2.01447745203781E-015));
#421=VECTOR('',#495,1.0);
#422=AXIS2_PLACEMENT_3D('',#496,#497,#498);
#423=COLOUR_RGB('',0.752941191196442,0.752941191196442,0.752941191196442);
#424=CARTESIAN_POINT('',(20.0,13.0,0.0));
#425=CARTESIAN_POINT('',(19.5,12.5,0.0));
#426=CARTESIAN_POINT('',(19.75,12.75,-1.56137310112353E-015));
#427=VECTOR('',#499,1.0);
#428=CARTESIAN_POINT('',(20.0,-13.0,1.59198825996909E-015));
#429=AXIS2_PLACEMENT_3D('',#500,#501,#502);
#430=CARTESIAN_POINT('',(19.5,-12.5,1.53075794227797E-015));
#431=CARTESIAN_POINT('',(19.75,-12.75,1.56137310112353E-015));
#432=VECTOR('',#503,1.0);
#433=AXIS2_PLACEMENT_3D('',#504,#505,#506);
#434=COLOUR_RGB('',0.752941191196442,0.752941191196442,0.752941191196442);
#435=CARTESIAN_POINT('',(0.5,12.5,0.0));
#436=CARTESIAN_POINT('',(0.0,13.0,0.0));
#437=CARTESIAN_POINT('',(0.25,12.75,-1.56137310112353E-015));
#438=VECTOR('',#507,1.0);
#439=CARTESIAN_POINT('',(0.0,-13.0,1.59198825996909E-015));
#440=AXIS2_PLACEMENT_3D('',#508,#509,#510);
#441=CARTESIAN_POINT('',(0.5,-12.5,1.53075794227797E-015));
#442=CARTESIAN_POINT('',(0.25,-12.75,1.56137310112353E-015));
#443=VECTOR('',#511,1.0);
#444=AXIS2_PLACEMENT_3D('',#512,#513,#514);
#445=COLOUR_RGB('',0.752941191196442,0.752941191196442,0.752941191196442);
#446=CARTESIAN_POINT('',(0.0,16.8,0.0));
#447=CARTESIAN_POINT('',(0.699999999999999,17.5,8.57224447675664E-017));
#448=CARTESIAN_POINT('',(0.35,17.15,2.14306111918916E-015));
#449=VECTOR('',#515,1.0);
#450=CARTESIAN_POINT('',(0.700000000000001,-2.14306111918916E-015,-17.5));
#451=AXIS2_PLACEMENT_3D('',#516,#517,#518);
#452=CARTESIAN_POINT('',(0.699999999999999,-17.5,-2.05733867442159E-015));
#453=AXIS2_PLACEMENT_3D('',#519,#520,#521);
#454=CARTESIAN_POINT('',(0.0,-16.8,-2.05733867442159E-015));
#455=CARTESIAN_POINT('',(0.35,-17.15,-2.05733867442159E-015));
#456=VECTOR('',#522,1.0);
#457=AXIS2_PLACEMENT_3D('',#523,#524,#525);
#458=COLOUR_RGB('',0.752941191196442,0.752941191196442,0.752941191196442);
#459=AXIS2_PLACEMENT_3D('',#526,#527,#528);
#460=AXIS2_PLACEMENT_3D('',#529,#530,#531);
#461=COLOUR_RGB('',0.752941191196442,0.752941191196442,0.752941191196442);
#462=CARTESIAN_POINT('',(19.3,-2.14306111918916E-015,-17.5));
#463=CARTESIAN_POINT('',(10.0,-2.14306111918916E-015,-17.5));
#464=VECTOR('',#532,1.0);
#465=AXIS2_PLACEMENT_3D('',#533,#534,#535);
#466=CARTESIAN_POINT('',(0.699999999999997,2.14306111918916E-015,17.5));
#467=CARTESIAN_POINT('',(10.0,2.14306111918916E-015,17.5));
#468=VECTOR('',#536,1.0);
#469=AXIS2_PLACEMENT_3D('',#537,#538,#539);
#470=COLOUR_RGB('',0.752941191196442,0.752941191196442,0.752941191196442);
#471=AXIS2_PLACEMENT_3D('',#540,#541,#542);
#472=AXIS2_PLACEMENT_3D('',#543,#544,#545);
#473=COLOUR_RGB('',0.752941191196442,0.752941191196442,0.752941191196442);
#474=CARTESIAN_POINT('',(10.0,12.5,-1.53075794227797E-015));
#475=VECTOR('',#546,1.0);
#476=CARTESIAN_POINT('',(10.0,-12.5,1.53075794227797E-015));
#477=VECTOR('',#547,1.0);
#478=COLOUR_RGB('',0.752941191196442,0.752941191196442,0.752941191196442);
#479=AXIS2_PLACEMENT_3D('',#548,#549,#550);
#480=COLOUR_RGB('',0.752941191196442,0.752941191196442,0.752941191196442);
#481=AXIS2_PLACEMENT_3D('',#551,#552,#553);
#482=AXIS2_PLACEMENT_3D('',#554,#555,#556);
#483=COLOUR_RGB('',0.752941191196442,0.752941191196442,0.752941191196442);
#484=AXIS2_PLACEMENT_3D('',#557,#558,#559);
#485=COLOUR_RGB('',0.752941191196442,0.752941191196442,0.752941191196442);
#486=COLOUR_RGB('',0.752941191196442,0.752941191196442,0.752941191196442);
#487=COLOUR_RGB('',0.752941191196442,0.752941191196442,0.752941191196442);
#488=DIRECTION('',(-0.707106781186548,0.707106781186547,-2.59778237121581E-016));
#489=CARTESIAN_POINT('',(19.3,0.0,0.0));
#490=DIRECTION('',(-1.0,0.0,-2.44921270764475E-016));
#491=DIRECTION('',(2.44921270764475E-016,0.0,-1.0));
#492=CARTESIAN_POINT('',(19.3,0.0,0.0));
#493=DIRECTION('',(-1.0,0.0,-2.44921270764475E-016));
#494=DIRECTION('',(2.44921270764475E-016,0.0,-1.0));
#495=DIRECTION('',(0.707106781186548,0.707106781186547,8.65927457071936E-017));
#496=CARTESIAN_POINT('',(20.0,0.0,-3.45126646034193E-031));
#497=DIRECTION('',(1.0,0.0,0.0));
#498=DIRECTION('',(0.0,1.0,0.0));
#499=DIRECTION('',(-0.707106781186548,-0.707106781186548,8.65927457071936E-017));
#500=CARTESIAN_POINT('',(20.0,0.0,0.0));
#501=DIRECTION('',(-1.0,0.0,0.0));
#502=DIRECTION('',(0.0,1.0,0.0));
#503=DIRECTION('',(0.707106781186548,-0.707106781186548,8.65927457071935E-017));
#504=CARTESIAN_POINT('',(19.5,0.0,0.0));
#505=DIRECTION('',(1.0,0.0,0.0));
#506=DIRECTION('',(0.0,1.0,0.0));
#507=DIRECTION('',(-0.707106781186548,0.707106781186548,-8.65927457071936E-017));
#508=CARTESIAN_POINT('',(0.0,0.0,0.0));
#509=DIRECTION('',(1.0,0.0,0.0));
#510=DIRECTION('',(0.0,1.0,0.0));
#511=DIRECTION('',(0.707106781186548,0.707106781186548,-8.65927457071935E-017));
#512=CARTESIAN_POINT('',(0.5,0.0,0.0));
#513=DIRECTION('',(1.0,0.0,0.0));
#514=DIRECTION('',(0.0,1.0,0.0));
#515=DIRECTION('',(0.707106781186548,0.707106781186547,1.73185491414387E-016));
#516=CARTESIAN_POINT('',(0.699999999999999,0.0,0.0));
#517=DIRECTION('',(1.0,0.0,1.22460635382238E-016));
#518=DIRECTION('',(1.22460635382238E-016,0.0,-1.0));
#519=CARTESIAN_POINT('',(0.699999999999999,0.0,0.0));
#520=DIRECTION('',(1.0,0.0,1.22460635382238E-016));
#521=DIRECTION('',(1.22460635382238E-016,0.0,-1.0));
#522=DIRECTION('',(-0.707106781186548,0.707106781186547,0.0));
#523=CARTESIAN_POINT('',(0.0,0.0,-4.31408307542741E-032));
#524=DIRECTION('',(-1.0,0.0,0.0));
#525=DIRECTION('',(0.0,1.0,0.0));
#526=CARTESIAN_POINT('',(0.5,0.0,0.0));
#527=DIRECTION('',(1.0,0.0,0.0));
#528=DIRECTION('',(0.0,1.0,0.0));
#529=CARTESIAN_POINT('',(0.0,0.0,0.0));
#530=DIRECTION('',(1.0,0.0,0.0));
#531=DIRECTION('',(0.0,1.0,0.0));
#532=DIRECTION('',(1.0,0.0,0.0));
#533=CARTESIAN_POINT('',(19.3,0.0,0.0));
#534=DIRECTION('',(-1.0,0.0,-2.44921270764475E-016));
#535=DIRECTION('',(2.44921270764475E-016,0.0,-1.0));
#536=DIRECTION('',(-1.0,-0.0,-0.0));
#537=CARTESIAN_POINT('',(0.699999999999999,0.0,0.0));
#538=DIRECTION('',(1.0,0.0,1.22460635382238E-016));
#539=DIRECTION('',(1.22460635382238E-016,0.0,-1.0));
#540=CARTESIAN_POINT('',(20.0,0.0,-3.45126646034193E-031));
#541=DIRECTION('',(1.0,0.0,0.0));
#542=DIRECTION('',(0.0,1.0,0.0));
#543=CARTESIAN_POINT('',(19.3,0.0,0.0));
#544=DIRECTION('',(-1.0,0.0,-2.44921270764475E-016));
#545=DIRECTION('',(2.44921270764475E-016,0.0,-1.0));
#546=DIRECTION('',(-1.0,-0.0,0.0));
#547=DIRECTION('',(1.0,-0.0,0.0));
#548=CARTESIAN_POINT('',(19.5,0.0,0.0));
#549=DIRECTION('',(1.0,0.0,0.0));
#550=DIRECTION('',(0.0,1.0,0.0));
#551=CARTESIAN_POINT('',(0.0,0.0,-4.31408307542741E-032));
#552=DIRECTION('',(-1.0,0.0,0.0));
#553=DIRECTION('',(0.0,1.0,0.0));
#554=CARTESIAN_POINT('',(0.699999999999999,0.0,0.0));
#555=DIRECTION('',(1.0,0.0,1.22460635382238E-016));
#556=DIRECTION('',(1.22460635382238E-016,0.0,-1.0));
#557=CARTESIAN_POINT('',(20.0,0.0,0.0));
#558=DIRECTION('',(-1.0,0.0,0.0));
#559=DIRECTION('',(0.0,1.0,0.0));
ENDSEC;
END-ISO-10303-21;
