ISO-10303-21;
HEADER;
FILE_DESCRIPTION(('STEP AP214'),'1');
FILE_NAME('C:/Temp/output/halder/CAD/Temp/HALDERN_EH_23111_0806.stp','2015-05-04T09:25:16',('TraceParts'),('TraceParts S.A.'),'Spatial InterOp 3D',' ',' ');
FILE_SCHEMA(('automotive_design'));
ENDSEC;
DATA;
#1=MECHANICAL_DESIGN_GEOMETRIC_PRESENTATION_REPRESENTATION(' ',(#10,#11,#12,#13,#14,#15,#16,#17,#18,#19,#20,#21,#22,#23),#6);
#2=PRODUCT_DEFINITION_CONTEXT('',#24,'design');
#3=APPLICATION_PROTOCOL_DEFINITION('INTERNATIONAL STANDARD','automotive_design',1994,#24);
#4=PRODUCT_CATEGORY_RELATIONSHIP('NONE','NONE',#25,#26);
#5=SHAPE_DEFINITION_REPRESENTATION(#27,#28);
#6= (GEOMETRIC_REPRESENTATION_CONTEXT(3)GLOBAL_UNCERTAINTY_ASSIGNED_CONTEXT((#31))GLOBAL_UNIT_ASSIGNED_CONTEXT((#33,#34,#35))REPRESENTATION_CONTEXT('NONE','WORKSPACE'));
#10=STYLED_ITEM('',(#37),#38);
#11=STYLED_ITEM('',(#39),#40);
#12=STYLED_ITEM('',(#41),#42);
#13=STYLED_ITEM('',(#43),#44);
#14=STYLED_ITEM('',(#45),#46);
#15=STYLED_ITEM('',(#47),#48);
#16=STYLED_ITEM('',(#49),#50);
#17=STYLED_ITEM('',(#51),#52);
#18=STYLED_ITEM('',(#53),#54);
#19=STYLED_ITEM('',(#55),#56);
#20=STYLED_ITEM('',(#57),#58);
#21=STYLED_ITEM('',(#59),#60);
#22=STYLED_ITEM('',(#61),#62);
#23=STYLED_ITEM('',(#63),#64);
#24=APPLICATION_CONTEXT(' ');
#25=PRODUCT_CATEGORY('part','NONE');
#26=PRODUCT_RELATED_PRODUCT_CATEGORY('detail',' ',(#65));
#27=PRODUCT_DEFINITION_SHAPE('NONE','NONE',#66);
#28=ADVANCED_BREP_SHAPE_REPRESENTATION('1',(#67,#68),#6);
#31=UNCERTAINTY_MEASURE_WITH_UNIT(LENGTH_MEASURE(1.0E-006),#33,'','');
#33= (CONVERSION_BASED_UNIT('MILLIMETRE',#71)LENGTH_UNIT()NAMED_UNIT(#74));
#34= (NAMED_UNIT(#76)PLANE_ANGLE_UNIT()SI_UNIT($,.RADIAN.));
#35= (NAMED_UNIT(#76)SOLID_ANGLE_UNIT()SI_UNIT($,.STERADIAN.));
#37=PRESENTATION_STYLE_ASSIGNMENT((#82));
#38=ADVANCED_FACE('',(#83),#84,.F.);
#39=PRESENTATION_STYLE_ASSIGNMENT((#85));
#40=ADVANCED_FACE('',(#86),#87,.T.);
#41=PRESENTATION_STYLE_ASSIGNMENT((#88));
#42=ADVANCED_FACE('',(#89),#90,.F.);
#43=PRESENTATION_STYLE_ASSIGNMENT((#91));
#44=ADVANCED_FACE('',(#92),#93,.F.);
#45=PRESENTATION_STYLE_ASSIGNMENT((#94));
#46=ADVANCED_FACE('',(#95),#96,.T.);
#47=PRESENTATION_STYLE_ASSIGNMENT((#97));
#48=ADVANCED_FACE('',(#98),#99,.F.);
#49=PRESENTATION_STYLE_ASSIGNMENT((#100));
#50=ADVANCED_FACE('',(#101),#102,.T.);
#51=PRESENTATION_STYLE_ASSIGNMENT((#103));
#52=ADVANCED_FACE('',(#104),#105,.F.);
#53=PRESENTATION_STYLE_ASSIGNMENT((#106));
#54=ADVANCED_FACE('',(#107),#108,.T.);
#55=PRESENTATION_STYLE_ASSIGNMENT((#109));
#56=ADVANCED_FACE('',(#110),#111,.F.);
#57=PRESENTATION_STYLE_ASSIGNMENT((#112));
#58=ADVANCED_FACE('',(#113),#114,.T.);
#59=PRESENTATION_STYLE_ASSIGNMENT((#115));
#60=ADVANCED_FACE('',(#116,#117),#118,.T.);
#61=PRESENTATION_STYLE_ASSIGNMENT((#119));
#62=ADVANCED_FACE('',(#120,#121),#122,.T.);
#63=PRESENTATION_STYLE_ASSIGNMENT((#123));
#64=ADVANCED_FACE('',(#124),#125,.T.);
#65=PRODUCT('1','1','PART-1-DESC',(#126));
#66=PRODUCT_DEFINITION('NONE','NONE',#127,#2);
#67=MANIFOLD_SOLID_BREP('1',#128);
#68=AXIS2_PLACEMENT_3D('',#129,#130,#131);
#71=LENGTH_MEASURE_WITH_UNIT(LENGTH_MEASURE(1.0),#132);
#74=DIMENSIONAL_EXPONENTS(1.0,0.0,0.0,0.0,0.0,0.0,0.0);
#76=DIMENSIONAL_EXPONENTS(0.0,0.0,0.0,0.0,0.0,0.0,0.0);
#82=SURFACE_STYLE_USAGE(.BOTH.,#133);
#83=FACE_OUTER_BOUND('',#134,.T.);
#84=CYLINDRICAL_SURFACE('',#135,10.0);
#85=SURFACE_STYLE_USAGE(.BOTH.,#136);
#86=FACE_OUTER_BOUND('',#137,.T.);
#87=CYLINDRICAL_SURFACE('',#138,17.5);
#88=SURFACE_STYLE_USAGE(.BOTH.,#139);
#89=FACE_OUTER_BOUND('',#140,.T.);
#90=CONICAL_SURFACE('',#141,10.2,0.785398163397449);
#91=SURFACE_STYLE_USAGE(.BOTH.,#142);
#92=FACE_OUTER_BOUND('',#143,.T.);
#93=CONICAL_SURFACE('',#144,10.2,0.78539816339745);
#94=SURFACE_STYLE_USAGE(.BOTH.,#145);
#95=FACE_OUTER_BOUND('',#146,.T.);
#96=CONICAL_SURFACE('',#147,17.15,0.785398163397448);
#97=SURFACE_STYLE_USAGE(.BOTH.,#148);
#98=FACE_OUTER_BOUND('',#149,.T.);
#99=CYLINDRICAL_SURFACE('',#150,10.0);
#100=SURFACE_STYLE_USAGE(.BOTH.,#151);
#101=FACE_OUTER_BOUND('',#152,.T.);
#102=CONICAL_SURFACE('',#153,17.15,0.785398163397448);
#103=SURFACE_STYLE_USAGE(.BOTH.,#154);
#104=FACE_OUTER_BOUND('',#155,.T.);
#105=CONICAL_SURFACE('',#156,10.2,0.785398163397449);
#106=SURFACE_STYLE_USAGE(.BOTH.,#157);
#107=FACE_OUTER_BOUND('',#158,.T.);
#108=CYLINDRICAL_SURFACE('',#159,17.5);
#109=SURFACE_STYLE_USAGE(.BOTH.,#160);
#110=FACE_OUTER_BOUND('',#161,.T.);
#111=CONICAL_SURFACE('',#162,10.2,0.78539816339745);
#112=SURFACE_STYLE_USAGE(.BOTH.,#163);
#113=FACE_OUTER_BOUND('',#164,.T.);
#114=CONICAL_SURFACE('',#165,17.15,0.785398163397448);
#115=SURFACE_STYLE_USAGE(.BOTH.,#166);
#116=FACE_BOUND('',#167,.T.);
#117=FACE_OUTER_BOUND('',#168,.T.);
#118=PLANE('',#169);
#119=SURFACE_STYLE_USAGE(.BOTH.,#170);
#120=FACE_BOUND('',#171,.T.);
#121=FACE_OUTER_BOUND('',#172,.T.);
#122=PLANE('',#173);
#123=SURFACE_STYLE_USAGE(.BOTH.,#174);
#124=FACE_OUTER_BOUND('',#175,.T.);
#125=CONICAL_SURFACE('',#176,17.15,0.785398163397448);
#126=PRODUCT_CONTEXT('',#24,'mechanical');
#127=PRODUCT_DEFINITION_FORMATION_WITH_SPECIFIED_SOURCE(' ','NONE',#65,.NOT_KNOWN.);
#128=CLOSED_SHELL('',(#40,#64,#46,#56,#48,#52,#42,#38,#44,#50,#58,#54,#62,#60));
#129=CARTESIAN_POINT('',(0.0,0.0,0.0));
#130=DIRECTION('',(0.0,0.0,1.0));
#131=DIRECTION('',(1.0,0.0,0.0));
#132= (NAMED_UNIT(#74)LENGTH_UNIT()SI_UNIT(.MILLI.,.METRE.));
#133=SURFACE_SIDE_STYLE('',(#178));
#134=EDGE_LOOP('',(#179,#180,#181,#182));
#135=AXIS2_PLACEMENT_3D('',#183,#184,#185);
#136=SURFACE_SIDE_STYLE('',(#186));
#137=EDGE_LOOP('',(#187,#188,#189,#190,#191,#192));
#138=AXIS2_PLACEMENT_3D('',#193,#194,#195);
#139=SURFACE_SIDE_STYLE('',(#196));
#140=EDGE_LOOP('',(#197,#198,#199,#200));
#141=AXIS2_PLACEMENT_3D('',#201,#202,#203);
#142=SURFACE_SIDE_STYLE('',(#204));
#143=EDGE_LOOP('',(#205,#206,#207,#208));
#144=AXIS2_PLACEMENT_3D('',#209,#210,#211);
#145=SURFACE_SIDE_STYLE('',(#212));
#146=EDGE_LOOP('',(#213,#214,#215,#216,#217));
#147=AXIS2_PLACEMENT_3D('',#218,#219,#220);
#148=SURFACE_SIDE_STYLE('',(#221));
#149=EDGE_LOOP('',(#222,#223,#224,#225));
#150=AXIS2_PLACEMENT_3D('',#226,#227,#228);
#151=SURFACE_SIDE_STYLE('',(#229));
#152=EDGE_LOOP('',(#230,#231,#232,#233,#234));
#153=AXIS2_PLACEMENT_3D('',#235,#236,#237);
#154=SURFACE_SIDE_STYLE('',(#238));
#155=EDGE_LOOP('',(#239,#240,#241,#242));
#156=AXIS2_PLACEMENT_3D('',#243,#244,#245);
#157=SURFACE_SIDE_STYLE('',(#246));
#158=EDGE_LOOP('',(#247,#248,#249,#250,#251,#252));
#159=AXIS2_PLACEMENT_3D('',#253,#254,#255);
#160=SURFACE_SIDE_STYLE('',(#256));
#161=EDGE_LOOP('',(#257,#258,#259,#260));
#162=AXIS2_PLACEMENT_3D('',#261,#262,#263);
#163=SURFACE_SIDE_STYLE('',(#264));
#164=EDGE_LOOP('',(#265,#266,#267,#268,#269));
#165=AXIS2_PLACEMENT_3D('',#270,#271,#272);
#166=SURFACE_SIDE_STYLE('',(#273));
#167=EDGE_LOOP('',(#274,#275));
#168=EDGE_LOOP('',(#276,#277));
#169=AXIS2_PLACEMENT_3D('',#278,#279,#280);
#170=SURFACE_SIDE_STYLE('',(#281));
#171=EDGE_LOOP('',(#282,#283));
#172=EDGE_LOOP('',(#284,#285));
#173=AXIS2_PLACEMENT_3D('',#286,#287,#288);
#174=SURFACE_SIDE_STYLE('',(#289));
#175=EDGE_LOOP('',(#290,#291,#292,#293,#294));
#176=AXIS2_PLACEMENT_3D('',#295,#296,#297);
#178=SURFACE_STYLE_FILL_AREA(#298);
#179=ORIENTED_EDGE('',*,*,#299,.T.);
#180=ORIENTED_EDGE('',*,*,#300,.F.);
#181=ORIENTED_EDGE('',*,*,#301,.T.);
#182=ORIENTED_EDGE('',*,*,#302,.T.);
#183=CARTESIAN_POINT('',(10.0,0.0,0.0));
#184=DIRECTION('',(1.0,0.0,0.0));
#185=DIRECTION('',(0.0,1.0,0.0));
#186=SURFACE_STYLE_FILL_AREA(#303);
#187=ORIENTED_EDGE('',*,*,#304,.F.);
#188=ORIENTED_EDGE('',*,*,#305,.T.);
#189=ORIENTED_EDGE('',*,*,#306,.T.);
#190=ORIENTED_EDGE('',*,*,#307,.F.);
#191=ORIENTED_EDGE('',*,*,#308,.T.);
#192=ORIENTED_EDGE('',*,*,#309,.T.);
#193=CARTESIAN_POINT('',(10.0,0.0,0.0));
#194=DIRECTION('',(1.0,0.0,0.0));
#195=DIRECTION('',(0.0,0.0,-1.0));
#196=SURFACE_STYLE_FILL_AREA(#310);
#197=ORIENTED_EDGE('',*,*,#311,.T.);
#198=ORIENTED_EDGE('',*,*,#312,.F.);
#199=ORIENTED_EDGE('',*,*,#313,.T.);
#200=ORIENTED_EDGE('',*,*,#300,.T.);
#201=CARTESIAN_POINT('',(0.199999999999999,0.0,0.0));
#202=DIRECTION('',(-1.0,-0.0,-0.0));
#203=DIRECTION('',(0.0,1.0,0.0));
#204=SURFACE_STYLE_FILL_AREA(#314);
#205=ORIENTED_EDGE('',*,*,#315,.T.);
#206=ORIENTED_EDGE('',*,*,#302,.F.);
#207=ORIENTED_EDGE('',*,*,#316,.T.);
#208=ORIENTED_EDGE('',*,*,#317,.F.);
#209=CARTESIAN_POINT('',(19.8,0.0,0.0));
#210=DIRECTION('',(1.0,-0.0,-0.0));
#211=DIRECTION('',(0.0,1.0,0.0));
#212=SURFACE_STYLE_FILL_AREA(#318);
#213=ORIENTED_EDGE('',*,*,#319,.F.);
#214=ORIENTED_EDGE('',*,*,#320,.F.);
#215=ORIENTED_EDGE('',*,*,#321,.F.);
#216=ORIENTED_EDGE('',*,*,#322,.F.);
#217=ORIENTED_EDGE('',*,*,#309,.F.);
#218=CARTESIAN_POINT('',(19.65,0.0,-8.57224447675664E-017));
#219=DIRECTION('',(-1.0,0.0,-2.44921270764475E-016));
#220=DIRECTION('',(0.0,1.0,0.0));
#221=SURFACE_STYLE_FILL_AREA(#323);
#222=ORIENTED_EDGE('',*,*,#299,.F.);
#223=ORIENTED_EDGE('',*,*,#324,.T.);
#224=ORIENTED_EDGE('',*,*,#301,.F.);
#225=ORIENTED_EDGE('',*,*,#325,.F.);
#226=CARTESIAN_POINT('',(10.0,0.0,0.0));
#227=DIRECTION('',(1.0,0.0,0.0));
#228=DIRECTION('',(0.0,1.0,0.0));
#229=SURFACE_STYLE_FILL_AREA(#326);
#230=ORIENTED_EDGE('',*,*,#319,.T.);
#231=ORIENTED_EDGE('',*,*,#308,.F.);
#232=ORIENTED_EDGE('',*,*,#327,.F.);
#233=ORIENTED_EDGE('',*,*,#321,.T.);
#234=ORIENTED_EDGE('',*,*,#328,.F.);
#235=CARTESIAN_POINT('',(19.65,0.0,-8.57224447675664E-017));
#236=DIRECTION('',(-1.0,0.0,-2.44921270764475E-016));
#237=DIRECTION('',(0.0,1.0,0.0));
#238=SURFACE_STYLE_FILL_AREA(#329);
#239=ORIENTED_EDGE('',*,*,#311,.F.);
#240=ORIENTED_EDGE('',*,*,#325,.T.);
#241=ORIENTED_EDGE('',*,*,#313,.F.);
#242=ORIENTED_EDGE('',*,*,#330,.F.);
#243=CARTESIAN_POINT('',(0.199999999999999,0.0,0.0));
#244=DIRECTION('',(-1.0,-0.0,-0.0));
#245=DIRECTION('',(0.0,1.0,0.0));
#246=SURFACE_STYLE_FILL_AREA(#331);
#247=ORIENTED_EDGE('',*,*,#304,.T.);
#248=ORIENTED_EDGE('',*,*,#322,.T.);
#249=ORIENTED_EDGE('',*,*,#327,.T.);
#250=ORIENTED_EDGE('',*,*,#307,.T.);
#251=ORIENTED_EDGE('',*,*,#332,.T.);
#252=ORIENTED_EDGE('',*,*,#333,.T.);
#253=CARTESIAN_POINT('',(10.0,0.0,0.0));
#254=DIRECTION('',(1.0,0.0,0.0));
#255=DIRECTION('',(0.0,0.0,-1.0));
#256=SURFACE_STYLE_FILL_AREA(#334);
#257=ORIENTED_EDGE('',*,*,#315,.F.);
#258=ORIENTED_EDGE('',*,*,#335,.F.);
#259=ORIENTED_EDGE('',*,*,#316,.F.);
#260=ORIENTED_EDGE('',*,*,#324,.F.);
#261=CARTESIAN_POINT('',(19.8,0.0,0.0));
#262=DIRECTION('',(1.0,-0.0,-0.0));
#263=DIRECTION('',(0.0,1.0,0.0));
#264=SURFACE_STYLE_FILL_AREA(#336);
#265=ORIENTED_EDGE('',*,*,#337,.T.);
#266=ORIENTED_EDGE('',*,*,#305,.F.);
#267=ORIENTED_EDGE('',*,*,#333,.F.);
#268=ORIENTED_EDGE('',*,*,#338,.T.);
#269=ORIENTED_EDGE('',*,*,#339,.F.);
#270=CARTESIAN_POINT('',(0.35,0.0,4.28612223837832E-017));
#271=DIRECTION('',(1.0,-0.0,1.22460635382238E-016));
#272=DIRECTION('',(0.0,1.0,0.0));
#273=SURFACE_STYLE_FILL_AREA(#340);
#274=ORIENTED_EDGE('',*,*,#317,.T.);
#275=ORIENTED_EDGE('',*,*,#335,.T.);
#276=ORIENTED_EDGE('',*,*,#328,.T.);
#277=ORIENTED_EDGE('',*,*,#320,.T.);
#278=CARTESIAN_POINT('',(20.0,0.0,0.0));
#279=DIRECTION('',(1.0,0.0,0.0));
#280=DIRECTION('',(0.0,0.0,-1.0));
#281=SURFACE_STYLE_FILL_AREA(#341);
#282=ORIENTED_EDGE('',*,*,#330,.T.);
#283=ORIENTED_EDGE('',*,*,#312,.T.);
#284=ORIENTED_EDGE('',*,*,#339,.T.);
#285=ORIENTED_EDGE('',*,*,#342,.T.);
#286=CARTESIAN_POINT('',(0.0,0.0,0.0));
#287=DIRECTION('',(-1.0,0.0,0.0));
#288=DIRECTION('',(0.0,0.0,1.0));
#289=SURFACE_STYLE_FILL_AREA(#343);
#290=ORIENTED_EDGE('',*,*,#337,.F.);
#291=ORIENTED_EDGE('',*,*,#342,.F.);
#292=ORIENTED_EDGE('',*,*,#338,.F.);
#293=ORIENTED_EDGE('',*,*,#332,.F.);
#294=ORIENTED_EDGE('',*,*,#306,.F.);
#295=CARTESIAN_POINT('',(0.35,0.0,4.28612223837832E-017));
#296=DIRECTION('',(1.0,-0.0,1.22460635382238E-016));
#297=DIRECTION('',(0.0,1.0,0.0));
#298=FILL_AREA_STYLE('',(#344));
#299=EDGE_CURVE('',#345,#346,#347,.T.);
#300=EDGE_CURVE('',#348,#346,#349,.T.);
#301=EDGE_CURVE('',#348,#350,#351,.T.);
#302=EDGE_CURVE('',#350,#345,#352,.T.);
#303=FILL_AREA_STYLE('',(#353));
#304=EDGE_CURVE('',#354,#355,#356,.T.);
#305=EDGE_CURVE('',#354,#357,#358,.T.);
#306=EDGE_CURVE('',#357,#359,#360,.T.);
#307=EDGE_CURVE('',#361,#359,#362,.T.);
#308=EDGE_CURVE('',#361,#363,#364,.T.);
#309=EDGE_CURVE('',#363,#355,#365,.T.);
#310=FILL_AREA_STYLE('',(#366));
#311=EDGE_CURVE('',#346,#367,#368,.T.);
#312=EDGE_CURVE('',#369,#367,#370,.T.);
#313=EDGE_CURVE('',#369,#348,#371,.T.);
#314=FILL_AREA_STYLE('',(#372));
#315=EDGE_CURVE('',#373,#345,#374,.T.);
#316=EDGE_CURVE('',#350,#375,#376,.T.);
#317=EDGE_CURVE('',#373,#375,#377,.T.);
#318=FILL_AREA_STYLE('',(#378));
#319=EDGE_CURVE('',#379,#363,#380,.T.);
#320=EDGE_CURVE('',#381,#379,#382,.T.);
#321=EDGE_CURVE('',#383,#381,#384,.T.);
#322=EDGE_CURVE('',#355,#383,#385,.T.);
#323=FILL_AREA_STYLE('',(#386));
#324=EDGE_CURVE('',#345,#350,#387,.T.);
#325=EDGE_CURVE('',#346,#348,#388,.T.);
#326=FILL_AREA_STYLE('',(#389));
#327=EDGE_CURVE('',#383,#361,#390,.T.);
#328=EDGE_CURVE('',#379,#381,#391,.T.);
#329=FILL_AREA_STYLE('',(#392));
#330=EDGE_CURVE('',#367,#369,#393,.T.);
#331=FILL_AREA_STYLE('',(#394));
#332=EDGE_CURVE('',#359,#395,#396,.T.);
#333=EDGE_CURVE('',#395,#354,#397,.T.);
#334=FILL_AREA_STYLE('',(#398));
#335=EDGE_CURVE('',#375,#373,#399,.T.);
#336=FILL_AREA_STYLE('',(#400));
#337=EDGE_CURVE('',#401,#357,#402,.T.);
#338=EDGE_CURVE('',#395,#403,#404,.T.);
#339=EDGE_CURVE('',#401,#403,#405,.T.);
#340=FILL_AREA_STYLE('',(#406));
#341=FILL_AREA_STYLE('',(#407));
#342=EDGE_CURVE('',#403,#401,#408,.T.);
#343=FILL_AREA_STYLE('',(#409));
#344=FILL_AREA_STYLE_COLOUR('',#410);
#345=VERTEX_POINT('',#411);
#346=VERTEX_POINT('',#412);
#347=LINE('',#413,#414);
#348=VERTEX_POINT('',#415);
#349=CIRCLE('',#416,10.0);
#350=VERTEX_POINT('',#417);
#351=LINE('',#418,#419);
#352=CIRCLE('',#420,10.0);
#353=FILL_AREA_STYLE_COLOUR('',#421);
#354=VERTEX_POINT('',#422);
#355=VERTEX_POINT('',#423);
#356=LINE('',#424,#425);
#357=VERTEX_POINT('',#426);
#358=CIRCLE('',#427,17.5);
#359=VERTEX_POINT('',#428);
#360=CIRCLE('',#429,17.5);
#361=VERTEX_POINT('',#430);
#362=LINE('',#431,#432);
#363=VERTEX_POINT('',#433);
#364=CIRCLE('',#434,17.5);
#365=CIRCLE('',#435,17.5);
#366=FILL_AREA_STYLE_COLOUR('',#436);
#367=VERTEX_POINT('',#437);
#368=LINE('',#438,#439);
#369=VERTEX_POINT('',#440);
#370=CIRCLE('',#441,10.4);
#371=LINE('',#442,#443);
#372=FILL_AREA_STYLE_COLOUR('',#444);
#373=VERTEX_POINT('',#445);
#374=LINE('',#446,#447);
#375=VERTEX_POINT('',#448);
#376=LINE('',#449,#450);
#377=CIRCLE('',#451,10.4);
#378=FILL_AREA_STYLE_COLOUR('',#452);
#379=VERTEX_POINT('',#453);
#380=LINE('',#454,#455);
#381=VERTEX_POINT('',#456);
#382=CIRCLE('',#457,16.8);
#383=VERTEX_POINT('',#458);
#384=LINE('',#459,#460);
#385=CIRCLE('',#461,17.5);
#386=FILL_AREA_STYLE_COLOUR('',#462);
#387=CIRCLE('',#463,10.0);
#388=CIRCLE('',#464,10.0);
#389=FILL_AREA_STYLE_COLOUR('',#465);
#390=CIRCLE('',#466,17.5);
#391=CIRCLE('',#467,16.8);
#392=FILL_AREA_STYLE_COLOUR('',#468);
#393=CIRCLE('',#469,10.4);
#394=FILL_AREA_STYLE_COLOUR('',#470);
#395=VERTEX_POINT('',#471);
#396=CIRCLE('',#472,17.5);
#397=CIRCLE('',#473,17.5);
#398=FILL_AREA_STYLE_COLOUR('',#474);
#399=CIRCLE('',#475,10.4);
#400=FILL_AREA_STYLE_COLOUR('',#476);
#401=VERTEX_POINT('',#477);
#402=LINE('',#478,#479);
#403=VERTEX_POINT('',#480);
#404=LINE('',#481,#482);
#405=CIRCLE('',#483,16.8);
#406=FILL_AREA_STYLE_COLOUR('',#484);
#407=FILL_AREA_STYLE_COLOUR('',#485);
#408=CIRCLE('',#486,16.8);
#409=FILL_AREA_STYLE_COLOUR('',#487);
#410=COLOUR_RGB('',0.752941191196442,0.752941191196442,0.752941191196442);
#411=CARTESIAN_POINT('',(19.6,10.0,0.0));
#412=CARTESIAN_POINT('',(0.399999999999999,10.0,0.0));
#413=CARTESIAN_POINT('',(10.0,10.0,-1.22460635382238E-015));
#414=VECTOR('',#488,1.0);
#415=CARTESIAN_POINT('',(0.399999999999999,-10.0,1.22460635382238E-015));
#416=AXIS2_PLACEMENT_3D('',#489,#490,#491);
#417=CARTESIAN_POINT('',(19.6,-10.0,1.22460635382238E-015));
#418=CARTESIAN_POINT('',(10.0,-10.0,1.22460635382238E-015));
#419=VECTOR('',#492,1.0);
#420=AXIS2_PLACEMENT_3D('',#493,#494,#495);
#421=COLOUR_RGB('',0.752941191196442,0.752941191196442,0.752941191196442);
#422=CARTESIAN_POINT('',(0.700000000000001,-2.14306111918916E-015,-17.5));
#423=CARTESIAN_POINT('',(19.3,-2.14306111918916E-015,-17.5));
#424=CARTESIAN_POINT('',(10.0,-2.14306111918916E-015,-17.5));
#425=VECTOR('',#496,1.0);
#426=CARTESIAN_POINT('',(0.699999999999999,17.5,8.57224447675664E-017));
#427=AXIS2_PLACEMENT_3D('',#497,#498,#499);
#428=CARTESIAN_POINT('',(0.699999999999997,2.14306111918916E-015,17.5));
#429=AXIS2_PLACEMENT_3D('',#500,#501,#502);
#430=CARTESIAN_POINT('',(19.3,2.14306111918916E-015,17.5));
#431=CARTESIAN_POINT('',(10.0,2.14306111918916E-015,17.5));
#432=VECTOR('',#503,1.0);
#433=CARTESIAN_POINT('',(19.3,17.5,-1.71444889535133E-016));
#434=AXIS2_PLACEMENT_3D('',#504,#505,#506);
#435=AXIS2_PLACEMENT_3D('',#507,#508,#509);
#436=COLOUR_RGB('',0.752941191196442,0.752941191196442,0.752941191196442);
#437=CARTESIAN_POINT('',(0.0,10.4,0.0));
#438=CARTESIAN_POINT('',(0.199999999999999,10.2,-1.24909848089882E-015));
#439=VECTOR('',#510,1.0);
#440=CARTESIAN_POINT('',(0.0,-10.4,1.27359060797527E-015));
#441=AXIS2_PLACEMENT_3D('',#511,#512,#513);
#442=CARTESIAN_POINT('',(0.199999999999999,-10.2,1.24909848089883E-015));
#443=VECTOR('',#514,1.0);
#444=COLOUR_RGB('',0.752941191196442,0.752941191196442,0.752941191196442);
#445=CARTESIAN_POINT('',(20.0,10.4,0.0));
#446=CARTESIAN_POINT('',(19.8,10.2,-1.24909848089883E-015));
#447=VECTOR('',#515,1.0);
#448=CARTESIAN_POINT('',(20.0,-10.4,1.27359060797527E-015));
#449=CARTESIAN_POINT('',(19.8,-10.2,1.24909848089883E-015));
#450=VECTOR('',#516,1.0);
#451=AXIS2_PLACEMENT_3D('',#517,#518,#519);
#452=COLOUR_RGB('',0.752941191196442,0.752941191196442,0.752941191196442);
#453=CARTESIAN_POINT('',(20.0,16.8,0.0));
#454=CARTESIAN_POINT('',(19.65,17.15,-2.18592234157294E-015));
#455=VECTOR('',#520,1.0);
#456=CARTESIAN_POINT('',(20.0,-16.8,2.05733867442159E-015));
#457=AXIS2_PLACEMENT_3D('',#521,#522,#523);
#458=CARTESIAN_POINT('',(19.3,-17.5,1.97161622965403E-015));
#459=CARTESIAN_POINT('',(19.65,-17.15,2.01447745203781E-015));
#460=VECTOR('',#524,1.0);
#461=AXIS2_PLACEMENT_3D('',#525,#526,#527);
#462=COLOUR_RGB('',0.752941191196442,0.752941191196442,0.752941191196442);
#463=AXIS2_PLACEMENT_3D('',#528,#529,#530);
#464=AXIS2_PLACEMENT_3D('',#531,#532,#533);
#465=COLOUR_RGB('',0.752941191196442,0.752941191196442,0.752941191196442);
#466=AXIS2_PLACEMENT_3D('',#534,#535,#536);
#467=AXIS2_PLACEMENT_3D('',#537,#538,#539);
#468=COLOUR_RGB('',0.752941191196442,0.752941191196442,0.752941191196442);
#469=AXIS2_PLACEMENT_3D('',#540,#541,#542);
#470=COLOUR_RGB('',0.752941191196442,0.752941191196442,0.752941191196442);
#471=CARTESIAN_POINT('',(0.699999999999999,-17.5,-2.05733867442159E-015));
#472=AXIS2_PLACEMENT_3D('',#543,#544,#545);
#473=AXIS2_PLACEMENT_3D('',#546,#547,#548);
#474=COLOUR_RGB('',0.752941191196442,0.752941191196442,0.752941191196442);
#475=AXIS2_PLACEMENT_3D('',#549,#550,#551);
#476=COLOUR_RGB('',0.752941191196442,0.752941191196442,0.752941191196442);
#477=CARTESIAN_POINT('',(0.0,16.8,0.0));
#478=CARTESIAN_POINT('',(0.35,17.15,2.14306111918916E-015));
#479=VECTOR('',#552,1.0);
#480=CARTESIAN_POINT('',(0.0,-16.8,-2.05733867442159E-015));
#481=CARTESIAN_POINT('',(0.35,-17.15,-2.05733867442159E-015));
#482=VECTOR('',#553,1.0);
#483=AXIS2_PLACEMENT_3D('',#554,#555,#556);
#484=COLOUR_RGB('',0.752941191196442,0.752941191196442,0.752941191196442);
#485=COLOUR_RGB('',0.752941191196442,0.752941191196442,0.752941191196442);
#486=AXIS2_PLACEMENT_3D('',#557,#558,#559);
#487=COLOUR_RGB('',0.752941191196442,0.752941191196442,0.752941191196442);
#488=DIRECTION('',(-1.0,-0.0,0.0));
#489=CARTESIAN_POINT('',(0.399999999999999,0.0,0.0));
#490=DIRECTION('',(1.0,0.0,0.0));
#491=DIRECTION('',(0.0,1.0,0.0));
#492=DIRECTION('',(1.0,-0.0,0.0));
#493=CARTESIAN_POINT('',(19.6,0.0,0.0));
#494=DIRECTION('',(1.0,0.0,0.0));
#495=DIRECTION('',(0.0,1.0,0.0));
#496=DIRECTION('',(1.0,0.0,0.0));
#497=CARTESIAN_POINT('',(0.699999999999999,0.0,0.0));
#498=DIRECTION('',(1.0,0.0,1.22460635382238E-016));
#499=DIRECTION('',(1.22460635382238E-016,0.0,-1.0));
#500=CARTESIAN_POINT('',(0.699999999999999,0.0,0.0));
#501=DIRECTION('',(1.0,0.0,1.22460635382238E-016));
#502=DIRECTION('',(1.22460635382238E-016,0.0,-1.0));
#503=DIRECTION('',(-1.0,-0.0,-0.0));
#504=CARTESIAN_POINT('',(19.3,0.0,0.0));
#505=DIRECTION('',(-1.0,0.0,-2.44921270764475E-016));
#506=DIRECTION('',(2.44921270764475E-016,0.0,-1.0));
#507=CARTESIAN_POINT('',(19.3,0.0,0.0));
#508=DIRECTION('',(-1.0,0.0,-2.44921270764475E-016));
#509=DIRECTION('',(2.44921270764475E-016,0.0,-1.0));
#510=DIRECTION('',(-0.707106781186547,0.707106781186548,-8.65927457071936E-017));
#511=CARTESIAN_POINT('',(0.0,0.0,0.0));
#512=DIRECTION('',(1.0,0.0,0.0));
#513=DIRECTION('',(0.0,1.0,0.0));
#514=DIRECTION('',(0.707106781186547,0.707106781186548,-8.65927457071936E-017));
#515=DIRECTION('',(-0.707106781186546,-0.707106781186549,8.65927457071938E-017));
#516=DIRECTION('',(0.707106781186546,-0.707106781186549,8.65927457071938E-017));
#517=CARTESIAN_POINT('',(20.0,0.0,0.0));
#518=DIRECTION('',(-1.0,0.0,0.0));
#519=DIRECTION('',(0.0,1.0,0.0));
#520=DIRECTION('',(-0.707106781186548,0.707106781186547,-2.59778237121581E-016));
#521=CARTESIAN_POINT('',(20.0,0.0,-3.45126646034193E-031));
#522=DIRECTION('',(1.0,0.0,0.0));
#523=DIRECTION('',(0.0,1.0,0.0));
#524=DIRECTION('',(0.707106781186548,0.707106781186547,8.65927457071936E-017));
#525=CARTESIAN_POINT('',(19.3,0.0,0.0));
#526=DIRECTION('',(-1.0,0.0,-2.44921270764475E-016));
#527=DIRECTION('',(2.44921270764475E-016,0.0,-1.0));
#528=CARTESIAN_POINT('',(19.6,0.0,0.0));
#529=DIRECTION('',(1.0,0.0,0.0));
#530=DIRECTION('',(0.0,1.0,0.0));
#531=CARTESIAN_POINT('',(0.399999999999999,0.0,0.0));
#532=DIRECTION('',(1.0,0.0,0.0));
#533=DIRECTION('',(0.0,1.0,0.0));
#534=CARTESIAN_POINT('',(19.3,0.0,0.0));
#535=DIRECTION('',(-1.0,0.0,-2.44921270764475E-016));
#536=DIRECTION('',(2.44921270764475E-016,0.0,-1.0));
#537=CARTESIAN_POINT('',(20.0,0.0,-3.45126646034193E-031));
#538=DIRECTION('',(1.0,0.0,0.0));
#539=DIRECTION('',(0.0,1.0,0.0));
#540=CARTESIAN_POINT('',(0.0,0.0,0.0));
#541=DIRECTION('',(1.0,0.0,0.0));
#542=DIRECTION('',(0.0,1.0,0.0));
#543=CARTESIAN_POINT('',(0.699999999999999,0.0,0.0));
#544=DIRECTION('',(1.0,0.0,1.22460635382238E-016));
#545=DIRECTION('',(1.22460635382238E-016,0.0,-1.0));
#546=CARTESIAN_POINT('',(0.699999999999999,0.0,0.0));
#547=DIRECTION('',(1.0,0.0,1.22460635382238E-016));
#548=DIRECTION('',(1.22460635382238E-016,0.0,-1.0));
#549=CARTESIAN_POINT('',(20.0,0.0,0.0));
#550=DIRECTION('',(-1.0,0.0,0.0));
#551=DIRECTION('',(0.0,1.0,0.0));
#552=DIRECTION('',(0.707106781186548,0.707106781186547,1.73185491414387E-016));
#553=DIRECTION('',(-0.707106781186548,0.707106781186547,0.0));
#554=CARTESIAN_POINT('',(0.0,0.0,-4.31408307542741E-032));
#555=DIRECTION('',(-1.0,0.0,0.0));
#556=DIRECTION('',(0.0,1.0,0.0));
#557=CARTESIAN_POINT('',(0.0,0.0,-4.31408307542741E-032));
#558=DIRECTION('',(-1.0,0.0,0.0));
#559=DIRECTION('',(0.0,1.0,0.0));
ENDSEC;
END-ISO-10303-21;
