ISO-10303-21;
HEADER;
FILE_DESCRIPTION(('STEP AP214'),'1');
FILE_NAME('C:/Temp/output/halder/CAD/Temp/HALDERN_EH_23111_0804.stp','2015-05-04T09:25:16',('TraceParts'),('TraceParts S.A.'),'Spatial InterOp 3D',' ',' ');
FILE_SCHEMA(('automotive_design'));
ENDSEC;
DATA;
#1=MECHANICAL_DESIGN_GEOMETRIC_PRESENTATION_REPRESENTATION(' ',(#10,#11,#12,#13,#14,#15,#16,#17,#18,#19,#20,#21,#22,#23),#6);
#2=PRODUCT_DEFINITION_CONTEXT('',#24,'design');
#3=APPLICATION_PROTOCOL_DEFINITION('INTERNATIONAL STANDARD','automotive_design',1994,#24);
#4=PRODUCT_CATEGORY_RELATIONSHIP('NONE','NONE',#25,#26);
#5=SHAPE_DEFINITION_REPRESENTATION(#27,#28);
#6= (GEOMETRIC_REPRESENTATION_CONTEXT(3)GLOBAL_UNCERTAINTY_ASSIGNED_CONTEXT((#31))GLOBAL_UNIT_ASSIGNED_CONTEXT((#33,#34,#35))REPRESENTATION_CONTEXT('NONE','WORKSPACE'));
#10=STYLED_ITEM('',(#37),#38);
#11=STYLED_ITEM('',(#39),#40);
#12=STYLED_ITEM('',(#41),#42);
#13=STYLED_ITEM('',(#43),#44);
#14=STYLED_ITEM('',(#45),#46);
#15=STYLED_ITEM('',(#47),#48);
#16=STYLED_ITEM('',(#49),#50);
#17=STYLED_ITEM('',(#51),#52);
#18=STYLED_ITEM('',(#53),#54);
#19=STYLED_ITEM('',(#55),#56);
#20=STYLED_ITEM('',(#57),#58);
#21=STYLED_ITEM('',(#59),#60);
#22=STYLED_ITEM('',(#61),#62);
#23=STYLED_ITEM('',(#63),#64);
#24=APPLICATION_CONTEXT(' ');
#25=PRODUCT_CATEGORY('part','NONE');
#26=PRODUCT_RELATED_PRODUCT_CATEGORY('detail',' ',(#65));
#27=PRODUCT_DEFINITION_SHAPE('NONE','NONE',#66);
#28=ADVANCED_BREP_SHAPE_REPRESENTATION('1',(#67,#68),#6);
#31=UNCERTAINTY_MEASURE_WITH_UNIT(LENGTH_MEASURE(1.0E-006),#33,'','');
#33= (CONVERSION_BASED_UNIT('MILLIMETRE',#71)LENGTH_UNIT()NAMED_UNIT(#74));
#34= (NAMED_UNIT(#76)PLANE_ANGLE_UNIT()SI_UNIT($,.RADIAN.));
#35= (NAMED_UNIT(#76)SOLID_ANGLE_UNIT()SI_UNIT($,.STERADIAN.));
#37=PRESENTATION_STYLE_ASSIGNMENT((#82));
#38=ADVANCED_FACE('',(#83),#84,.T.);
#39=PRESENTATION_STYLE_ASSIGNMENT((#85));
#40=ADVANCED_FACE('',(#86),#87,.F.);
#41=PRESENTATION_STYLE_ASSIGNMENT((#88));
#42=ADVANCED_FACE('',(#89),#90,.T.);
#43=PRESENTATION_STYLE_ASSIGNMENT((#91));
#44=ADVANCED_FACE('',(#92),#93,.F.);
#45=PRESENTATION_STYLE_ASSIGNMENT((#94));
#46=ADVANCED_FACE('',(#95),#96,.T.);
#47=PRESENTATION_STYLE_ASSIGNMENT((#97));
#48=ADVANCED_FACE('',(#98,#99),#100,.T.);
#49=PRESENTATION_STYLE_ASSIGNMENT((#101));
#50=ADVANCED_FACE('',(#102),#103,.F.);
#51=PRESENTATION_STYLE_ASSIGNMENT((#104));
#52=ADVANCED_FACE('',(#105),#106,.F.);
#53=PRESENTATION_STYLE_ASSIGNMENT((#107));
#54=ADVANCED_FACE('',(#108,#109),#110,.T.);
#55=PRESENTATION_STYLE_ASSIGNMENT((#111));
#56=ADVANCED_FACE('',(#112),#113,.F.);
#57=PRESENTATION_STYLE_ASSIGNMENT((#114));
#58=ADVANCED_FACE('',(#115),#116,.T.);
#59=PRESENTATION_STYLE_ASSIGNMENT((#117));
#60=ADVANCED_FACE('',(#118),#119,.T.);
#61=PRESENTATION_STYLE_ASSIGNMENT((#120));
#62=ADVANCED_FACE('',(#121),#122,.F.);
#63=PRESENTATION_STYLE_ASSIGNMENT((#123));
#64=ADVANCED_FACE('',(#124),#125,.T.);
#65=PRODUCT('1','1','PART-1-DESC',(#126));
#66=PRODUCT_DEFINITION('NONE','NONE',#127,#2);
#67=MANIFOLD_SOLID_BREP('1',#128);
#68=AXIS2_PLACEMENT_3D('',#129,#130,#131);
#71=LENGTH_MEASURE_WITH_UNIT(LENGTH_MEASURE(1.0),#132);
#74=DIMENSIONAL_EXPONENTS(1.0,0.0,0.0,0.0,0.0,0.0,0.0);
#76=DIMENSIONAL_EXPONENTS(0.0,0.0,0.0,0.0,0.0,0.0,0.0);
#82=SURFACE_STYLE_USAGE(.BOTH.,#133);
#83=FACE_OUTER_BOUND('',#134,.T.);
#84=CONICAL_SURFACE('',#135,12.25,0.785398163397448);
#85=SURFACE_STYLE_USAGE(.BOTH.,#136);
#86=FACE_OUTER_BOUND('',#137,.T.);
#87=CONICAL_SURFACE('',#138,8.16,0.785398163397448);
#88=SURFACE_STYLE_USAGE(.BOTH.,#139);
#89=FACE_OUTER_BOUND('',#140,.T.);
#90=CYLINDRICAL_SURFACE('',#141,12.5);
#91=SURFACE_STYLE_USAGE(.BOTH.,#142);
#92=FACE_OUTER_BOUND('',#143,.T.);
#93=CYLINDRICAL_SURFACE('',#144,8.0);
#94=SURFACE_STYLE_USAGE(.BOTH.,#145);
#95=FACE_OUTER_BOUND('',#146,.T.);
#96=CONICAL_SURFACE('',#147,12.25,0.785398163397448);
#97=SURFACE_STYLE_USAGE(.BOTH.,#148);
#98=FACE_BOUND('',#149,.T.);
#99=FACE_OUTER_BOUND('',#150,.T.);
#100=PLANE('',#151);
#101=SURFACE_STYLE_USAGE(.BOTH.,#152);
#102=FACE_OUTER_BOUND('',#153,.T.);
#103=CONICAL_SURFACE('',#154,8.16,0.785398163397449);
#104=SURFACE_STYLE_USAGE(.BOTH.,#155);
#105=FACE_OUTER_BOUND('',#156,.T.);
#106=CONICAL_SURFACE('',#157,8.16,0.785398163397449);
#107=SURFACE_STYLE_USAGE(.BOTH.,#158);
#108=FACE_BOUND('',#159,.T.);
#109=FACE_OUTER_BOUND('',#160,.T.);
#110=PLANE('',#161);
#111=SURFACE_STYLE_USAGE(.BOTH.,#162);
#112=FACE_OUTER_BOUND('',#163,.T.);
#113=CYLINDRICAL_SURFACE('',#164,8.0);
#114=SURFACE_STYLE_USAGE(.BOTH.,#165);
#115=FACE_OUTER_BOUND('',#166,.T.);
#116=CYLINDRICAL_SURFACE('',#167,12.5);
#117=SURFACE_STYLE_USAGE(.BOTH.,#168);
#118=FACE_OUTER_BOUND('',#169,.T.);
#119=CONICAL_SURFACE('',#170,12.25,0.785398163397448);
#120=SURFACE_STYLE_USAGE(.BOTH.,#171);
#121=FACE_OUTER_BOUND('',#172,.T.);
#122=CONICAL_SURFACE('',#173,8.16,0.785398163397448);
#123=SURFACE_STYLE_USAGE(.BOTH.,#174);
#124=FACE_OUTER_BOUND('',#175,.T.);
#125=CONICAL_SURFACE('',#176,12.25,0.785398163397448);
#126=PRODUCT_CONTEXT('',#24,'mechanical');
#127=PRODUCT_DEFINITION_FORMATION_WITH_SPECIFIED_SOURCE(' ','NONE',#65,.NOT_KNOWN.);
#128=CLOSED_SHELL('',(#58,#64,#38,#62,#44,#50,#52,#56,#40,#60,#46,#42,#54,#48));
#129=CARTESIAN_POINT('',(0.0,0.0,0.0));
#130=DIRECTION('',(0.0,0.0,1.0));
#131=DIRECTION('',(1.0,0.0,0.0));
#132= (NAMED_UNIT(#74)LENGTH_UNIT()SI_UNIT(.MILLI.,.METRE.));
#133=SURFACE_SIDE_STYLE('',(#178));
#134=EDGE_LOOP('',(#179,#180,#181,#182,#183));
#135=AXIS2_PLACEMENT_3D('',#184,#185,#186);
#136=SURFACE_SIDE_STYLE('',(#187));
#137=EDGE_LOOP('',(#188,#189,#190,#191));
#138=AXIS2_PLACEMENT_3D('',#192,#193,#194);
#139=SURFACE_SIDE_STYLE('',(#195));
#140=EDGE_LOOP('',(#196,#197,#198,#199,#200,#201));
#141=AXIS2_PLACEMENT_3D('',#202,#203,#204);
#142=SURFACE_SIDE_STYLE('',(#205));
#143=EDGE_LOOP('',(#206,#207,#208,#209));
#144=AXIS2_PLACEMENT_3D('',#210,#211,#212);
#145=SURFACE_SIDE_STYLE('',(#213));
#146=EDGE_LOOP('',(#214,#215,#216,#217,#218));
#147=AXIS2_PLACEMENT_3D('',#219,#220,#221);
#148=SURFACE_SIDE_STYLE('',(#222));
#149=EDGE_LOOP('',(#223,#224));
#150=EDGE_LOOP('',(#225,#226));
#151=AXIS2_PLACEMENT_3D('',#227,#228,#229);
#152=SURFACE_SIDE_STYLE('',(#230));
#153=EDGE_LOOP('',(#231,#232,#233,#234));
#154=AXIS2_PLACEMENT_3D('',#235,#236,#237);
#155=SURFACE_SIDE_STYLE('',(#238));
#156=EDGE_LOOP('',(#239,#240,#241,#242));
#157=AXIS2_PLACEMENT_3D('',#243,#244,#245);
#158=SURFACE_SIDE_STYLE('',(#246));
#159=EDGE_LOOP('',(#247,#248));
#160=EDGE_LOOP('',(#249,#250));
#161=AXIS2_PLACEMENT_3D('',#251,#252,#253);
#162=SURFACE_SIDE_STYLE('',(#254));
#163=EDGE_LOOP('',(#255,#256,#257,#258));
#164=AXIS2_PLACEMENT_3D('',#259,#260,#261);
#165=SURFACE_SIDE_STYLE('',(#262));
#166=EDGE_LOOP('',(#263,#264,#265,#266,#267,#268));
#167=AXIS2_PLACEMENT_3D('',#269,#270,#271);
#168=SURFACE_SIDE_STYLE('',(#272));
#169=EDGE_LOOP('',(#273,#274,#275,#276,#277));
#170=AXIS2_PLACEMENT_3D('',#278,#279,#280);
#171=SURFACE_SIDE_STYLE('',(#281));
#172=EDGE_LOOP('',(#282,#283,#284,#285));
#173=AXIS2_PLACEMENT_3D('',#286,#287,#288);
#174=SURFACE_SIDE_STYLE('',(#289));
#175=EDGE_LOOP('',(#290,#291,#292,#293,#294));
#176=AXIS2_PLACEMENT_3D('',#295,#296,#297);
#178=SURFACE_STYLE_FILL_AREA(#298);
#179=ORIENTED_EDGE('',*,*,#299,.F.);
#180=ORIENTED_EDGE('',*,*,#300,.F.);
#181=ORIENTED_EDGE('',*,*,#301,.F.);
#182=ORIENTED_EDGE('',*,*,#302,.F.);
#183=ORIENTED_EDGE('',*,*,#303,.F.);
#184=CARTESIAN_POINT('',(24.75,0.0,-6.12303176911189E-017));
#185=DIRECTION('',(-1.0,0.0,-2.44921270764475E-016));
#186=DIRECTION('',(0.0,1.0,0.0));
#187=SURFACE_STYLE_FILL_AREA(#304);
#188=ORIENTED_EDGE('',*,*,#305,.T.);
#189=ORIENTED_EDGE('',*,*,#306,.F.);
#190=ORIENTED_EDGE('',*,*,#307,.T.);
#191=ORIENTED_EDGE('',*,*,#308,.F.);
#192=CARTESIAN_POINT('',(24.84,0.0,0.0));
#193=DIRECTION('',(1.0,-0.0,-0.0));
#194=DIRECTION('',(0.0,1.0,0.0));
#195=SURFACE_STYLE_FILL_AREA(#309);
#196=ORIENTED_EDGE('',*,*,#310,.T.);
#197=ORIENTED_EDGE('',*,*,#302,.T.);
#198=ORIENTED_EDGE('',*,*,#311,.T.);
#199=ORIENTED_EDGE('',*,*,#312,.T.);
#200=ORIENTED_EDGE('',*,*,#313,.T.);
#201=ORIENTED_EDGE('',*,*,#314,.T.);
#202=CARTESIAN_POINT('',(12.5,0.0,0.0));
#203=DIRECTION('',(1.0,0.0,0.0));
#204=DIRECTION('',(0.0,0.0,-1.0));
#205=SURFACE_STYLE_FILL_AREA(#315);
#206=ORIENTED_EDGE('',*,*,#316,.F.);
#207=ORIENTED_EDGE('',*,*,#317,.T.);
#208=ORIENTED_EDGE('',*,*,#318,.F.);
#209=ORIENTED_EDGE('',*,*,#319,.F.);
#210=CARTESIAN_POINT('',(12.5,0.0,0.0));
#211=DIRECTION('',(1.0,0.0,0.0));
#212=DIRECTION('',(0.0,1.0,0.0));
#213=SURFACE_STYLE_FILL_AREA(#320);
#214=ORIENTED_EDGE('',*,*,#321,.T.);
#215=ORIENTED_EDGE('',*,*,#322,.F.);
#216=ORIENTED_EDGE('',*,*,#314,.F.);
#217=ORIENTED_EDGE('',*,*,#323,.T.);
#218=ORIENTED_EDGE('',*,*,#324,.F.);
#219=CARTESIAN_POINT('',(0.25,0.0,3.06151588455594E-017));
#220=DIRECTION('',(1.0,-0.0,1.22460635382238E-016));
#221=DIRECTION('',(0.0,1.0,0.0));
#222=SURFACE_STYLE_FILL_AREA(#325);
#223=ORIENTED_EDGE('',*,*,#308,.T.);
#224=ORIENTED_EDGE('',*,*,#326,.T.);
#225=ORIENTED_EDGE('',*,*,#327,.T.);
#226=ORIENTED_EDGE('',*,*,#300,.T.);
#227=CARTESIAN_POINT('',(25.0,0.0,0.0));
#228=DIRECTION('',(1.0,0.0,0.0));
#229=DIRECTION('',(0.0,0.0,-1.0));
#230=SURFACE_STYLE_FILL_AREA(#328);
#231=ORIENTED_EDGE('',*,*,#329,.F.);
#232=ORIENTED_EDGE('',*,*,#319,.T.);
#233=ORIENTED_EDGE('',*,*,#330,.F.);
#234=ORIENTED_EDGE('',*,*,#331,.F.);
#235=CARTESIAN_POINT('',(0.16,0.0,0.0));
#236=DIRECTION('',(-1.0,-0.0,-0.0));
#237=DIRECTION('',(0.0,1.0,0.0));
#238=SURFACE_STYLE_FILL_AREA(#332);
#239=ORIENTED_EDGE('',*,*,#329,.T.);
#240=ORIENTED_EDGE('',*,*,#333,.F.);
#241=ORIENTED_EDGE('',*,*,#330,.T.);
#242=ORIENTED_EDGE('',*,*,#334,.T.);
#243=CARTESIAN_POINT('',(0.16,0.0,0.0));
#244=DIRECTION('',(-1.0,-0.0,-0.0));
#245=DIRECTION('',(0.0,1.0,0.0));
#246=SURFACE_STYLE_FILL_AREA(#335);
#247=ORIENTED_EDGE('',*,*,#331,.T.);
#248=ORIENTED_EDGE('',*,*,#333,.T.);
#249=ORIENTED_EDGE('',*,*,#324,.T.);
#250=ORIENTED_EDGE('',*,*,#336,.T.);
#251=CARTESIAN_POINT('',(0.0,0.0,0.0));
#252=DIRECTION('',(-1.0,0.0,0.0));
#253=DIRECTION('',(0.0,0.0,1.0));
#254=SURFACE_STYLE_FILL_AREA(#337);
#255=ORIENTED_EDGE('',*,*,#316,.T.);
#256=ORIENTED_EDGE('',*,*,#334,.F.);
#257=ORIENTED_EDGE('',*,*,#318,.T.);
#258=ORIENTED_EDGE('',*,*,#306,.T.);
#259=CARTESIAN_POINT('',(12.5,0.0,0.0));
#260=DIRECTION('',(1.0,0.0,0.0));
#261=DIRECTION('',(0.0,1.0,0.0));
#262=SURFACE_STYLE_FILL_AREA(#338);
#263=ORIENTED_EDGE('',*,*,#310,.F.);
#264=ORIENTED_EDGE('',*,*,#322,.T.);
#265=ORIENTED_EDGE('',*,*,#339,.T.);
#266=ORIENTED_EDGE('',*,*,#312,.F.);
#267=ORIENTED_EDGE('',*,*,#340,.T.);
#268=ORIENTED_EDGE('',*,*,#303,.T.);
#269=CARTESIAN_POINT('',(12.5,0.0,0.0));
#270=DIRECTION('',(1.0,0.0,0.0));
#271=DIRECTION('',(0.0,0.0,-1.0));
#272=SURFACE_STYLE_FILL_AREA(#341);
#273=ORIENTED_EDGE('',*,*,#299,.T.);
#274=ORIENTED_EDGE('',*,*,#340,.F.);
#275=ORIENTED_EDGE('',*,*,#311,.F.);
#276=ORIENTED_EDGE('',*,*,#301,.T.);
#277=ORIENTED_EDGE('',*,*,#327,.F.);
#278=CARTESIAN_POINT('',(24.75,0.0,-6.12303176911189E-017));
#279=DIRECTION('',(-1.0,0.0,-2.44921270764475E-016));
#280=DIRECTION('',(0.0,1.0,0.0));
#281=SURFACE_STYLE_FILL_AREA(#342);
#282=ORIENTED_EDGE('',*,*,#305,.F.);
#283=ORIENTED_EDGE('',*,*,#326,.F.);
#284=ORIENTED_EDGE('',*,*,#307,.F.);
#285=ORIENTED_EDGE('',*,*,#317,.F.);
#286=CARTESIAN_POINT('',(24.84,0.0,0.0));
#287=DIRECTION('',(1.0,-0.0,-0.0));
#288=DIRECTION('',(0.0,1.0,0.0));
#289=SURFACE_STYLE_FILL_AREA(#343);
#290=ORIENTED_EDGE('',*,*,#321,.F.);
#291=ORIENTED_EDGE('',*,*,#336,.F.);
#292=ORIENTED_EDGE('',*,*,#323,.F.);
#293=ORIENTED_EDGE('',*,*,#313,.F.);
#294=ORIENTED_EDGE('',*,*,#339,.F.);
#295=CARTESIAN_POINT('',(0.25,0.0,3.06151588455594E-017));
#296=DIRECTION('',(1.0,-0.0,1.22460635382238E-016));
#297=DIRECTION('',(0.0,1.0,0.0));
#298=FILL_AREA_STYLE('',(#344));
#299=EDGE_CURVE('',#345,#346,#347,.T.);
#300=EDGE_CURVE('',#348,#345,#349,.T.);
#301=EDGE_CURVE('',#350,#348,#351,.T.);
#302=EDGE_CURVE('',#352,#350,#353,.T.);
#303=EDGE_CURVE('',#346,#352,#354,.T.);
#304=FILL_AREA_STYLE('',(#355));
#305=EDGE_CURVE('',#356,#357,#358,.T.);
#306=EDGE_CURVE('',#359,#357,#360,.T.);
#307=EDGE_CURVE('',#359,#361,#362,.T.);
#308=EDGE_CURVE('',#356,#361,#363,.T.);
#309=FILL_AREA_STYLE('',(#364));
#310=EDGE_CURVE('',#365,#352,#366,.T.);
#311=EDGE_CURVE('',#350,#367,#368,.T.);
#312=EDGE_CURVE('',#367,#369,#370,.T.);
#313=EDGE_CURVE('',#369,#371,#372,.T.);
#314=EDGE_CURVE('',#371,#365,#373,.T.);
#315=FILL_AREA_STYLE('',(#374));
#316=EDGE_CURVE('',#357,#375,#376,.T.);
#317=EDGE_CURVE('',#357,#359,#377,.T.);
#318=EDGE_CURVE('',#378,#359,#379,.T.);
#319=EDGE_CURVE('',#375,#378,#380,.T.);
#320=FILL_AREA_STYLE('',(#381));
#321=EDGE_CURVE('',#382,#383,#384,.T.);
#322=EDGE_CURVE('',#365,#383,#385,.T.);
#323=EDGE_CURVE('',#371,#386,#387,.T.);
#324=EDGE_CURVE('',#382,#386,#388,.T.);
#325=FILL_AREA_STYLE('',(#389));
#326=EDGE_CURVE('',#361,#356,#390,.T.);
#327=EDGE_CURVE('',#345,#348,#391,.T.);
#328=FILL_AREA_STYLE('',(#392));
#329=EDGE_CURVE('',#375,#393,#394,.T.);
#330=EDGE_CURVE('',#395,#378,#396,.T.);
#331=EDGE_CURVE('',#393,#395,#397,.T.);
#332=FILL_AREA_STYLE('',(#398));
#333=EDGE_CURVE('',#395,#393,#399,.T.);
#334=EDGE_CURVE('',#378,#375,#400,.T.);
#335=FILL_AREA_STYLE('',(#401));
#336=EDGE_CURVE('',#386,#382,#402,.T.);
#337=FILL_AREA_STYLE('',(#403));
#338=FILL_AREA_STYLE('',(#404));
#339=EDGE_CURVE('',#383,#369,#405,.T.);
#340=EDGE_CURVE('',#367,#346,#406,.T.);
#341=FILL_AREA_STYLE('',(#407));
#342=FILL_AREA_STYLE('',(#408));
#343=FILL_AREA_STYLE('',(#409));
#344=FILL_AREA_STYLE_COLOUR('',#410);
#345=VERTEX_POINT('',#411);
#346=VERTEX_POINT('',#412);
#347=LINE('',#413,#414);
#348=VERTEX_POINT('',#415);
#349=CIRCLE('',#416,12.0);
#350=VERTEX_POINT('',#417);
#351=LINE('',#418,#419);
#352=VERTEX_POINT('',#420);
#353=CIRCLE('',#421,12.5);
#354=CIRCLE('',#422,12.5);
#355=FILL_AREA_STYLE_COLOUR('',#423);
#356=VERTEX_POINT('',#424);
#357=VERTEX_POINT('',#425);
#358=LINE('',#426,#427);
#359=VERTEX_POINT('',#428);
#360=CIRCLE('',#429,8.0);
#361=VERTEX_POINT('',#430);
#362=LINE('',#431,#432);
#363=CIRCLE('',#433,8.32);
#364=FILL_AREA_STYLE_COLOUR('',#434);
#365=VERTEX_POINT('',#435);
#366=LINE('',#436,#437);
#367=VERTEX_POINT('',#438);
#368=CIRCLE('',#439,12.5);
#369=VERTEX_POINT('',#440);
#370=LINE('',#441,#442);
#371=VERTEX_POINT('',#443);
#372=CIRCLE('',#444,12.5);
#373=CIRCLE('',#445,12.5);
#374=FILL_AREA_STYLE_COLOUR('',#446);
#375=VERTEX_POINT('',#447);
#376=LINE('',#448,#449);
#377=CIRCLE('',#450,8.0);
#378=VERTEX_POINT('',#451);
#379=LINE('',#452,#453);
#380=CIRCLE('',#454,8.0);
#381=FILL_AREA_STYLE_COLOUR('',#455);
#382=VERTEX_POINT('',#456);
#383=VERTEX_POINT('',#457);
#384=LINE('',#458,#459);
#385=CIRCLE('',#460,12.5);
#386=VERTEX_POINT('',#461);
#387=LINE('',#462,#463);
#388=CIRCLE('',#464,12.0);
#389=FILL_AREA_STYLE_COLOUR('',#465);
#390=CIRCLE('',#466,8.32);
#391=CIRCLE('',#467,12.0);
#392=FILL_AREA_STYLE_COLOUR('',#468);
#393=VERTEX_POINT('',#469);
#394=LINE('',#470,#471);
#395=VERTEX_POINT('',#472);
#396=LINE('',#473,#474);
#397=CIRCLE('',#475,8.32);
#398=FILL_AREA_STYLE_COLOUR('',#476);
#399=CIRCLE('',#477,8.32);
#400=CIRCLE('',#478,8.0);
#401=FILL_AREA_STYLE_COLOUR('',#479);
#402=CIRCLE('',#480,12.0);
#403=FILL_AREA_STYLE_COLOUR('',#481);
#404=FILL_AREA_STYLE_COLOUR('',#482);
#405=CIRCLE('',#483,12.5);
#406=CIRCLE('',#484,12.5);
#407=FILL_AREA_STYLE_COLOUR('',#485);
#408=FILL_AREA_STYLE_COLOUR('',#486);
#409=FILL_AREA_STYLE_COLOUR('',#487);
#410=COLOUR_RGB('',0.752941191196442,0.752941191196442,0.752941191196442);
#411=CARTESIAN_POINT('',(25.0,12.0,0.0));
#412=CARTESIAN_POINT('',(24.5,12.5,-1.22460635382238E-016));
#413=CARTESIAN_POINT('',(24.75,12.25,-1.56137310112353E-015));
#414=VECTOR('',#488,1.0);
#415=CARTESIAN_POINT('',(25.0,-12.0,1.46952762458685E-015));
#416=AXIS2_PLACEMENT_3D('',#489,#490,#491);
#417=CARTESIAN_POINT('',(24.5,-12.5,1.40829730689573E-015));
#418=CARTESIAN_POINT('',(24.75,-12.25,1.43891246574129E-015));
#419=VECTOR('',#492,1.0);
#420=CARTESIAN_POINT('',(24.5,-1.53075794227797E-015,-12.5));
#421=AXIS2_PLACEMENT_3D('',#493,#494,#495);
#422=AXIS2_PLACEMENT_3D('',#496,#497,#498);
#423=COLOUR_RGB('',0.752941191196442,0.752941191196442,0.752941191196442);
#424=CARTESIAN_POINT('',(25.0,8.32,0.0));
#425=CARTESIAN_POINT('',(24.68,8.0,0.0));
#426=CARTESIAN_POINT('',(24.84,8.16,-9.9927878471906E-016));
#427=VECTOR('',#499,1.0);
#428=CARTESIAN_POINT('',(24.68,-8.0,9.79685083057902E-016));
#429=AXIS2_PLACEMENT_3D('',#500,#501,#502);
#430=CARTESIAN_POINT('',(25.0,-8.32,1.01887248638022E-015));
#431=CARTESIAN_POINT('',(24.84,-8.16,9.9927878471906E-016));
#432=VECTOR('',#503,1.0);
#433=AXIS2_PLACEMENT_3D('',#504,#505,#506);
#434=COLOUR_RGB('',0.752941191196442,0.752941191196442,0.752941191196442);
#435=CARTESIAN_POINT('',(0.500000000000002,-1.53075794227797E-015,-12.5));
#436=CARTESIAN_POINT('',(12.5,-1.53075794227797E-015,-12.5));
#437=VECTOR('',#507,1.0);
#438=CARTESIAN_POINT('',(24.5,1.53075794227797E-015,12.5));
#439=AXIS2_PLACEMENT_3D('',#508,#509,#510);
#440=CARTESIAN_POINT('',(0.499999999999998,1.53075794227797E-015,12.5));
#441=CARTESIAN_POINT('',(12.5,1.53075794227797E-015,12.5));
#442=VECTOR('',#511,1.0);
#443=CARTESIAN_POINT('',(0.5,-12.5,-1.46952762458685E-015));
#444=AXIS2_PLACEMENT_3D('',#512,#513,#514);
#445=AXIS2_PLACEMENT_3D('',#515,#516,#517);
#446=COLOUR_RGB('',0.752941191196442,0.752941191196442,0.752941191196442);
#447=CARTESIAN_POINT('',(0.32,8.0,0.0));
#448=CARTESIAN_POINT('',(12.5,8.0,-9.79685083057902E-016));
#449=VECTOR('',#518,1.0);
#450=AXIS2_PLACEMENT_3D('',#519,#520,#521);
#451=CARTESIAN_POINT('',(0.32,-8.0,9.79685083057902E-016));
#452=CARTESIAN_POINT('',(12.5,-8.0,9.79685083057902E-016));
#453=VECTOR('',#522,1.0);
#454=AXIS2_PLACEMENT_3D('',#523,#524,#525);
#455=COLOUR_RGB('',0.752941191196442,0.752941191196442,0.752941191196442);
#456=CARTESIAN_POINT('',(0.0,12.0,0.0));
#457=CARTESIAN_POINT('',(0.5,12.5,6.12303176911189E-017));
#458=CARTESIAN_POINT('',(0.25,12.25,1.53075794227797E-015));
#459=VECTOR('',#526,1.0);
#460=AXIS2_PLACEMENT_3D('',#527,#528,#529);
#461=CARTESIAN_POINT('',(0.0,-12.0,-1.46952762458685E-015));
#462=CARTESIAN_POINT('',(0.25,-12.25,-1.46952762458685E-015));
#463=VECTOR('',#530,1.0);
#464=AXIS2_PLACEMENT_3D('',#531,#532,#533);
#465=COLOUR_RGB('',0.752941191196442,0.752941191196442,0.752941191196442);
#466=AXIS2_PLACEMENT_3D('',#534,#535,#536);
#467=AXIS2_PLACEMENT_3D('',#537,#538,#539);
#468=COLOUR_RGB('',0.752941191196442,0.752941191196442,0.752941191196442);
#469=CARTESIAN_POINT('',(0.0,8.32,0.0));
#470=CARTESIAN_POINT('',(0.16,8.16,-9.9927878471906E-016));
#471=VECTOR('',#540,1.0);
#472=CARTESIAN_POINT('',(0.0,-8.32,1.01887248638022E-015));
#473=CARTESIAN_POINT('',(0.16,-8.16,9.9927878471906E-016));
#474=VECTOR('',#541,1.0);
#475=AXIS2_PLACEMENT_3D('',#542,#543,#544);
#476=COLOUR_RGB('',0.752941191196442,0.752941191196442,0.752941191196442);
#477=AXIS2_PLACEMENT_3D('',#545,#546,#547);
#478=AXIS2_PLACEMENT_3D('',#548,#549,#550);
#479=COLOUR_RGB('',0.752941191196442,0.752941191196442,0.752941191196442);
#480=AXIS2_PLACEMENT_3D('',#551,#552,#553);
#481=COLOUR_RGB('',0.752941191196442,0.752941191196442,0.752941191196442);
#482=COLOUR_RGB('',0.752941191196442,0.752941191196442,0.752941191196442);
#483=AXIS2_PLACEMENT_3D('',#554,#555,#556);
#484=AXIS2_PLACEMENT_3D('',#557,#558,#559);
#485=COLOUR_RGB('',0.752941191196442,0.752941191196442,0.752941191196442);
#486=COLOUR_RGB('',0.752941191196442,0.752941191196442,0.752941191196442);
#487=COLOUR_RGB('',0.752941191196442,0.752941191196442,0.752941191196442);
#488=DIRECTION('',(-0.707106781186548,0.707106781186547,-2.59778237121581E-016));
#489=CARTESIAN_POINT('',(25.0,0.0,-1.23259516440783E-032));
#490=DIRECTION('',(1.0,0.0,0.0));
#491=DIRECTION('',(0.0,1.0,0.0));
#492=DIRECTION('',(0.707106781186548,0.707106781186547,8.65927457071935E-017));
#493=CARTESIAN_POINT('',(24.5,0.0,0.0));
#494=DIRECTION('',(-1.0,0.0,-2.44921270764475E-016));
#495=DIRECTION('',(2.44921270764475E-016,0.0,-1.0));
#496=CARTESIAN_POINT('',(24.5,0.0,0.0));
#497=DIRECTION('',(-1.0,0.0,-2.44921270764475E-016));
#498=DIRECTION('',(2.44921270764475E-016,0.0,-1.0));
#499=DIRECTION('',(-0.707106781186547,-0.707106781186548,8.65927457071935E-017));
#500=CARTESIAN_POINT('',(24.68,0.0,0.0));
#501=DIRECTION('',(1.0,0.0,0.0));
#502=DIRECTION('',(0.0,1.0,0.0));
#503=DIRECTION('',(0.707106781186547,-0.707106781186548,8.65927457071935E-017));
#504=CARTESIAN_POINT('',(25.0,0.0,0.0));
#505=DIRECTION('',(-1.0,0.0,0.0));
#506=DIRECTION('',(0.0,1.0,0.0));
#507=DIRECTION('',(1.0,0.0,0.0));
#508=CARTESIAN_POINT('',(24.5,0.0,0.0));
#509=DIRECTION('',(-1.0,0.0,-2.44921270764475E-016));
#510=DIRECTION('',(2.44921270764475E-016,0.0,-1.0));
#511=DIRECTION('',(-1.0,-0.0,-0.0));
#512=CARTESIAN_POINT('',(0.5,0.0,0.0));
#513=DIRECTION('',(1.0,0.0,1.22460635382238E-016));
#514=DIRECTION('',(1.22460635382238E-016,0.0,-1.0));
#515=CARTESIAN_POINT('',(0.5,0.0,0.0));
#516=DIRECTION('',(1.0,0.0,1.22460635382238E-016));
#517=DIRECTION('',(1.22460635382238E-016,0.0,-1.0));
#518=DIRECTION('',(-1.0,-0.0,0.0));
#519=CARTESIAN_POINT('',(24.68,0.0,0.0));
#520=DIRECTION('',(1.0,0.0,0.0));
#521=DIRECTION('',(0.0,1.0,0.0));
#522=DIRECTION('',(1.0,-0.0,0.0));
#523=CARTESIAN_POINT('',(0.32,0.0,0.0));
#524=DIRECTION('',(1.0,0.0,0.0));
#525=DIRECTION('',(0.0,1.0,0.0));
#526=DIRECTION('',(0.707106781186548,0.707106781186547,1.73185491414387E-016));
#527=CARTESIAN_POINT('',(0.5,0.0,0.0));
#528=DIRECTION('',(1.0,0.0,1.22460635382238E-016));
#529=DIRECTION('',(1.22460635382238E-016,0.0,-1.0));
#530=DIRECTION('',(-0.707106781186548,0.707106781186547,1.60992021473676E-032));
#531=CARTESIAN_POINT('',(0.0,0.0,6.16297582203915E-033));
#532=DIRECTION('',(-1.0,0.0,0.0));
#533=DIRECTION('',(0.0,1.0,0.0));
#534=CARTESIAN_POINT('',(25.0,0.0,0.0));
#535=DIRECTION('',(-1.0,0.0,0.0));
#536=DIRECTION('',(0.0,1.0,0.0));
#537=CARTESIAN_POINT('',(25.0,0.0,-1.23259516440783E-032));
#538=DIRECTION('',(1.0,0.0,0.0));
#539=DIRECTION('',(0.0,1.0,0.0));
#540=DIRECTION('',(-0.707106781186547,0.707106781186548,-8.65927457071936E-017));
#541=DIRECTION('',(0.707106781186547,0.707106781186548,-8.65927457071936E-017));
#542=CARTESIAN_POINT('',(0.0,0.0,0.0));
#543=DIRECTION('',(1.0,0.0,0.0));
#544=DIRECTION('',(0.0,1.0,0.0));
#545=CARTESIAN_POINT('',(0.0,0.0,0.0));
#546=DIRECTION('',(1.0,0.0,0.0));
#547=DIRECTION('',(0.0,1.0,0.0));
#548=CARTESIAN_POINT('',(0.32,0.0,0.0));
#549=DIRECTION('',(1.0,0.0,0.0));
#550=DIRECTION('',(0.0,1.0,0.0));
#551=CARTESIAN_POINT('',(0.0,0.0,6.16297582203915E-033));
#552=DIRECTION('',(-1.0,0.0,0.0));
#553=DIRECTION('',(0.0,1.0,0.0));
#554=CARTESIAN_POINT('',(0.5,0.0,0.0));
#555=DIRECTION('',(1.0,0.0,1.22460635382238E-016));
#556=DIRECTION('',(1.22460635382238E-016,0.0,-1.0));
#557=CARTESIAN_POINT('',(24.5,0.0,0.0));
#558=DIRECTION('',(-1.0,0.0,-2.44921270764475E-016));
#559=DIRECTION('',(2.44921270764475E-016,0.0,-1.0));
ENDSEC;
END-ISO-10303-21;
