ISO-10303-21;
HEADER;
FILE_DESCRIPTION(('STEP AP214'),'1');
FILE_NAME('C:/Temp/output/halder/CAD/Temp/HALDERN_EH_23111_0802.stp','2015-05-04T09:25:16',('TraceParts'),('TraceParts S.A.'),'Spatial InterOp 3D',' ',' ');
FILE_SCHEMA(('automotive_design'));
ENDSEC;
DATA;
#1=MECHANICAL_DESIGN_GEOMETRIC_PRESENTATION_REPRESENTATION(' ',(#10,#11,#12,#13,#14,#15,#16,#17,#18,#19,#20,#21,#22,#23),#6);
#2=PRODUCT_DEFINITION_CONTEXT('',#24,'design');
#3=APPLICATION_PROTOCOL_DEFINITION('INTERNATIONAL STANDARD','automotive_design',1994,#24);
#4=PRODUCT_CATEGORY_RELATIONSHIP('NONE','NONE',#25,#26);
#5=SHAPE_DEFINITION_REPRESENTATION(#27,#28);
#6= (GEOMETRIC_REPRESENTATION_CONTEXT(3)GLOBAL_UNCERTAINTY_ASSIGNED_CONTEXT((#31))GLOBAL_UNIT_ASSIGNED_CONTEXT((#33,#34,#35))REPRESENTATION_CONTEXT('NONE','WORKSPACE'));
#10=STYLED_ITEM('',(#37),#38);
#11=STYLED_ITEM('',(#39),#40);
#12=STYLED_ITEM('',(#41),#42);
#13=STYLED_ITEM('',(#43),#44);
#14=STYLED_ITEM('',(#45),#46);
#15=STYLED_ITEM('',(#47),#48);
#16=STYLED_ITEM('',(#49),#50);
#17=STYLED_ITEM('',(#51),#52);
#18=STYLED_ITEM('',(#53),#54);
#19=STYLED_ITEM('',(#55),#56);
#20=STYLED_ITEM('',(#57),#58);
#21=STYLED_ITEM('',(#59),#60);
#22=STYLED_ITEM('',(#61),#62);
#23=STYLED_ITEM('',(#63),#64);
#24=APPLICATION_CONTEXT(' ');
#25=PRODUCT_CATEGORY('part','NONE');
#26=PRODUCT_RELATED_PRODUCT_CATEGORY('detail',' ',(#65));
#27=PRODUCT_DEFINITION_SHAPE('NONE','NONE',#66);
#28=ADVANCED_BREP_SHAPE_REPRESENTATION('1',(#67,#68),#6);
#31=UNCERTAINTY_MEASURE_WITH_UNIT(LENGTH_MEASURE(1.0E-006),#33,'','');
#33= (CONVERSION_BASED_UNIT('MILLIMETRE',#71)LENGTH_UNIT()NAMED_UNIT(#74));
#34= (NAMED_UNIT(#76)PLANE_ANGLE_UNIT()SI_UNIT($,.RADIAN.));
#35= (NAMED_UNIT(#76)SOLID_ANGLE_UNIT()SI_UNIT($,.STERADIAN.));
#37=PRESENTATION_STYLE_ASSIGNMENT((#82));
#38=ADVANCED_FACE('',(#83,#84),#85,.T.);
#39=PRESENTATION_STYLE_ASSIGNMENT((#86));
#40=ADVANCED_FACE('',(#87),#88,.F.);
#41=PRESENTATION_STYLE_ASSIGNMENT((#89));
#42=ADVANCED_FACE('',(#90),#91,.F.);
#43=PRESENTATION_STYLE_ASSIGNMENT((#92));
#44=ADVANCED_FACE('',(#93),#94,.F.);
#45=PRESENTATION_STYLE_ASSIGNMENT((#95));
#46=ADVANCED_FACE('',(#96),#97,.T.);
#47=PRESENTATION_STYLE_ASSIGNMENT((#98));
#48=ADVANCED_FACE('',(#99),#100,.T.);
#49=PRESENTATION_STYLE_ASSIGNMENT((#101));
#50=ADVANCED_FACE('',(#102),#103,.F.);
#51=PRESENTATION_STYLE_ASSIGNMENT((#104));
#52=ADVANCED_FACE('',(#105),#106,.T.);
#53=PRESENTATION_STYLE_ASSIGNMENT((#107));
#54=ADVANCED_FACE('',(#108),#109,.T.);
#55=PRESENTATION_STYLE_ASSIGNMENT((#110));
#56=ADVANCED_FACE('',(#111,#112),#113,.T.);
#57=PRESENTATION_STYLE_ASSIGNMENT((#114));
#58=ADVANCED_FACE('',(#115),#116,.F.);
#59=PRESENTATION_STYLE_ASSIGNMENT((#117));
#60=ADVANCED_FACE('',(#118),#119,.T.);
#61=PRESENTATION_STYLE_ASSIGNMENT((#120));
#62=ADVANCED_FACE('',(#121),#122,.F.);
#63=PRESENTATION_STYLE_ASSIGNMENT((#123));
#64=ADVANCED_FACE('',(#124),#125,.T.);
#65=PRODUCT('1','1','PART-1-DESC',(#126));
#66=PRODUCT_DEFINITION('NONE','NONE',#127,#2);
#67=MANIFOLD_SOLID_BREP('1',#128);
#68=AXIS2_PLACEMENT_3D('',#129,#130,#131);
#71=LENGTH_MEASURE_WITH_UNIT(LENGTH_MEASURE(1.0),#132);
#74=DIMENSIONAL_EXPONENTS(1.0,0.0,0.0,0.0,0.0,0.0,0.0);
#76=DIMENSIONAL_EXPONENTS(0.0,0.0,0.0,0.0,0.0,0.0,0.0);
#82=SURFACE_STYLE_USAGE(.BOTH.,#133);
#83=FACE_BOUND('',#134,.T.);
#84=FACE_OUTER_BOUND('',#135,.T.);
#85=PLANE('',#136);
#86=SURFACE_STYLE_USAGE(.BOTH.,#137);
#87=FACE_OUTER_BOUND('',#138,.T.);
#88=CONICAL_SURFACE('',#139,8.16,0.785398163397448);
#89=SURFACE_STYLE_USAGE(.BOTH.,#140);
#90=FACE_OUTER_BOUND('',#141,.T.);
#91=CONICAL_SURFACE('',#142,8.16,0.785398163397449);
#92=SURFACE_STYLE_USAGE(.BOTH.,#143);
#93=FACE_OUTER_BOUND('',#144,.T.);
#94=CONICAL_SURFACE('',#145,8.16,0.785398163397449);
#95=SURFACE_STYLE_USAGE(.BOTH.,#146);
#96=FACE_OUTER_BOUND('',#147,.T.);
#97=CYLINDRICAL_SURFACE('',#148,12.5);
#98=SURFACE_STYLE_USAGE(.BOTH.,#149);
#99=FACE_OUTER_BOUND('',#150,.T.);
#100=CONICAL_SURFACE('',#151,12.25,0.785398163397448);
#101=SURFACE_STYLE_USAGE(.BOTH.,#152);
#102=FACE_OUTER_BOUND('',#153,.T.);
#103=CYLINDRICAL_SURFACE('',#154,8.0);
#104=SURFACE_STYLE_USAGE(.BOTH.,#155);
#105=FACE_OUTER_BOUND('',#156,.T.);
#106=CONICAL_SURFACE('',#157,12.25,0.785398163397448);
#107=SURFACE_STYLE_USAGE(.BOTH.,#158);
#108=FACE_OUTER_BOUND('',#159,.T.);
#109=CONICAL_SURFACE('',#160,12.25,0.785398163397448);
#110=SURFACE_STYLE_USAGE(.BOTH.,#161);
#111=FACE_BOUND('',#162,.T.);
#112=FACE_OUTER_BOUND('',#163,.T.);
#113=PLANE('',#164);
#114=SURFACE_STYLE_USAGE(.BOTH.,#165);
#115=FACE_OUTER_BOUND('',#166,.T.);
#116=CONICAL_SURFACE('',#167,8.16,0.785398163397448);
#117=SURFACE_STYLE_USAGE(.BOTH.,#168);
#118=FACE_OUTER_BOUND('',#169,.T.);
#119=CONICAL_SURFACE('',#170,12.25,0.785398163397448);
#120=SURFACE_STYLE_USAGE(.BOTH.,#171);
#121=FACE_OUTER_BOUND('',#172,.T.);
#122=CYLINDRICAL_SURFACE('',#173,8.0);
#123=SURFACE_STYLE_USAGE(.BOTH.,#174);
#124=FACE_OUTER_BOUND('',#175,.T.);
#125=CYLINDRICAL_SURFACE('',#176,12.5);
#126=PRODUCT_CONTEXT('',#24,'mechanical');
#127=PRODUCT_DEFINITION_FORMATION_WITH_SPECIFIED_SOURCE(' ','NONE',#65,.NOT_KNOWN.);
#128=CLOSED_SHELL('',(#46,#60,#52,#58,#50,#42,#44,#62,#40,#48,#54,#64,#38,#56));
#129=CARTESIAN_POINT('',(0.0,0.0,0.0));
#130=DIRECTION('',(0.0,0.0,1.0));
#131=DIRECTION('',(1.0,0.0,0.0));
#132= (NAMED_UNIT(#74)LENGTH_UNIT()SI_UNIT(.MILLI.,.METRE.));
#133=SURFACE_SIDE_STYLE('',(#178));
#134=EDGE_LOOP('',(#179,#180));
#135=EDGE_LOOP('',(#181,#182));
#136=AXIS2_PLACEMENT_3D('',#183,#184,#185);
#137=SURFACE_SIDE_STYLE('',(#186));
#138=EDGE_LOOP('',(#187,#188,#189,#190));
#139=AXIS2_PLACEMENT_3D('',#191,#192,#193);
#140=SURFACE_SIDE_STYLE('',(#194));
#141=EDGE_LOOP('',(#195,#196,#197,#198));
#142=AXIS2_PLACEMENT_3D('',#199,#200,#201);
#143=SURFACE_SIDE_STYLE('',(#202));
#144=EDGE_LOOP('',(#203,#204,#205,#206));
#145=AXIS2_PLACEMENT_3D('',#207,#208,#209);
#146=SURFACE_SIDE_STYLE('',(#210));
#147=EDGE_LOOP('',(#211,#212,#213,#214,#215,#216));
#148=AXIS2_PLACEMENT_3D('',#217,#218,#219);
#149=SURFACE_SIDE_STYLE('',(#220));
#150=EDGE_LOOP('',(#221,#222,#223,#224,#225));
#151=AXIS2_PLACEMENT_3D('',#226,#227,#228);
#152=SURFACE_SIDE_STYLE('',(#229));
#153=EDGE_LOOP('',(#230,#231,#232,#233));
#154=AXIS2_PLACEMENT_3D('',#234,#235,#236);
#155=SURFACE_SIDE_STYLE('',(#237));
#156=EDGE_LOOP('',(#238,#239,#240,#241,#242));
#157=AXIS2_PLACEMENT_3D('',#243,#244,#245);
#158=SURFACE_SIDE_STYLE('',(#246));
#159=EDGE_LOOP('',(#247,#248,#249,#250,#251));
#160=AXIS2_PLACEMENT_3D('',#252,#253,#254);
#161=SURFACE_SIDE_STYLE('',(#255));
#162=EDGE_LOOP('',(#256,#257));
#163=EDGE_LOOP('',(#258,#259));
#164=AXIS2_PLACEMENT_3D('',#260,#261,#262);
#165=SURFACE_SIDE_STYLE('',(#263));
#166=EDGE_LOOP('',(#264,#265,#266,#267));
#167=AXIS2_PLACEMENT_3D('',#268,#269,#270);
#168=SURFACE_SIDE_STYLE('',(#271));
#169=EDGE_LOOP('',(#272,#273,#274,#275,#276));
#170=AXIS2_PLACEMENT_3D('',#277,#278,#279);
#171=SURFACE_SIDE_STYLE('',(#280));
#172=EDGE_LOOP('',(#281,#282,#283,#284));
#173=AXIS2_PLACEMENT_3D('',#285,#286,#287);
#174=SURFACE_SIDE_STYLE('',(#288));
#175=EDGE_LOOP('',(#289,#290,#291,#292,#293,#294));
#176=AXIS2_PLACEMENT_3D('',#295,#296,#297);
#178=SURFACE_STYLE_FILL_AREA(#298);
#179=ORIENTED_EDGE('',*,*,#299,.T.);
#180=ORIENTED_EDGE('',*,*,#300,.T.);
#181=ORIENTED_EDGE('',*,*,#301,.T.);
#182=ORIENTED_EDGE('',*,*,#302,.T.);
#183=CARTESIAN_POINT('',(0.0,0.0,0.0));
#184=DIRECTION('',(-1.0,0.0,0.0));
#185=DIRECTION('',(0.0,0.0,1.0));
#186=SURFACE_STYLE_FILL_AREA(#303);
#187=ORIENTED_EDGE('',*,*,#304,.T.);
#188=ORIENTED_EDGE('',*,*,#305,.F.);
#189=ORIENTED_EDGE('',*,*,#306,.T.);
#190=ORIENTED_EDGE('',*,*,#307,.F.);
#191=CARTESIAN_POINT('',(19.84,0.0,0.0));
#192=DIRECTION('',(1.0,-0.0,-0.0));
#193=DIRECTION('',(0.0,1.0,0.0));
#194=SURFACE_STYLE_FILL_AREA(#308);
#195=ORIENTED_EDGE('',*,*,#309,.F.);
#196=ORIENTED_EDGE('',*,*,#310,.T.);
#197=ORIENTED_EDGE('',*,*,#311,.F.);
#198=ORIENTED_EDGE('',*,*,#299,.F.);
#199=CARTESIAN_POINT('',(0.16,0.0,0.0));
#200=DIRECTION('',(-1.0,-0.0,-0.0));
#201=DIRECTION('',(0.0,1.0,0.0));
#202=SURFACE_STYLE_FILL_AREA(#312);
#203=ORIENTED_EDGE('',*,*,#309,.T.);
#204=ORIENTED_EDGE('',*,*,#300,.F.);
#205=ORIENTED_EDGE('',*,*,#311,.T.);
#206=ORIENTED_EDGE('',*,*,#313,.T.);
#207=CARTESIAN_POINT('',(0.16,0.0,0.0));
#208=DIRECTION('',(-1.0,-0.0,-0.0));
#209=DIRECTION('',(0.0,1.0,0.0));
#210=SURFACE_STYLE_FILL_AREA(#314);
#211=ORIENTED_EDGE('',*,*,#315,.F.);
#212=ORIENTED_EDGE('',*,*,#316,.T.);
#213=ORIENTED_EDGE('',*,*,#317,.T.);
#214=ORIENTED_EDGE('',*,*,#318,.F.);
#215=ORIENTED_EDGE('',*,*,#319,.T.);
#216=ORIENTED_EDGE('',*,*,#320,.T.);
#217=CARTESIAN_POINT('',(10.0,0.0,0.0));
#218=DIRECTION('',(1.0,0.0,0.0));
#219=DIRECTION('',(0.0,0.0,-1.0));
#220=SURFACE_STYLE_FILL_AREA(#321);
#221=ORIENTED_EDGE('',*,*,#322,.T.);
#222=ORIENTED_EDGE('',*,*,#319,.F.);
#223=ORIENTED_EDGE('',*,*,#323,.F.);
#224=ORIENTED_EDGE('',*,*,#324,.T.);
#225=ORIENTED_EDGE('',*,*,#325,.F.);
#226=CARTESIAN_POINT('',(19.75,0.0,-6.12303176911189E-017));
#227=DIRECTION('',(-1.0,0.0,-2.44921270764475E-016));
#228=DIRECTION('',(0.0,1.0,0.0));
#229=SURFACE_STYLE_FILL_AREA(#326);
#230=ORIENTED_EDGE('',*,*,#327,.F.);
#231=ORIENTED_EDGE('',*,*,#328,.T.);
#232=ORIENTED_EDGE('',*,*,#329,.F.);
#233=ORIENTED_EDGE('',*,*,#310,.F.);
#234=CARTESIAN_POINT('',(10.0,0.0,0.0));
#235=DIRECTION('',(1.0,0.0,0.0));
#236=DIRECTION('',(0.0,1.0,0.0));
#237=SURFACE_STYLE_FILL_AREA(#330);
#238=ORIENTED_EDGE('',*,*,#322,.F.);
#239=ORIENTED_EDGE('',*,*,#331,.F.);
#240=ORIENTED_EDGE('',*,*,#324,.F.);
#241=ORIENTED_EDGE('',*,*,#332,.F.);
#242=ORIENTED_EDGE('',*,*,#320,.F.);
#243=CARTESIAN_POINT('',(19.75,0.0,-6.12303176911189E-017));
#244=DIRECTION('',(-1.0,0.0,-2.44921270764475E-016));
#245=DIRECTION('',(0.0,1.0,0.0));
#246=SURFACE_STYLE_FILL_AREA(#333);
#247=ORIENTED_EDGE('',*,*,#334,.T.);
#248=ORIENTED_EDGE('',*,*,#316,.F.);
#249=ORIENTED_EDGE('',*,*,#335,.F.);
#250=ORIENTED_EDGE('',*,*,#336,.T.);
#251=ORIENTED_EDGE('',*,*,#301,.F.);
#252=CARTESIAN_POINT('',(0.25,0.0,3.06151588455594E-017));
#253=DIRECTION('',(1.0,-0.0,1.22460635382238E-016));
#254=DIRECTION('',(0.0,1.0,0.0));
#255=SURFACE_STYLE_FILL_AREA(#337);
#256=ORIENTED_EDGE('',*,*,#307,.T.);
#257=ORIENTED_EDGE('',*,*,#338,.T.);
#258=ORIENTED_EDGE('',*,*,#325,.T.);
#259=ORIENTED_EDGE('',*,*,#331,.T.);
#260=CARTESIAN_POINT('',(20.0,0.0,0.0));
#261=DIRECTION('',(1.0,0.0,0.0));
#262=DIRECTION('',(0.0,0.0,-1.0));
#263=SURFACE_STYLE_FILL_AREA(#339);
#264=ORIENTED_EDGE('',*,*,#304,.F.);
#265=ORIENTED_EDGE('',*,*,#338,.F.);
#266=ORIENTED_EDGE('',*,*,#306,.F.);
#267=ORIENTED_EDGE('',*,*,#328,.F.);
#268=CARTESIAN_POINT('',(19.84,0.0,0.0));
#269=DIRECTION('',(1.0,-0.0,-0.0));
#270=DIRECTION('',(0.0,1.0,0.0));
#271=SURFACE_STYLE_FILL_AREA(#340);
#272=ORIENTED_EDGE('',*,*,#334,.F.);
#273=ORIENTED_EDGE('',*,*,#302,.F.);
#274=ORIENTED_EDGE('',*,*,#336,.F.);
#275=ORIENTED_EDGE('',*,*,#341,.F.);
#276=ORIENTED_EDGE('',*,*,#317,.F.);
#277=CARTESIAN_POINT('',(0.25,0.0,3.06151588455594E-017));
#278=DIRECTION('',(1.0,-0.0,1.22460635382238E-016));
#279=DIRECTION('',(0.0,1.0,0.0));
#280=SURFACE_STYLE_FILL_AREA(#342);
#281=ORIENTED_EDGE('',*,*,#327,.T.);
#282=ORIENTED_EDGE('',*,*,#313,.F.);
#283=ORIENTED_EDGE('',*,*,#329,.T.);
#284=ORIENTED_EDGE('',*,*,#305,.T.);
#285=CARTESIAN_POINT('',(10.0,0.0,0.0));
#286=DIRECTION('',(1.0,0.0,0.0));
#287=DIRECTION('',(0.0,1.0,0.0));
#288=SURFACE_STYLE_FILL_AREA(#343);
#289=ORIENTED_EDGE('',*,*,#315,.T.);
#290=ORIENTED_EDGE('',*,*,#332,.T.);
#291=ORIENTED_EDGE('',*,*,#323,.T.);
#292=ORIENTED_EDGE('',*,*,#318,.T.);
#293=ORIENTED_EDGE('',*,*,#341,.T.);
#294=ORIENTED_EDGE('',*,*,#335,.T.);
#295=CARTESIAN_POINT('',(10.0,0.0,0.0));
#296=DIRECTION('',(1.0,0.0,0.0));
#297=DIRECTION('',(0.0,0.0,-1.0));
#298=FILL_AREA_STYLE('',(#344));
#299=EDGE_CURVE('',#345,#346,#347,.T.);
#300=EDGE_CURVE('',#346,#345,#348,.T.);
#301=EDGE_CURVE('',#349,#350,#351,.T.);
#302=EDGE_CURVE('',#350,#349,#352,.T.);
#303=FILL_AREA_STYLE('',(#353));
#304=EDGE_CURVE('',#354,#355,#356,.T.);
#305=EDGE_CURVE('',#357,#355,#358,.T.);
#306=EDGE_CURVE('',#357,#359,#360,.T.);
#307=EDGE_CURVE('',#354,#359,#361,.T.);
#308=FILL_AREA_STYLE('',(#362));
#309=EDGE_CURVE('',#363,#345,#364,.T.);
#310=EDGE_CURVE('',#363,#365,#366,.T.);
#311=EDGE_CURVE('',#346,#365,#367,.T.);
#312=FILL_AREA_STYLE('',(#368));
#313=EDGE_CURVE('',#365,#363,#369,.T.);
#314=FILL_AREA_STYLE('',(#370));
#315=EDGE_CURVE('',#371,#372,#373,.T.);
#316=EDGE_CURVE('',#371,#374,#375,.T.);
#317=EDGE_CURVE('',#374,#376,#377,.T.);
#318=EDGE_CURVE('',#378,#376,#379,.T.);
#319=EDGE_CURVE('',#378,#380,#381,.T.);
#320=EDGE_CURVE('',#380,#372,#382,.T.);
#321=FILL_AREA_STYLE('',(#383));
#322=EDGE_CURVE('',#384,#380,#385,.T.);
#323=EDGE_CURVE('',#386,#378,#387,.T.);
#324=EDGE_CURVE('',#386,#388,#389,.T.);
#325=EDGE_CURVE('',#384,#388,#390,.T.);
#326=FILL_AREA_STYLE('',(#391));
#327=EDGE_CURVE('',#355,#363,#392,.T.);
#328=EDGE_CURVE('',#355,#357,#393,.T.);
#329=EDGE_CURVE('',#365,#357,#394,.T.);
#330=FILL_AREA_STYLE('',(#395));
#331=EDGE_CURVE('',#388,#384,#396,.T.);
#332=EDGE_CURVE('',#372,#386,#397,.T.);
#333=FILL_AREA_STYLE('',(#398));
#334=EDGE_CURVE('',#349,#374,#399,.T.);
#335=EDGE_CURVE('',#400,#371,#401,.T.);
#336=EDGE_CURVE('',#400,#350,#402,.T.);
#337=FILL_AREA_STYLE('',(#403));
#338=EDGE_CURVE('',#359,#354,#404,.T.);
#339=FILL_AREA_STYLE('',(#405));
#340=FILL_AREA_STYLE('',(#406));
#341=EDGE_CURVE('',#376,#400,#407,.T.);
#342=FILL_AREA_STYLE('',(#408));
#343=FILL_AREA_STYLE('',(#409));
#344=FILL_AREA_STYLE_COLOUR('',#410);
#345=VERTEX_POINT('',#411);
#346=VERTEX_POINT('',#412);
#347=CIRCLE('',#413,8.32);
#348=CIRCLE('',#414,8.32);
#349=VERTEX_POINT('',#415);
#350=VERTEX_POINT('',#416);
#351=CIRCLE('',#417,12.0);
#352=CIRCLE('',#418,12.0);
#353=FILL_AREA_STYLE_COLOUR('',#419);
#354=VERTEX_POINT('',#420);
#355=VERTEX_POINT('',#421);
#356=LINE('',#422,#423);
#357=VERTEX_POINT('',#424);
#358=CIRCLE('',#425,8.0);
#359=VERTEX_POINT('',#426);
#360=LINE('',#427,#428);
#361=CIRCLE('',#429,8.32);
#362=FILL_AREA_STYLE_COLOUR('',#430);
#363=VERTEX_POINT('',#431);
#364=LINE('',#432,#433);
#365=VERTEX_POINT('',#434);
#366=CIRCLE('',#435,8.0);
#367=LINE('',#436,#437);
#368=FILL_AREA_STYLE_COLOUR('',#438);
#369=CIRCLE('',#439,8.0);
#370=FILL_AREA_STYLE_COLOUR('',#440);
#371=VERTEX_POINT('',#441);
#372=VERTEX_POINT('',#442);
#373=LINE('',#443,#444);
#374=VERTEX_POINT('',#445);
#375=CIRCLE('',#446,12.5);
#376=VERTEX_POINT('',#447);
#377=CIRCLE('',#448,12.5);
#378=VERTEX_POINT('',#449);
#379=LINE('',#450,#451);
#380=VERTEX_POINT('',#452);
#381=CIRCLE('',#453,12.5);
#382=CIRCLE('',#454,12.5);
#383=FILL_AREA_STYLE_COLOUR('',#455);
#384=VERTEX_POINT('',#456);
#385=LINE('',#457,#458);
#386=VERTEX_POINT('',#459);
#387=CIRCLE('',#460,12.5);
#388=VERTEX_POINT('',#461);
#389=LINE('',#462,#463);
#390=CIRCLE('',#464,12.0);
#391=FILL_AREA_STYLE_COLOUR('',#465);
#392=LINE('',#466,#467);
#393=CIRCLE('',#468,8.0);
#394=LINE('',#469,#470);
#395=FILL_AREA_STYLE_COLOUR('',#471);
#396=CIRCLE('',#472,12.0);
#397=CIRCLE('',#473,12.5);
#398=FILL_AREA_STYLE_COLOUR('',#474);
#399=LINE('',#475,#476);
#400=VERTEX_POINT('',#477);
#401=CIRCLE('',#478,12.5);
#402=LINE('',#479,#480);
#403=FILL_AREA_STYLE_COLOUR('',#481);
#404=CIRCLE('',#482,8.32);
#405=FILL_AREA_STYLE_COLOUR('',#483);
#406=FILL_AREA_STYLE_COLOUR('',#484);
#407=CIRCLE('',#485,12.5);
#408=FILL_AREA_STYLE_COLOUR('',#486);
#409=FILL_AREA_STYLE_COLOUR('',#487);
#410=COLOUR_RGB('',0.752941191196442,0.752941191196442,0.752941191196442);
#411=CARTESIAN_POINT('',(0.0,8.32,0.0));
#412=CARTESIAN_POINT('',(0.0,-8.32,1.01887248638022E-015));
#413=AXIS2_PLACEMENT_3D('',#488,#489,#490);
#414=AXIS2_PLACEMENT_3D('',#491,#492,#493);
#415=CARTESIAN_POINT('',(0.0,12.0,0.0));
#416=CARTESIAN_POINT('',(0.0,-12.0,-1.46952762458685E-015));
#417=AXIS2_PLACEMENT_3D('',#494,#495,#496);
#418=AXIS2_PLACEMENT_3D('',#497,#498,#499);
#419=COLOUR_RGB('',0.752941191196442,0.752941191196442,0.752941191196442);
#420=CARTESIAN_POINT('',(20.0,8.32,0.0));
#421=CARTESIAN_POINT('',(19.68,8.0,0.0));
#422=CARTESIAN_POINT('',(19.84,8.16,-9.9927878471906E-016));
#423=VECTOR('',#500,1.0);
#424=CARTESIAN_POINT('',(19.68,-8.0,9.79685083057902E-016));
#425=AXIS2_PLACEMENT_3D('',#501,#502,#503);
#426=CARTESIAN_POINT('',(20.0,-8.32,1.01887248638022E-015));
#427=CARTESIAN_POINT('',(19.84,-8.16,9.9927878471906E-016));
#428=VECTOR('',#504,1.0);
#429=AXIS2_PLACEMENT_3D('',#505,#506,#507);
#430=COLOUR_RGB('',0.752941191196442,0.752941191196442,0.752941191196442);
#431=CARTESIAN_POINT('',(0.32,8.0,0.0));
#432=CARTESIAN_POINT('',(0.16,8.16,-9.9927878471906E-016));
#433=VECTOR('',#508,1.0);
#434=CARTESIAN_POINT('',(0.32,-8.0,9.79685083057902E-016));
#435=AXIS2_PLACEMENT_3D('',#509,#510,#511);
#436=CARTESIAN_POINT('',(0.16,-8.16,9.9927878471906E-016));
#437=VECTOR('',#512,1.0);
#438=COLOUR_RGB('',0.752941191196442,0.752941191196442,0.752941191196442);
#439=AXIS2_PLACEMENT_3D('',#513,#514,#515);
#440=COLOUR_RGB('',0.752941191196442,0.752941191196442,0.752941191196442);
#441=CARTESIAN_POINT('',(0.500000000000002,-1.53075794227797E-015,-12.5));
#442=CARTESIAN_POINT('',(19.5,-1.53075794227797E-015,-12.5));
#443=CARTESIAN_POINT('',(10.0,-1.53075794227797E-015,-12.5));
#444=VECTOR('',#516,1.0);
#445=CARTESIAN_POINT('',(0.5,12.5,6.12303176911189E-017));
#446=AXIS2_PLACEMENT_3D('',#517,#518,#519);
#447=CARTESIAN_POINT('',(0.499999999999998,1.53075794227797E-015,12.5));
#448=AXIS2_PLACEMENT_3D('',#520,#521,#522);
#449=CARTESIAN_POINT('',(19.5,1.53075794227797E-015,12.5));
#450=CARTESIAN_POINT('',(10.0,1.53075794227797E-015,12.5));
#451=VECTOR('',#523,1.0);
#452=CARTESIAN_POINT('',(19.5,12.5,-1.22460635382238E-016));
#453=AXIS2_PLACEMENT_3D('',#524,#525,#526);
#454=AXIS2_PLACEMENT_3D('',#527,#528,#529);
#455=COLOUR_RGB('',0.752941191196442,0.752941191196442,0.752941191196442);
#456=CARTESIAN_POINT('',(20.0,12.0,0.0));
#457=CARTESIAN_POINT('',(19.75,12.25,-1.56137310112353E-015));
#458=VECTOR('',#530,1.0);
#459=CARTESIAN_POINT('',(19.5,-12.5,1.40829730689573E-015));
#460=AXIS2_PLACEMENT_3D('',#531,#532,#533);
#461=CARTESIAN_POINT('',(20.0,-12.0,1.46952762458685E-015));
#462=CARTESIAN_POINT('',(19.75,-12.25,1.43891246574129E-015));
#463=VECTOR('',#534,1.0);
#464=AXIS2_PLACEMENT_3D('',#535,#536,#537);
#465=COLOUR_RGB('',0.752941191196442,0.752941191196442,0.752941191196442);
#466=CARTESIAN_POINT('',(10.0,8.0,-9.79685083057902E-016));
#467=VECTOR('',#538,1.0);
#468=AXIS2_PLACEMENT_3D('',#539,#540,#541);
#469=CARTESIAN_POINT('',(10.0,-8.0,9.79685083057902E-016));
#470=VECTOR('',#542,1.0);
#471=COLOUR_RGB('',0.752941191196442,0.752941191196442,0.752941191196442);
#472=AXIS2_PLACEMENT_3D('',#543,#544,#545);
#473=AXIS2_PLACEMENT_3D('',#546,#547,#548);
#474=COLOUR_RGB('',0.752941191196442,0.752941191196442,0.752941191196442);
#475=CARTESIAN_POINT('',(0.25,12.25,1.53075794227797E-015));
#476=VECTOR('',#549,1.0);
#477=CARTESIAN_POINT('',(0.5,-12.5,-1.46952762458685E-015));
#478=AXIS2_PLACEMENT_3D('',#550,#551,#552);
#479=CARTESIAN_POINT('',(0.25,-12.25,-1.46952762458685E-015));
#480=VECTOR('',#553,1.0);
#481=COLOUR_RGB('',0.752941191196442,0.752941191196442,0.752941191196442);
#482=AXIS2_PLACEMENT_3D('',#554,#555,#556);
#483=COLOUR_RGB('',0.752941191196442,0.752941191196442,0.752941191196442);
#484=COLOUR_RGB('',0.752941191196442,0.752941191196442,0.752941191196442);
#485=AXIS2_PLACEMENT_3D('',#557,#558,#559);
#486=COLOUR_RGB('',0.752941191196442,0.752941191196442,0.752941191196442);
#487=COLOUR_RGB('',0.752941191196442,0.752941191196442,0.752941191196442);
#488=CARTESIAN_POINT('',(0.0,0.0,0.0));
#489=DIRECTION('',(1.0,0.0,0.0));
#490=DIRECTION('',(0.0,1.0,0.0));
#491=CARTESIAN_POINT('',(0.0,0.0,0.0));
#492=DIRECTION('',(1.0,0.0,0.0));
#493=DIRECTION('',(0.0,1.0,0.0));
#494=CARTESIAN_POINT('',(0.0,0.0,6.16297582203915E-033));
#495=DIRECTION('',(-1.0,0.0,0.0));
#496=DIRECTION('',(0.0,1.0,0.0));
#497=CARTESIAN_POINT('',(0.0,0.0,6.16297582203915E-033));
#498=DIRECTION('',(-1.0,0.0,0.0));
#499=DIRECTION('',(0.0,1.0,0.0));
#500=DIRECTION('',(-0.707106781186547,-0.707106781186548,8.65927457071935E-017));
#501=CARTESIAN_POINT('',(19.68,0.0,0.0));
#502=DIRECTION('',(1.0,0.0,0.0));
#503=DIRECTION('',(0.0,1.0,0.0));
#504=DIRECTION('',(0.707106781186547,-0.707106781186548,8.65927457071935E-017));
#505=CARTESIAN_POINT('',(20.0,0.0,0.0));
#506=DIRECTION('',(-1.0,0.0,0.0));
#507=DIRECTION('',(0.0,1.0,0.0));
#508=DIRECTION('',(-0.707106781186547,0.707106781186548,-8.65927457071936E-017));
#509=CARTESIAN_POINT('',(0.32,0.0,0.0));
#510=DIRECTION('',(1.0,0.0,0.0));
#511=DIRECTION('',(0.0,1.0,0.0));
#512=DIRECTION('',(0.707106781186547,0.707106781186548,-8.65927457071936E-017));
#513=CARTESIAN_POINT('',(0.32,0.0,0.0));
#514=DIRECTION('',(1.0,0.0,0.0));
#515=DIRECTION('',(0.0,1.0,0.0));
#516=DIRECTION('',(1.0,0.0,0.0));
#517=CARTESIAN_POINT('',(0.5,0.0,0.0));
#518=DIRECTION('',(1.0,0.0,1.22460635382238E-016));
#519=DIRECTION('',(1.22460635382238E-016,0.0,-1.0));
#520=CARTESIAN_POINT('',(0.5,0.0,0.0));
#521=DIRECTION('',(1.0,0.0,1.22460635382238E-016));
#522=DIRECTION('',(1.22460635382238E-016,0.0,-1.0));
#523=DIRECTION('',(-1.0,-0.0,-0.0));
#524=CARTESIAN_POINT('',(19.5,0.0,0.0));
#525=DIRECTION('',(-1.0,0.0,-2.44921270764475E-016));
#526=DIRECTION('',(2.44921270764475E-016,0.0,-1.0));
#527=CARTESIAN_POINT('',(19.5,0.0,0.0));
#528=DIRECTION('',(-1.0,0.0,-2.44921270764475E-016));
#529=DIRECTION('',(2.44921270764475E-016,0.0,-1.0));
#530=DIRECTION('',(-0.707106781186548,0.707106781186547,-2.59778237121581E-016));
#531=CARTESIAN_POINT('',(19.5,0.0,0.0));
#532=DIRECTION('',(-1.0,0.0,-2.44921270764475E-016));
#533=DIRECTION('',(2.44921270764475E-016,0.0,-1.0));
#534=DIRECTION('',(0.707106781186548,0.707106781186547,8.65927457071935E-017));
#535=CARTESIAN_POINT('',(20.0,0.0,-1.23259516440783E-032));
#536=DIRECTION('',(1.0,0.0,0.0));
#537=DIRECTION('',(0.0,1.0,0.0));
#538=DIRECTION('',(-1.0,-0.0,0.0));
#539=CARTESIAN_POINT('',(19.68,0.0,0.0));
#540=DIRECTION('',(1.0,0.0,0.0));
#541=DIRECTION('',(0.0,1.0,0.0));
#542=DIRECTION('',(1.0,-0.0,0.0));
#543=CARTESIAN_POINT('',(20.0,0.0,-1.23259516440783E-032));
#544=DIRECTION('',(1.0,0.0,0.0));
#545=DIRECTION('',(0.0,1.0,0.0));
#546=CARTESIAN_POINT('',(19.5,0.0,0.0));
#547=DIRECTION('',(-1.0,0.0,-2.44921270764475E-016));
#548=DIRECTION('',(2.44921270764475E-016,0.0,-1.0));
#549=DIRECTION('',(0.707106781186548,0.707106781186547,1.73185491414387E-016));
#550=CARTESIAN_POINT('',(0.5,0.0,0.0));
#551=DIRECTION('',(1.0,0.0,1.22460635382238E-016));
#552=DIRECTION('',(1.22460635382238E-016,0.0,-1.0));
#553=DIRECTION('',(-0.707106781186548,0.707106781186547,1.60992021473676E-032));
#554=CARTESIAN_POINT('',(20.0,0.0,0.0));
#555=DIRECTION('',(-1.0,0.0,0.0));
#556=DIRECTION('',(0.0,1.0,0.0));
#557=CARTESIAN_POINT('',(0.5,0.0,0.0));
#558=DIRECTION('',(1.0,0.0,1.22460635382238E-016));
#559=DIRECTION('',(1.22460635382238E-016,0.0,-1.0));
ENDSEC;
END-ISO-10303-21;
