ISO-10303-21;
HEADER;
FILE_DESCRIPTION(('STEP AP214'),'1');
FILE_NAME('C:/Temp/output/halder/CAD/Temp/HALDERN_EH_23111_0716.stp','2015-05-04T09:25:16',('TraceParts'),('TraceParts S.A.'),'Spatial InterOp 3D',' ',' ');
FILE_SCHEMA(('automotive_design'));
ENDSEC;
DATA;
#1=MECHANICAL_DESIGN_GEOMETRIC_PRESENTATION_REPRESENTATION(' ',(#10,#11,#12,#13,#14,#15,#16,#17,#18,#19,#20,#21,#22,#23),#6);
#2=PRODUCT_DEFINITION_CONTEXT('',#24,'design');
#3=APPLICATION_PROTOCOL_DEFINITION('INTERNATIONAL STANDARD','automotive_design',1994,#24);
#4=PRODUCT_CATEGORY_RELATIONSHIP('NONE','NONE',#25,#26);
#5=SHAPE_DEFINITION_REPRESENTATION(#27,#28);
#6= (GEOMETRIC_REPRESENTATION_CONTEXT(3)GLOBAL_UNCERTAINTY_ASSIGNED_CONTEXT((#31))GLOBAL_UNIT_ASSIGNED_CONTEXT((#33,#34,#35))REPRESENTATION_CONTEXT('NONE','WORKSPACE'));
#10=STYLED_ITEM('',(#37),#38);
#11=STYLED_ITEM('',(#39),#40);
#12=STYLED_ITEM('',(#41),#42);
#13=STYLED_ITEM('',(#43),#44);
#14=STYLED_ITEM('',(#45),#46);
#15=STYLED_ITEM('',(#47),#48);
#16=STYLED_ITEM('',(#49),#50);
#17=STYLED_ITEM('',(#51),#52);
#18=STYLED_ITEM('',(#53),#54);
#19=STYLED_ITEM('',(#55),#56);
#20=STYLED_ITEM('',(#57),#58);
#21=STYLED_ITEM('',(#59),#60);
#22=STYLED_ITEM('',(#61),#62);
#23=STYLED_ITEM('',(#63),#64);
#24=APPLICATION_CONTEXT(' ');
#25=PRODUCT_CATEGORY('part','NONE');
#26=PRODUCT_RELATED_PRODUCT_CATEGORY('detail',' ',(#65));
#27=PRODUCT_DEFINITION_SHAPE('NONE','NONE',#66);
#28=ADVANCED_BREP_SHAPE_REPRESENTATION('1',(#67,#68),#6);
#31=UNCERTAINTY_MEASURE_WITH_UNIT(LENGTH_MEASURE(1.0E-006),#33,'','');
#33= (CONVERSION_BASED_UNIT('MILLIMETRE',#71)LENGTH_UNIT()NAMED_UNIT(#74));
#34= (NAMED_UNIT(#76)PLANE_ANGLE_UNIT()SI_UNIT($,.RADIAN.));
#35= (NAMED_UNIT(#76)SOLID_ANGLE_UNIT()SI_UNIT($,.STERADIAN.));
#37=PRESENTATION_STYLE_ASSIGNMENT((#82));
#38=ADVANCED_FACE('',(#83),#84,.F.);
#39=PRESENTATION_STYLE_ASSIGNMENT((#85));
#40=ADVANCED_FACE('',(#86),#87,.F.);
#41=PRESENTATION_STYLE_ASSIGNMENT((#88));
#42=ADVANCED_FACE('',(#89,#90),#91,.T.);
#43=PRESENTATION_STYLE_ASSIGNMENT((#92));
#44=ADVANCED_FACE('',(#93),#94,.F.);
#45=PRESENTATION_STYLE_ASSIGNMENT((#95));
#46=ADVANCED_FACE('',(#96),#97,.F.);
#47=PRESENTATION_STYLE_ASSIGNMENT((#98));
#48=ADVANCED_FACE('',(#99),#100,.T.);
#49=PRESENTATION_STYLE_ASSIGNMENT((#101));
#50=ADVANCED_FACE('',(#102),#103,.T.);
#51=PRESENTATION_STYLE_ASSIGNMENT((#104));
#52=ADVANCED_FACE('',(#105),#106,.T.);
#53=PRESENTATION_STYLE_ASSIGNMENT((#107));
#54=ADVANCED_FACE('',(#108),#109,.T.);
#55=PRESENTATION_STYLE_ASSIGNMENT((#110));
#56=ADVANCED_FACE('',(#111),#112,.F.);
#57=PRESENTATION_STYLE_ASSIGNMENT((#113));
#58=ADVANCED_FACE('',(#114),#115,.T.);
#59=PRESENTATION_STYLE_ASSIGNMENT((#116));
#60=ADVANCED_FACE('',(#117,#118),#119,.T.);
#61=PRESENTATION_STYLE_ASSIGNMENT((#120));
#62=ADVANCED_FACE('',(#121),#122,.T.);
#63=PRESENTATION_STYLE_ASSIGNMENT((#123));
#64=ADVANCED_FACE('',(#124),#125,.F.);
#65=PRODUCT('1','1','PART-1-DESC',(#126));
#66=PRODUCT_DEFINITION('NONE','NONE',#127,#2);
#67=MANIFOLD_SOLID_BREP('1',#128);
#68=AXIS2_PLACEMENT_3D('',#129,#130,#131);
#71=LENGTH_MEASURE_WITH_UNIT(LENGTH_MEASURE(1.0),#132);
#74=DIMENSIONAL_EXPONENTS(1.0,0.0,0.0,0.0,0.0,0.0,0.0);
#76=DIMENSIONAL_EXPONENTS(0.0,0.0,0.0,0.0,0.0,0.0,0.0);
#82=SURFACE_STYLE_USAGE(.BOTH.,#133);
#83=FACE_OUTER_BOUND('',#134,.T.);
#84=CONICAL_SURFACE('',#135,15.3,0.785398163397448);
#85=SURFACE_STYLE_USAGE(.BOTH.,#136);
#86=FACE_OUTER_BOUND('',#137,.T.);
#87=CONICAL_SURFACE('',#138,15.3,0.785398163397447);
#88=SURFACE_STYLE_USAGE(.BOTH.,#139);
#89=FACE_BOUND('',#140,.T.);
#90=FACE_OUTER_BOUND('',#141,.T.);
#91=PLANE('',#142);
#92=SURFACE_STYLE_USAGE(.BOTH.,#143);
#93=FACE_OUTER_BOUND('',#144,.T.);
#94=CONICAL_SURFACE('',#145,15.3,0.785398163397448);
#95=SURFACE_STYLE_USAGE(.BOTH.,#146);
#96=FACE_OUTER_BOUND('',#147,.T.);
#97=CYLINDRICAL_SURFACE('',#148,15.0);
#98=SURFACE_STYLE_USAGE(.BOTH.,#149);
#99=FACE_OUTER_BOUND('',#150,.T.);
#100=CONICAL_SURFACE('',#151,22.05,0.785398163397448);
#101=SURFACE_STYLE_USAGE(.BOTH.,#152);
#102=FACE_OUTER_BOUND('',#153,.T.);
#103=CONICAL_SURFACE('',#154,22.05,0.785398163397448);
#104=SURFACE_STYLE_USAGE(.BOTH.,#155);
#105=FACE_OUTER_BOUND('',#156,.T.);
#106=CYLINDRICAL_SURFACE('',#157,22.5);
#107=SURFACE_STYLE_USAGE(.BOTH.,#158);
#108=FACE_OUTER_BOUND('',#159,.T.);
#109=CYLINDRICAL_SURFACE('',#160,22.5);
#110=SURFACE_STYLE_USAGE(.BOTH.,#161);
#111=FACE_OUTER_BOUND('',#162,.T.);
#112=CONICAL_SURFACE('',#163,15.3,0.785398163397447);
#113=SURFACE_STYLE_USAGE(.BOTH.,#164);
#114=FACE_OUTER_BOUND('',#165,.T.);
#115=CONICAL_SURFACE('',#166,22.05,0.785398163397448);
#116=SURFACE_STYLE_USAGE(.BOTH.,#167);
#117=FACE_BOUND('',#168,.T.);
#118=FACE_OUTER_BOUND('',#169,.T.);
#119=PLANE('',#170);
#120=SURFACE_STYLE_USAGE(.BOTH.,#171);
#121=FACE_OUTER_BOUND('',#172,.T.);
#122=CONICAL_SURFACE('',#173,22.05,0.785398163397448);
#123=SURFACE_STYLE_USAGE(.BOTH.,#174);
#124=FACE_OUTER_BOUND('',#175,.T.);
#125=CYLINDRICAL_SURFACE('',#176,15.0);
#126=PRODUCT_CONTEXT('',#24,'mechanical');
#127=PRODUCT_DEFINITION_FORMATION_WITH_SPECIFIED_SOURCE(' ','NONE',#65,.NOT_KNOWN.);
#128=CLOSED_SHELL('',(#52,#58,#50,#56,#64,#38,#44,#46,#40,#62,#48,#54,#42,#60));
#129=CARTESIAN_POINT('',(0.0,0.0,0.0));
#130=DIRECTION('',(0.0,0.0,1.0));
#131=DIRECTION('',(1.0,0.0,0.0));
#132= (NAMED_UNIT(#74)LENGTH_UNIT()SI_UNIT(.MILLI.,.METRE.));
#133=SURFACE_SIDE_STYLE('',(#178));
#134=EDGE_LOOP('',(#179,#180,#181,#182));
#135=AXIS2_PLACEMENT_3D('',#183,#184,#185);
#136=SURFACE_SIDE_STYLE('',(#186));
#137=EDGE_LOOP('',(#187,#188,#189,#190));
#138=AXIS2_PLACEMENT_3D('',#191,#192,#193);
#139=SURFACE_SIDE_STYLE('',(#194));
#140=EDGE_LOOP('',(#195,#196));
#141=EDGE_LOOP('',(#197,#198));
#142=AXIS2_PLACEMENT_3D('',#199,#200,#201);
#143=SURFACE_SIDE_STYLE('',(#202));
#144=EDGE_LOOP('',(#203,#204,#205,#206));
#145=AXIS2_PLACEMENT_3D('',#207,#208,#209);
#146=SURFACE_SIDE_STYLE('',(#210));
#147=EDGE_LOOP('',(#211,#212,#213,#214));
#148=AXIS2_PLACEMENT_3D('',#215,#216,#217);
#149=SURFACE_SIDE_STYLE('',(#218));
#150=EDGE_LOOP('',(#219,#220,#221,#222,#223));
#151=AXIS2_PLACEMENT_3D('',#224,#225,#226);
#152=SURFACE_SIDE_STYLE('',(#227));
#153=EDGE_LOOP('',(#228,#229,#230,#231,#232));
#154=AXIS2_PLACEMENT_3D('',#233,#234,#235);
#155=SURFACE_SIDE_STYLE('',(#236));
#156=EDGE_LOOP('',(#237,#238,#239,#240,#241,#242));
#157=AXIS2_PLACEMENT_3D('',#243,#244,#245);
#158=SURFACE_SIDE_STYLE('',(#246));
#159=EDGE_LOOP('',(#247,#248,#249,#250,#251,#252));
#160=AXIS2_PLACEMENT_3D('',#253,#254,#255);
#161=SURFACE_SIDE_STYLE('',(#256));
#162=EDGE_LOOP('',(#257,#258,#259,#260));
#163=AXIS2_PLACEMENT_3D('',#261,#262,#263);
#164=SURFACE_SIDE_STYLE('',(#264));
#165=EDGE_LOOP('',(#265,#266,#267,#268,#269));
#166=AXIS2_PLACEMENT_3D('',#270,#271,#272);
#167=SURFACE_SIDE_STYLE('',(#273));
#168=EDGE_LOOP('',(#274,#275));
#169=EDGE_LOOP('',(#276,#277));
#170=AXIS2_PLACEMENT_3D('',#278,#279,#280);
#171=SURFACE_SIDE_STYLE('',(#281));
#172=EDGE_LOOP('',(#282,#283,#284,#285,#286));
#173=AXIS2_PLACEMENT_3D('',#287,#288,#289);
#174=SURFACE_SIDE_STYLE('',(#290));
#175=EDGE_LOOP('',(#291,#292,#293,#294));
#176=AXIS2_PLACEMENT_3D('',#295,#296,#297);
#178=SURFACE_STYLE_FILL_AREA(#298);
#179=ORIENTED_EDGE('',*,*,#299,.F.);
#180=ORIENTED_EDGE('',*,*,#300,.T.);
#181=ORIENTED_EDGE('',*,*,#301,.F.);
#182=ORIENTED_EDGE('',*,*,#302,.F.);
#183=CARTESIAN_POINT('',(0.300000000000001,0.0,0.0));
#184=DIRECTION('',(-1.0,-0.0,-0.0));
#185=DIRECTION('',(0.0,1.0,0.0));
#186=SURFACE_STYLE_FILL_AREA(#303);
#187=ORIENTED_EDGE('',*,*,#304,.T.);
#188=ORIENTED_EDGE('',*,*,#305,.F.);
#189=ORIENTED_EDGE('',*,*,#306,.T.);
#190=ORIENTED_EDGE('',*,*,#307,.F.);
#191=CARTESIAN_POINT('',(24.7,0.0,0.0));
#192=DIRECTION('',(1.0,-0.0,-0.0));
#193=DIRECTION('',(0.0,1.0,0.0));
#194=SURFACE_STYLE_FILL_AREA(#308);
#195=ORIENTED_EDGE('',*,*,#302,.T.);
#196=ORIENTED_EDGE('',*,*,#309,.T.);
#197=ORIENTED_EDGE('',*,*,#310,.T.);
#198=ORIENTED_EDGE('',*,*,#311,.T.);
#199=CARTESIAN_POINT('',(0.0,0.0,0.0));
#200=DIRECTION('',(-1.0,0.0,0.0));
#201=DIRECTION('',(0.0,0.0,1.0));
#202=SURFACE_STYLE_FILL_AREA(#312);
#203=ORIENTED_EDGE('',*,*,#299,.T.);
#204=ORIENTED_EDGE('',*,*,#309,.F.);
#205=ORIENTED_EDGE('',*,*,#301,.T.);
#206=ORIENTED_EDGE('',*,*,#313,.T.);
#207=CARTESIAN_POINT('',(0.300000000000001,0.0,0.0));
#208=DIRECTION('',(-1.0,-0.0,-0.0));
#209=DIRECTION('',(0.0,1.0,0.0));
#210=SURFACE_STYLE_FILL_AREA(#314);
#211=ORIENTED_EDGE('',*,*,#315,.T.);
#212=ORIENTED_EDGE('',*,*,#313,.F.);
#213=ORIENTED_EDGE('',*,*,#316,.T.);
#214=ORIENTED_EDGE('',*,*,#305,.T.);
#215=CARTESIAN_POINT('',(12.5,0.0,0.0));
#216=DIRECTION('',(1.0,0.0,0.0));
#217=DIRECTION('',(0.0,1.0,0.0));
#218=SURFACE_STYLE_FILL_AREA(#317);
#219=ORIENTED_EDGE('',*,*,#318,.T.);
#220=ORIENTED_EDGE('',*,*,#319,.F.);
#221=ORIENTED_EDGE('',*,*,#320,.F.);
#222=ORIENTED_EDGE('',*,*,#321,.T.);
#223=ORIENTED_EDGE('',*,*,#310,.F.);
#224=CARTESIAN_POINT('',(0.449999999999999,0.0,5.5107285922007E-017));
#225=DIRECTION('',(1.0,-0.0,1.22460635382238E-016));
#226=DIRECTION('',(0.0,1.0,0.0));
#227=SURFACE_STYLE_FILL_AREA(#322);
#228=ORIENTED_EDGE('',*,*,#323,.F.);
#229=ORIENTED_EDGE('',*,*,#324,.F.);
#230=ORIENTED_EDGE('',*,*,#325,.F.);
#231=ORIENTED_EDGE('',*,*,#326,.F.);
#232=ORIENTED_EDGE('',*,*,#327,.F.);
#233=CARTESIAN_POINT('',(24.55,0.0,-1.10214571844014E-016));
#234=DIRECTION('',(-1.0,0.0,-2.44921270764476E-016));
#235=DIRECTION('',(0.0,1.0,0.0));
#236=SURFACE_STYLE_FILL_AREA(#328);
#237=ORIENTED_EDGE('',*,*,#329,.F.);
#238=ORIENTED_EDGE('',*,*,#319,.T.);
#239=ORIENTED_EDGE('',*,*,#330,.T.);
#240=ORIENTED_EDGE('',*,*,#331,.F.);
#241=ORIENTED_EDGE('',*,*,#332,.T.);
#242=ORIENTED_EDGE('',*,*,#327,.T.);
#243=CARTESIAN_POINT('',(12.5,0.0,0.0));
#244=DIRECTION('',(1.0,0.0,0.0));
#245=DIRECTION('',(0.0,0.0,-1.0));
#246=SURFACE_STYLE_FILL_AREA(#333);
#247=ORIENTED_EDGE('',*,*,#329,.T.);
#248=ORIENTED_EDGE('',*,*,#326,.T.);
#249=ORIENTED_EDGE('',*,*,#334,.T.);
#250=ORIENTED_EDGE('',*,*,#331,.T.);
#251=ORIENTED_EDGE('',*,*,#335,.T.);
#252=ORIENTED_EDGE('',*,*,#320,.T.);
#253=CARTESIAN_POINT('',(12.5,0.0,0.0));
#254=DIRECTION('',(1.0,0.0,0.0));
#255=DIRECTION('',(0.0,0.0,-1.0));
#256=SURFACE_STYLE_FILL_AREA(#336);
#257=ORIENTED_EDGE('',*,*,#304,.F.);
#258=ORIENTED_EDGE('',*,*,#337,.F.);
#259=ORIENTED_EDGE('',*,*,#306,.F.);
#260=ORIENTED_EDGE('',*,*,#338,.F.);
#261=CARTESIAN_POINT('',(24.7,0.0,0.0));
#262=DIRECTION('',(1.0,-0.0,-0.0));
#263=DIRECTION('',(0.0,1.0,0.0));
#264=SURFACE_STYLE_FILL_AREA(#339);
#265=ORIENTED_EDGE('',*,*,#318,.F.);
#266=ORIENTED_EDGE('',*,*,#311,.F.);
#267=ORIENTED_EDGE('',*,*,#321,.F.);
#268=ORIENTED_EDGE('',*,*,#335,.F.);
#269=ORIENTED_EDGE('',*,*,#330,.F.);
#270=CARTESIAN_POINT('',(0.449999999999999,0.0,5.5107285922007E-017));
#271=DIRECTION('',(1.0,-0.0,1.22460635382238E-016));
#272=DIRECTION('',(0.0,1.0,0.0));
#273=SURFACE_STYLE_FILL_AREA(#340);
#274=ORIENTED_EDGE('',*,*,#307,.T.);
#275=ORIENTED_EDGE('',*,*,#337,.T.);
#276=ORIENTED_EDGE('',*,*,#341,.T.);
#277=ORIENTED_EDGE('',*,*,#324,.T.);
#278=CARTESIAN_POINT('',(25.0,0.0,0.0));
#279=DIRECTION('',(1.0,0.0,0.0));
#280=DIRECTION('',(0.0,0.0,-1.0));
#281=SURFACE_STYLE_FILL_AREA(#342);
#282=ORIENTED_EDGE('',*,*,#323,.T.);
#283=ORIENTED_EDGE('',*,*,#332,.F.);
#284=ORIENTED_EDGE('',*,*,#334,.F.);
#285=ORIENTED_EDGE('',*,*,#325,.T.);
#286=ORIENTED_EDGE('',*,*,#341,.F.);
#287=CARTESIAN_POINT('',(24.55,0.0,-1.10214571844014E-016));
#288=DIRECTION('',(-1.0,0.0,-2.44921270764476E-016));
#289=DIRECTION('',(0.0,1.0,0.0));
#290=SURFACE_STYLE_FILL_AREA(#343);
#291=ORIENTED_EDGE('',*,*,#315,.F.);
#292=ORIENTED_EDGE('',*,*,#338,.T.);
#293=ORIENTED_EDGE('',*,*,#316,.F.);
#294=ORIENTED_EDGE('',*,*,#300,.F.);
#295=CARTESIAN_POINT('',(12.5,0.0,0.0));
#296=DIRECTION('',(1.0,0.0,0.0));
#297=DIRECTION('',(0.0,1.0,0.0));
#298=FILL_AREA_STYLE('',(#344));
#299=EDGE_CURVE('',#345,#346,#347,.T.);
#300=EDGE_CURVE('',#345,#348,#349,.T.);
#301=EDGE_CURVE('',#350,#348,#351,.T.);
#302=EDGE_CURVE('',#346,#350,#352,.T.);
#303=FILL_AREA_STYLE('',(#353));
#304=EDGE_CURVE('',#354,#355,#356,.T.);
#305=EDGE_CURVE('',#357,#355,#358,.T.);
#306=EDGE_CURVE('',#357,#359,#360,.T.);
#307=EDGE_CURVE('',#354,#359,#361,.T.);
#308=FILL_AREA_STYLE('',(#362));
#309=EDGE_CURVE('',#350,#346,#363,.T.);
#310=EDGE_CURVE('',#364,#365,#366,.T.);
#311=EDGE_CURVE('',#365,#364,#367,.T.);
#312=FILL_AREA_STYLE('',(#368));
#313=EDGE_CURVE('',#348,#345,#369,.T.);
#314=FILL_AREA_STYLE('',(#370));
#315=EDGE_CURVE('',#355,#345,#371,.T.);
#316=EDGE_CURVE('',#348,#357,#372,.T.);
#317=FILL_AREA_STYLE('',(#373));
#318=EDGE_CURVE('',#364,#374,#375,.T.);
#319=EDGE_CURVE('',#376,#374,#377,.T.);
#320=EDGE_CURVE('',#378,#376,#379,.T.);
#321=EDGE_CURVE('',#378,#365,#380,.T.);
#322=FILL_AREA_STYLE('',(#381));
#323=EDGE_CURVE('',#382,#383,#384,.T.);
#324=EDGE_CURVE('',#385,#382,#386,.T.);
#325=EDGE_CURVE('',#387,#385,#388,.T.);
#326=EDGE_CURVE('',#389,#387,#390,.T.);
#327=EDGE_CURVE('',#383,#389,#391,.T.);
#328=FILL_AREA_STYLE('',(#392));
#329=EDGE_CURVE('',#376,#389,#393,.T.);
#330=EDGE_CURVE('',#374,#394,#395,.T.);
#331=EDGE_CURVE('',#396,#394,#397,.T.);
#332=EDGE_CURVE('',#396,#383,#398,.T.);
#333=FILL_AREA_STYLE('',(#399));
#334=EDGE_CURVE('',#387,#396,#400,.T.);
#335=EDGE_CURVE('',#394,#378,#401,.T.);
#336=FILL_AREA_STYLE('',(#402));
#337=EDGE_CURVE('',#359,#354,#403,.T.);
#338=EDGE_CURVE('',#355,#357,#404,.T.);
#339=FILL_AREA_STYLE('',(#405));
#340=FILL_AREA_STYLE('',(#406));
#341=EDGE_CURVE('',#382,#385,#407,.T.);
#342=FILL_AREA_STYLE('',(#408));
#343=FILL_AREA_STYLE('',(#409));
#344=FILL_AREA_STYLE_COLOUR('',#410);
#345=VERTEX_POINT('',#411);
#346=VERTEX_POINT('',#412);
#347=LINE('',#413,#414);
#348=VERTEX_POINT('',#415);
#349=CIRCLE('',#416,15.0);
#350=VERTEX_POINT('',#417);
#351=LINE('',#418,#419);
#352=CIRCLE('',#420,15.6);
#353=FILL_AREA_STYLE_COLOUR('',#421);
#354=VERTEX_POINT('',#422);
#355=VERTEX_POINT('',#423);
#356=LINE('',#424,#425);
#357=VERTEX_POINT('',#426);
#358=CIRCLE('',#427,15.0);
#359=VERTEX_POINT('',#428);
#360=LINE('',#429,#430);
#361=CIRCLE('',#431,15.6);
#362=FILL_AREA_STYLE_COLOUR('',#432);
#363=CIRCLE('',#433,15.6);
#364=VERTEX_POINT('',#434);
#365=VERTEX_POINT('',#435);
#366=CIRCLE('',#436,21.6);
#367=CIRCLE('',#437,21.6);
#368=FILL_AREA_STYLE_COLOUR('',#438);
#369=CIRCLE('',#439,15.0);
#370=FILL_AREA_STYLE_COLOUR('',#440);
#371=LINE('',#441,#442);
#372=LINE('',#443,#444);
#373=FILL_AREA_STYLE_COLOUR('',#445);
#374=VERTEX_POINT('',#446);
#375=LINE('',#447,#448);
#376=VERTEX_POINT('',#449);
#377=CIRCLE('',#450,22.5);
#378=VERTEX_POINT('',#451);
#379=CIRCLE('',#452,22.5);
#380=LINE('',#453,#454);
#381=FILL_AREA_STYLE_COLOUR('',#455);
#382=VERTEX_POINT('',#456);
#383=VERTEX_POINT('',#457);
#384=LINE('',#458,#459);
#385=VERTEX_POINT('',#460);
#386=CIRCLE('',#461,21.6);
#387=VERTEX_POINT('',#462);
#388=LINE('',#463,#464);
#389=VERTEX_POINT('',#465);
#390=CIRCLE('',#466,22.5);
#391=CIRCLE('',#467,22.5);
#392=FILL_AREA_STYLE_COLOUR('',#468);
#393=LINE('',#469,#470);
#394=VERTEX_POINT('',#471);
#395=CIRCLE('',#472,22.5);
#396=VERTEX_POINT('',#473);
#397=LINE('',#474,#475);
#398=CIRCLE('',#476,22.5);
#399=FILL_AREA_STYLE_COLOUR('',#477);
#400=CIRCLE('',#478,22.5);
#401=CIRCLE('',#479,22.5);
#402=FILL_AREA_STYLE_COLOUR('',#480);
#403=CIRCLE('',#481,15.6);
#404=CIRCLE('',#482,15.0);
#405=FILL_AREA_STYLE_COLOUR('',#483);
#406=FILL_AREA_STYLE_COLOUR('',#484);
#407=CIRCLE('',#485,21.6);
#408=FILL_AREA_STYLE_COLOUR('',#486);
#409=FILL_AREA_STYLE_COLOUR('',#487);
#410=COLOUR_RGB('',0.752941191196442,0.752941191196442,0.752941191196442);
#411=CARTESIAN_POINT('',(0.600000000000001,15.0,0.0));
#412=CARTESIAN_POINT('',(0.0,15.6,0.0));
#413=CARTESIAN_POINT('',(0.300000000000001,15.3,-1.87364772134824E-015));
#414=VECTOR('',#488,1.0);
#415=CARTESIAN_POINT('',(0.600000000000001,-15.0,1.83690953073357E-015));
#416=AXIS2_PLACEMENT_3D('',#489,#490,#491);
#417=CARTESIAN_POINT('',(0.0,-15.6,1.91038591196291E-015));
#418=CARTESIAN_POINT('',(0.300000000000001,-15.3,1.87364772134824E-015));
#419=VECTOR('',#492,1.0);
#420=AXIS2_PLACEMENT_3D('',#493,#494,#495);
#421=COLOUR_RGB('',0.752941191196442,0.752941191196442,0.752941191196442);
#422=CARTESIAN_POINT('',(25.0,15.6,0.0));
#423=CARTESIAN_POINT('',(24.4,15.0,0.0));
#424=CARTESIAN_POINT('',(24.7,15.3,-1.87364772134824E-015));
#425=VECTOR('',#496,1.0);
#426=CARTESIAN_POINT('',(24.4,-15.0,1.83690953073357E-015));
#427=AXIS2_PLACEMENT_3D('',#497,#498,#499);
#428=CARTESIAN_POINT('',(25.0,-15.6,1.91038591196291E-015));
#429=CARTESIAN_POINT('',(24.7,-15.3,1.87364772134824E-015));
#430=VECTOR('',#500,1.0);
#431=AXIS2_PLACEMENT_3D('',#501,#502,#503);
#432=COLOUR_RGB('',0.752941191196442,0.752941191196442,0.752941191196442);
#433=AXIS2_PLACEMENT_3D('',#504,#505,#506);
#434=CARTESIAN_POINT('',(0.0,21.6,0.0));
#435=CARTESIAN_POINT('',(0.0,-21.6,-2.64514972425634E-015));
#436=AXIS2_PLACEMENT_3D('',#507,#508,#509);
#437=AXIS2_PLACEMENT_3D('',#510,#511,#512);
#438=COLOUR_RGB('',0.752941191196442,0.752941191196442,0.752941191196442);
#439=AXIS2_PLACEMENT_3D('',#513,#514,#515);
#440=COLOUR_RGB('',0.752941191196442,0.752941191196442,0.752941191196442);
#441=CARTESIAN_POINT('',(12.5,15.0,-1.83690953073357E-015));
#442=VECTOR('',#516,1.0);
#443=CARTESIAN_POINT('',(12.5,-15.0,1.83690953073357E-015));
#444=VECTOR('',#517,1.0);
#445=COLOUR_RGB('',0.752941191196442,0.752941191196442,0.752941191196442);
#446=CARTESIAN_POINT('',(0.9,22.5,1.10214571844014E-016));
#447=CARTESIAN_POINT('',(0.449999999999999,22.05,2.75536429610035E-015));
#448=VECTOR('',#518,1.0);
#449=CARTESIAN_POINT('',(0.900000000000003,-2.75536429610035E-015,-22.5));
#450=AXIS2_PLACEMENT_3D('',#519,#520,#521);
#451=CARTESIAN_POINT('',(0.9,-22.5,-2.64514972425633E-015));
#452=AXIS2_PLACEMENT_3D('',#522,#523,#524);
#453=CARTESIAN_POINT('',(0.449999999999999,-22.05,-2.64514972425634E-015));
#454=VECTOR('',#525,1.0);
#455=COLOUR_RGB('',0.752941191196442,0.752941191196442,0.752941191196442);
#456=CARTESIAN_POINT('',(25.0,21.6,0.0));
#457=CARTESIAN_POINT('',(24.1,22.5,-2.20429143688028E-016));
#458=CARTESIAN_POINT('',(24.55,22.05,-2.81047158202236E-015));
#459=VECTOR('',#526,1.0);
#460=CARTESIAN_POINT('',(25.0,-21.6,2.64514972425634E-015));
#461=AXIS2_PLACEMENT_3D('',#527,#528,#529);
#462=CARTESIAN_POINT('',(24.1,-22.5,2.53493515241232E-015));
#463=CARTESIAN_POINT('',(24.55,-22.05,2.59004243833433E-015));
#464=VECTOR('',#530,1.0);
#465=CARTESIAN_POINT('',(24.1,-2.75536429610035E-015,-22.5));
#466=AXIS2_PLACEMENT_3D('',#531,#532,#533);
#467=AXIS2_PLACEMENT_3D('',#534,#535,#536);
#468=COLOUR_RGB('',0.752941191196442,0.752941191196442,0.752941191196442);
#469=CARTESIAN_POINT('',(12.5,-2.75536429610035E-015,-22.5));
#470=VECTOR('',#537,1.0);
#471=CARTESIAN_POINT('',(0.899999999999998,2.75536429610035E-015,22.5));
#472=AXIS2_PLACEMENT_3D('',#538,#539,#540);
#473=CARTESIAN_POINT('',(24.1,2.75536429610035E-015,22.5));
#474=CARTESIAN_POINT('',(12.5,2.75536429610035E-015,22.5));
#475=VECTOR('',#541,1.0);
#476=AXIS2_PLACEMENT_3D('',#542,#543,#544);
#477=COLOUR_RGB('',0.752941191196442,0.752941191196442,0.752941191196442);
#478=AXIS2_PLACEMENT_3D('',#545,#546,#547);
#479=AXIS2_PLACEMENT_3D('',#548,#549,#550);
#480=COLOUR_RGB('',0.752941191196442,0.752941191196442,0.752941191196442);
#481=AXIS2_PLACEMENT_3D('',#551,#552,#553);
#482=AXIS2_PLACEMENT_3D('',#554,#555,#556);
#483=COLOUR_RGB('',0.752941191196442,0.752941191196442,0.752941191196442);
#484=COLOUR_RGB('',0.752941191196442,0.752941191196442,0.752941191196442);
#485=AXIS2_PLACEMENT_3D('',#557,#558,#559);
#486=COLOUR_RGB('',0.752941191196442,0.752941191196442,0.752941191196442);
#487=COLOUR_RGB('',0.752941191196442,0.752941191196442,0.752941191196442);
#488=DIRECTION('',(-0.707106781186548,0.707106781186547,-8.65927457071935E-017));
#489=CARTESIAN_POINT('',(0.600000000000001,0.0,0.0));
#490=DIRECTION('',(1.0,0.0,0.0));
#491=DIRECTION('',(0.0,1.0,0.0));
#492=DIRECTION('',(0.707106781186548,0.707106781186547,-8.65927457071935E-017));
#493=CARTESIAN_POINT('',(0.0,0.0,0.0));
#494=DIRECTION('',(1.0,0.0,0.0));
#495=DIRECTION('',(0.0,1.0,0.0));
#496=DIRECTION('',(-0.707106781186549,-0.707106781186547,8.65927457071934E-017));
#497=CARTESIAN_POINT('',(24.4,0.0,0.0));
#498=DIRECTION('',(1.0,0.0,0.0));
#499=DIRECTION('',(0.0,1.0,0.0));
#500=DIRECTION('',(0.707106781186549,-0.707106781186547,8.65927457071934E-017));
#501=CARTESIAN_POINT('',(25.0,0.0,0.0));
#502=DIRECTION('',(-1.0,0.0,0.0));
#503=DIRECTION('',(0.0,1.0,0.0));
#504=CARTESIAN_POINT('',(0.0,0.0,0.0));
#505=DIRECTION('',(1.0,0.0,0.0));
#506=DIRECTION('',(0.0,1.0,0.0));
#507=CARTESIAN_POINT('',(0.0,0.0,-9.86076131526265E-032));
#508=DIRECTION('',(-1.0,0.0,0.0));
#509=DIRECTION('',(0.0,1.0,0.0));
#510=CARTESIAN_POINT('',(0.0,0.0,-9.86076131526265E-032));
#511=DIRECTION('',(-1.0,0.0,0.0));
#512=DIRECTION('',(0.0,1.0,0.0));
#513=CARTESIAN_POINT('',(0.600000000000001,0.0,0.0));
#514=DIRECTION('',(1.0,0.0,0.0));
#515=DIRECTION('',(0.0,1.0,0.0));
#516=DIRECTION('',(-1.0,-0.0,0.0));
#517=DIRECTION('',(1.0,-0.0,0.0));
#518=DIRECTION('',(0.707106781186548,0.707106781186547,1.73185491414387E-016));
#519=CARTESIAN_POINT('',(0.9,0.0,0.0));
#520=DIRECTION('',(1.0,0.0,1.22460635382238E-016));
#521=DIRECTION('',(1.22460635382238E-016,0.0,-1.0));
#522=CARTESIAN_POINT('',(0.9,0.0,0.0));
#523=DIRECTION('',(1.0,0.0,1.22460635382238E-016));
#524=DIRECTION('',(1.22460635382238E-016,0.0,-1.0));
#525=DIRECTION('',(-0.707106781186548,0.707106781186547,-1.7888002385964E-032));
#526=DIRECTION('',(-0.707106781186548,0.707106781186547,-2.59778237121581E-016));
#527=CARTESIAN_POINT('',(25.0,0.0,1.97215226305253E-031));
#528=DIRECTION('',(1.0,0.0,0.0));
#529=DIRECTION('',(0.0,1.0,0.0));
#530=DIRECTION('',(0.707106781186548,0.707106781186547,8.65927457071936E-017));
#531=CARTESIAN_POINT('',(24.1,0.0,0.0));
#532=DIRECTION('',(-1.0,0.0,-2.44921270764475E-016));
#533=DIRECTION('',(2.44921270764475E-016,0.0,-1.0));
#534=CARTESIAN_POINT('',(24.1,0.0,0.0));
#535=DIRECTION('',(-1.0,0.0,-2.44921270764475E-016));
#536=DIRECTION('',(2.44921270764475E-016,0.0,-1.0));
#537=DIRECTION('',(1.0,0.0,0.0));
#538=CARTESIAN_POINT('',(0.9,0.0,0.0));
#539=DIRECTION('',(1.0,0.0,1.22460635382238E-016));
#540=DIRECTION('',(1.22460635382238E-016,0.0,-1.0));
#541=DIRECTION('',(-1.0,-0.0,-0.0));
#542=CARTESIAN_POINT('',(24.1,0.0,0.0));
#543=DIRECTION('',(-1.0,0.0,-2.44921270764475E-016));
#544=DIRECTION('',(2.44921270764475E-016,0.0,-1.0));
#545=CARTESIAN_POINT('',(24.1,0.0,0.0));
#546=DIRECTION('',(-1.0,0.0,-2.44921270764475E-016));
#547=DIRECTION('',(2.44921270764475E-016,0.0,-1.0));
#548=CARTESIAN_POINT('',(0.9,0.0,0.0));
#549=DIRECTION('',(1.0,0.0,1.22460635382238E-016));
#550=DIRECTION('',(1.22460635382238E-016,0.0,-1.0));
#551=CARTESIAN_POINT('',(25.0,0.0,0.0));
#552=DIRECTION('',(-1.0,0.0,0.0));
#553=DIRECTION('',(0.0,1.0,0.0));
#554=CARTESIAN_POINT('',(24.4,0.0,0.0));
#555=DIRECTION('',(1.0,0.0,0.0));
#556=DIRECTION('',(0.0,1.0,0.0));
#557=CARTESIAN_POINT('',(25.0,0.0,1.97215226305253E-031));
#558=DIRECTION('',(1.0,0.0,0.0));
#559=DIRECTION('',(0.0,1.0,0.0));
ENDSEC;
END-ISO-10303-21;
