ISO-10303-21;
HEADER;
FILE_DESCRIPTION(('STEP AP214'),'1');
FILE_NAME('C:/Temp/output/halder/CAD/Temp/HALDERN_EH_23111_0714.stp','2015-05-04T09:25:15',('TraceParts'),('TraceParts S.A.'),'Spatial InterOp 3D',' ',' ');
FILE_SCHEMA(('automotive_design'));
ENDSEC;
DATA;
#1=MECHANICAL_DESIGN_GEOMETRIC_PRESENTATION_REPRESENTATION(' ',(#10,#11,#12,#13,#14,#15,#16,#17,#18,#19,#20,#21,#22,#23),#6);
#2=PRODUCT_DEFINITION_CONTEXT('',#24,'design');
#3=APPLICATION_PROTOCOL_DEFINITION('INTERNATIONAL STANDARD','automotive_design',1994,#24);
#4=PRODUCT_CATEGORY_RELATIONSHIP('NONE','NONE',#25,#26);
#5=SHAPE_DEFINITION_REPRESENTATION(#27,#28);
#6= (GEOMETRIC_REPRESENTATION_CONTEXT(3)GLOBAL_UNCERTAINTY_ASSIGNED_CONTEXT((#31))GLOBAL_UNIT_ASSIGNED_CONTEXT((#33,#34,#35))REPRESENTATION_CONTEXT('NONE','WORKSPACE'));
#10=STYLED_ITEM('',(#37),#38);
#11=STYLED_ITEM('',(#39),#40);
#12=STYLED_ITEM('',(#41),#42);
#13=STYLED_ITEM('',(#43),#44);
#14=STYLED_ITEM('',(#45),#46);
#15=STYLED_ITEM('',(#47),#48);
#16=STYLED_ITEM('',(#49),#50);
#17=STYLED_ITEM('',(#51),#52);
#18=STYLED_ITEM('',(#53),#54);
#19=STYLED_ITEM('',(#55),#56);
#20=STYLED_ITEM('',(#57),#58);
#21=STYLED_ITEM('',(#59),#60);
#22=STYLED_ITEM('',(#61),#62);
#23=STYLED_ITEM('',(#63),#64);
#24=APPLICATION_CONTEXT(' ');
#25=PRODUCT_CATEGORY('part','NONE');
#26=PRODUCT_RELATED_PRODUCT_CATEGORY('detail',' ',(#65));
#27=PRODUCT_DEFINITION_SHAPE('NONE','NONE',#66);
#28=ADVANCED_BREP_SHAPE_REPRESENTATION('1',(#67,#68),#6);
#31=UNCERTAINTY_MEASURE_WITH_UNIT(LENGTH_MEASURE(1.0E-006),#33,'','');
#33= (CONVERSION_BASED_UNIT('MILLIMETRE',#71)LENGTH_UNIT()NAMED_UNIT(#74));
#34= (NAMED_UNIT(#76)PLANE_ANGLE_UNIT()SI_UNIT($,.RADIAN.));
#35= (NAMED_UNIT(#76)SOLID_ANGLE_UNIT()SI_UNIT($,.STERADIAN.));
#37=PRESENTATION_STYLE_ASSIGNMENT((#82));
#38=ADVANCED_FACE('',(#83),#84,.F.);
#39=PRESENTATION_STYLE_ASSIGNMENT((#85));
#40=ADVANCED_FACE('',(#86,#87),#88,.T.);
#41=PRESENTATION_STYLE_ASSIGNMENT((#89));
#42=ADVANCED_FACE('',(#90),#91,.T.);
#43=PRESENTATION_STYLE_ASSIGNMENT((#92));
#44=ADVANCED_FACE('',(#93),#94,.F.);
#45=PRESENTATION_STYLE_ASSIGNMENT((#95));
#46=ADVANCED_FACE('',(#96),#97,.T.);
#47=PRESENTATION_STYLE_ASSIGNMENT((#98));
#48=ADVANCED_FACE('',(#99),#100,.T.);
#49=PRESENTATION_STYLE_ASSIGNMENT((#101));
#50=ADVANCED_FACE('',(#102),#103,.F.);
#51=PRESENTATION_STYLE_ASSIGNMENT((#104));
#52=ADVANCED_FACE('',(#105),#106,.T.);
#53=PRESENTATION_STYLE_ASSIGNMENT((#107));
#54=ADVANCED_FACE('',(#108,#109),#110,.T.);
#55=PRESENTATION_STYLE_ASSIGNMENT((#111));
#56=ADVANCED_FACE('',(#112),#113,.T.);
#57=PRESENTATION_STYLE_ASSIGNMENT((#114));
#58=ADVANCED_FACE('',(#115),#116,.T.);
#59=PRESENTATION_STYLE_ASSIGNMENT((#117));
#60=ADVANCED_FACE('',(#118),#119,.F.);
#61=PRESENTATION_STYLE_ASSIGNMENT((#120));
#62=ADVANCED_FACE('',(#121),#122,.F.);
#63=PRESENTATION_STYLE_ASSIGNMENT((#123));
#64=ADVANCED_FACE('',(#124),#125,.F.);
#65=PRODUCT('1','1','PART-1-DESC',(#126));
#66=PRODUCT_DEFINITION('NONE','NONE',#127,#2);
#67=MANIFOLD_SOLID_BREP('1',#128);
#68=AXIS2_PLACEMENT_3D('',#129,#130,#131);
#71=LENGTH_MEASURE_WITH_UNIT(LENGTH_MEASURE(1.0),#132);
#74=DIMENSIONAL_EXPONENTS(1.0,0.0,0.0,0.0,0.0,0.0,0.0);
#76=DIMENSIONAL_EXPONENTS(0.0,0.0,0.0,0.0,0.0,0.0,0.0);
#82=SURFACE_STYLE_USAGE(.BOTH.,#133);
#83=FACE_OUTER_BOUND('',#134,.T.);
#84=CONICAL_SURFACE('',#135,15.3,0.785398163397448);
#85=SURFACE_STYLE_USAGE(.BOTH.,#136);
#86=FACE_BOUND('',#137,.T.);
#87=FACE_OUTER_BOUND('',#138,.T.);
#88=PLANE('',#139);
#89=SURFACE_STYLE_USAGE(.BOTH.,#140);
#90=FACE_OUTER_BOUND('',#141,.T.);
#91=CONICAL_SURFACE('',#142,22.05,0.785398163397448);
#92=SURFACE_STYLE_USAGE(.BOTH.,#143);
#93=FACE_OUTER_BOUND('',#144,.T.);
#94=CONICAL_SURFACE('',#145,15.3,0.785398163397447);
#95=SURFACE_STYLE_USAGE(.BOTH.,#146);
#96=FACE_OUTER_BOUND('',#147,.T.);
#97=CONICAL_SURFACE('',#148,22.05,0.785398163397448);
#98=SURFACE_STYLE_USAGE(.BOTH.,#149);
#99=FACE_OUTER_BOUND('',#150,.T.);
#100=CONICAL_SURFACE('',#151,22.05,0.785398163397448);
#101=SURFACE_STYLE_USAGE(.BOTH.,#152);
#102=FACE_OUTER_BOUND('',#153,.T.);
#103=CYLINDRICAL_SURFACE('',#154,15.0);
#104=SURFACE_STYLE_USAGE(.BOTH.,#155);
#105=FACE_OUTER_BOUND('',#156,.T.);
#106=CONICAL_SURFACE('',#157,22.05,0.785398163397448);
#107=SURFACE_STYLE_USAGE(.BOTH.,#158);
#108=FACE_BOUND('',#159,.T.);
#109=FACE_OUTER_BOUND('',#160,.T.);
#110=PLANE('',#161);
#111=SURFACE_STYLE_USAGE(.BOTH.,#162);
#112=FACE_OUTER_BOUND('',#163,.T.);
#113=CYLINDRICAL_SURFACE('',#164,22.5);
#114=SURFACE_STYLE_USAGE(.BOTH.,#165);
#115=FACE_OUTER_BOUND('',#166,.T.);
#116=CYLINDRICAL_SURFACE('',#167,22.5);
#117=SURFACE_STYLE_USAGE(.BOTH.,#168);
#118=FACE_OUTER_BOUND('',#169,.T.);
#119=CONICAL_SURFACE('',#170,15.3,0.785398163397448);
#120=SURFACE_STYLE_USAGE(.BOTH.,#171);
#121=FACE_OUTER_BOUND('',#172,.T.);
#122=CONICAL_SURFACE('',#173,15.3,0.785398163397447);
#123=SURFACE_STYLE_USAGE(.BOTH.,#174);
#124=FACE_OUTER_BOUND('',#175,.T.);
#125=CYLINDRICAL_SURFACE('',#176,15.0);
#126=PRODUCT_CONTEXT('',#24,'mechanical');
#127=PRODUCT_DEFINITION_FORMATION_WITH_SPECIFIED_SOURCE(' ','NONE',#65,.NOT_KNOWN.);
#128=CLOSED_SHELL('',(#58,#46,#48,#62,#50,#60,#38,#64,#44,#42,#52,#56,#54,#40));
#129=CARTESIAN_POINT('',(0.0,0.0,0.0));
#130=DIRECTION('',(0.0,0.0,1.0));
#131=DIRECTION('',(1.0,0.0,0.0));
#132= (NAMED_UNIT(#74)LENGTH_UNIT()SI_UNIT(.MILLI.,.METRE.));
#133=SURFACE_SIDE_STYLE('',(#178));
#134=EDGE_LOOP('',(#179,#180,#181,#182));
#135=AXIS2_PLACEMENT_3D('',#183,#184,#185);
#136=SURFACE_SIDE_STYLE('',(#186));
#137=EDGE_LOOP('',(#187,#188));
#138=EDGE_LOOP('',(#189,#190));
#139=AXIS2_PLACEMENT_3D('',#191,#192,#193);
#140=SURFACE_SIDE_STYLE('',(#194));
#141=EDGE_LOOP('',(#195,#196,#197,#198,#199));
#142=AXIS2_PLACEMENT_3D('',#200,#201,#202);
#143=SURFACE_SIDE_STYLE('',(#203));
#144=EDGE_LOOP('',(#204,#205,#206,#207));
#145=AXIS2_PLACEMENT_3D('',#208,#209,#210);
#146=SURFACE_SIDE_STYLE('',(#211));
#147=EDGE_LOOP('',(#212,#213,#214,#215,#216));
#148=AXIS2_PLACEMENT_3D('',#217,#218,#219);
#149=SURFACE_SIDE_STYLE('',(#220));
#150=EDGE_LOOP('',(#221,#222,#223,#224,#225));
#151=AXIS2_PLACEMENT_3D('',#226,#227,#228);
#152=SURFACE_SIDE_STYLE('',(#229));
#153=EDGE_LOOP('',(#230,#231,#232,#233));
#154=AXIS2_PLACEMENT_3D('',#234,#235,#236);
#155=SURFACE_SIDE_STYLE('',(#237));
#156=EDGE_LOOP('',(#238,#239,#240,#241,#242));
#157=AXIS2_PLACEMENT_3D('',#243,#244,#245);
#158=SURFACE_SIDE_STYLE('',(#246));
#159=EDGE_LOOP('',(#247,#248));
#160=EDGE_LOOP('',(#249,#250));
#161=AXIS2_PLACEMENT_3D('',#251,#252,#253);
#162=SURFACE_SIDE_STYLE('',(#254));
#163=EDGE_LOOP('',(#255,#256,#257,#258,#259,#260));
#164=AXIS2_PLACEMENT_3D('',#261,#262,#263);
#165=SURFACE_SIDE_STYLE('',(#264));
#166=EDGE_LOOP('',(#265,#266,#267,#268,#269,#270));
#167=AXIS2_PLACEMENT_3D('',#271,#272,#273);
#168=SURFACE_SIDE_STYLE('',(#274));
#169=EDGE_LOOP('',(#275,#276,#277,#278));
#170=AXIS2_PLACEMENT_3D('',#279,#280,#281);
#171=SURFACE_SIDE_STYLE('',(#282));
#172=EDGE_LOOP('',(#283,#284,#285,#286));
#173=AXIS2_PLACEMENT_3D('',#287,#288,#289);
#174=SURFACE_SIDE_STYLE('',(#290));
#175=EDGE_LOOP('',(#291,#292,#293,#294));
#176=AXIS2_PLACEMENT_3D('',#295,#296,#297);
#178=SURFACE_STYLE_FILL_AREA(#298);
#179=ORIENTED_EDGE('',*,*,#299,.T.);
#180=ORIENTED_EDGE('',*,*,#300,.F.);
#181=ORIENTED_EDGE('',*,*,#301,.T.);
#182=ORIENTED_EDGE('',*,*,#302,.T.);
#183=CARTESIAN_POINT('',(0.300000000000001,0.0,0.0));
#184=DIRECTION('',(-1.0,-0.0,-0.0));
#185=DIRECTION('',(0.0,1.0,0.0));
#186=SURFACE_STYLE_FILL_AREA(#303);
#187=ORIENTED_EDGE('',*,*,#304,.T.);
#188=ORIENTED_EDGE('',*,*,#305,.T.);
#189=ORIENTED_EDGE('',*,*,#306,.T.);
#190=ORIENTED_EDGE('',*,*,#307,.T.);
#191=CARTESIAN_POINT('',(20.0,0.0,0.0));
#192=DIRECTION('',(1.0,0.0,0.0));
#193=DIRECTION('',(0.0,0.0,-1.0));
#194=SURFACE_STYLE_FILL_AREA(#308);
#195=ORIENTED_EDGE('',*,*,#309,.T.);
#196=ORIENTED_EDGE('',*,*,#310,.F.);
#197=ORIENTED_EDGE('',*,*,#311,.F.);
#198=ORIENTED_EDGE('',*,*,#312,.T.);
#199=ORIENTED_EDGE('',*,*,#306,.F.);
#200=CARTESIAN_POINT('',(19.55,0.0,-1.10214571844014E-016));
#201=DIRECTION('',(-1.0,0.0,-2.44921270764476E-016));
#202=DIRECTION('',(0.0,1.0,0.0));
#203=SURFACE_STYLE_FILL_AREA(#313);
#204=ORIENTED_EDGE('',*,*,#314,.T.);
#205=ORIENTED_EDGE('',*,*,#315,.F.);
#206=ORIENTED_EDGE('',*,*,#316,.T.);
#207=ORIENTED_EDGE('',*,*,#304,.F.);
#208=CARTESIAN_POINT('',(19.7,0.0,0.0));
#209=DIRECTION('',(1.0,-0.0,-0.0));
#210=DIRECTION('',(0.0,1.0,0.0));
#211=SURFACE_STYLE_FILL_AREA(#317);
#212=ORIENTED_EDGE('',*,*,#318,.F.);
#213=ORIENTED_EDGE('',*,*,#319,.F.);
#214=ORIENTED_EDGE('',*,*,#320,.F.);
#215=ORIENTED_EDGE('',*,*,#321,.F.);
#216=ORIENTED_EDGE('',*,*,#322,.F.);
#217=CARTESIAN_POINT('',(0.449999999999999,0.0,5.5107285922007E-017));
#218=DIRECTION('',(1.0,-0.0,1.22460635382238E-016));
#219=DIRECTION('',(0.0,1.0,0.0));
#220=SURFACE_STYLE_FILL_AREA(#323);
#221=ORIENTED_EDGE('',*,*,#309,.F.);
#222=ORIENTED_EDGE('',*,*,#307,.F.);
#223=ORIENTED_EDGE('',*,*,#312,.F.);
#224=ORIENTED_EDGE('',*,*,#324,.F.);
#225=ORIENTED_EDGE('',*,*,#325,.F.);
#226=CARTESIAN_POINT('',(19.55,0.0,-1.10214571844014E-016));
#227=DIRECTION('',(-1.0,0.0,-2.44921270764476E-016));
#228=DIRECTION('',(0.0,1.0,0.0));
#229=SURFACE_STYLE_FILL_AREA(#326);
#230=ORIENTED_EDGE('',*,*,#327,.F.);
#231=ORIENTED_EDGE('',*,*,#328,.T.);
#232=ORIENTED_EDGE('',*,*,#329,.F.);
#233=ORIENTED_EDGE('',*,*,#330,.F.);
#234=CARTESIAN_POINT('',(10.0,0.0,0.0));
#235=DIRECTION('',(1.0,0.0,0.0));
#236=DIRECTION('',(0.0,1.0,0.0));
#237=SURFACE_STYLE_FILL_AREA(#331);
#238=ORIENTED_EDGE('',*,*,#318,.T.);
#239=ORIENTED_EDGE('',*,*,#332,.F.);
#240=ORIENTED_EDGE('',*,*,#333,.F.);
#241=ORIENTED_EDGE('',*,*,#320,.T.);
#242=ORIENTED_EDGE('',*,*,#334,.F.);
#243=CARTESIAN_POINT('',(0.449999999999999,0.0,5.5107285922007E-017));
#244=DIRECTION('',(1.0,-0.0,1.22460635382238E-016));
#245=DIRECTION('',(0.0,1.0,0.0));
#246=SURFACE_STYLE_FILL_AREA(#335);
#247=ORIENTED_EDGE('',*,*,#336,.T.);
#248=ORIENTED_EDGE('',*,*,#300,.T.);
#249=ORIENTED_EDGE('',*,*,#334,.T.);
#250=ORIENTED_EDGE('',*,*,#319,.T.);
#251=CARTESIAN_POINT('',(0.0,0.0,0.0));
#252=DIRECTION('',(-1.0,0.0,0.0));
#253=DIRECTION('',(0.0,0.0,1.0));
#254=SURFACE_STYLE_FILL_AREA(#337);
#255=ORIENTED_EDGE('',*,*,#338,.T.);
#256=ORIENTED_EDGE('',*,*,#324,.T.);
#257=ORIENTED_EDGE('',*,*,#311,.T.);
#258=ORIENTED_EDGE('',*,*,#339,.T.);
#259=ORIENTED_EDGE('',*,*,#321,.T.);
#260=ORIENTED_EDGE('',*,*,#333,.T.);
#261=CARTESIAN_POINT('',(10.0,0.0,0.0));
#262=DIRECTION('',(1.0,0.0,0.0));
#263=DIRECTION('',(0.0,0.0,-1.0));
#264=SURFACE_STYLE_FILL_AREA(#340);
#265=ORIENTED_EDGE('',*,*,#338,.F.);
#266=ORIENTED_EDGE('',*,*,#332,.T.);
#267=ORIENTED_EDGE('',*,*,#322,.T.);
#268=ORIENTED_EDGE('',*,*,#339,.F.);
#269=ORIENTED_EDGE('',*,*,#310,.T.);
#270=ORIENTED_EDGE('',*,*,#325,.T.);
#271=CARTESIAN_POINT('',(10.0,0.0,0.0));
#272=DIRECTION('',(1.0,0.0,0.0));
#273=DIRECTION('',(0.0,0.0,-1.0));
#274=SURFACE_STYLE_FILL_AREA(#341);
#275=ORIENTED_EDGE('',*,*,#299,.F.);
#276=ORIENTED_EDGE('',*,*,#330,.T.);
#277=ORIENTED_EDGE('',*,*,#301,.F.);
#278=ORIENTED_EDGE('',*,*,#336,.F.);
#279=CARTESIAN_POINT('',(0.300000000000001,0.0,0.0));
#280=DIRECTION('',(-1.0,-0.0,-0.0));
#281=DIRECTION('',(0.0,1.0,0.0));
#282=SURFACE_STYLE_FILL_AREA(#342);
#283=ORIENTED_EDGE('',*,*,#314,.F.);
#284=ORIENTED_EDGE('',*,*,#305,.F.);
#285=ORIENTED_EDGE('',*,*,#316,.F.);
#286=ORIENTED_EDGE('',*,*,#328,.F.);
#287=CARTESIAN_POINT('',(19.7,0.0,0.0));
#288=DIRECTION('',(1.0,-0.0,-0.0));
#289=DIRECTION('',(0.0,1.0,0.0));
#290=SURFACE_STYLE_FILL_AREA(#343);
#291=ORIENTED_EDGE('',*,*,#327,.T.);
#292=ORIENTED_EDGE('',*,*,#302,.F.);
#293=ORIENTED_EDGE('',*,*,#329,.T.);
#294=ORIENTED_EDGE('',*,*,#315,.T.);
#295=CARTESIAN_POINT('',(10.0,0.0,0.0));
#296=DIRECTION('',(1.0,0.0,0.0));
#297=DIRECTION('',(0.0,1.0,0.0));
#298=FILL_AREA_STYLE('',(#344));
#299=EDGE_CURVE('',#345,#346,#347,.T.);
#300=EDGE_CURVE('',#348,#346,#349,.T.);
#301=EDGE_CURVE('',#348,#350,#351,.T.);
#302=EDGE_CURVE('',#350,#345,#352,.T.);
#303=FILL_AREA_STYLE('',(#353));
#304=EDGE_CURVE('',#354,#355,#356,.T.);
#305=EDGE_CURVE('',#355,#354,#357,.T.);
#306=EDGE_CURVE('',#358,#359,#360,.T.);
#307=EDGE_CURVE('',#359,#358,#361,.T.);
#308=FILL_AREA_STYLE('',(#362));
#309=EDGE_CURVE('',#358,#363,#364,.T.);
#310=EDGE_CURVE('',#365,#363,#366,.T.);
#311=EDGE_CURVE('',#367,#365,#368,.T.);
#312=EDGE_CURVE('',#367,#359,#369,.T.);
#313=FILL_AREA_STYLE('',(#370));
#314=EDGE_CURVE('',#354,#371,#372,.T.);
#315=EDGE_CURVE('',#373,#371,#374,.T.);
#316=EDGE_CURVE('',#373,#355,#375,.T.);
#317=FILL_AREA_STYLE('',(#376));
#318=EDGE_CURVE('',#377,#378,#379,.T.);
#319=EDGE_CURVE('',#380,#377,#381,.T.);
#320=EDGE_CURVE('',#382,#380,#383,.T.);
#321=EDGE_CURVE('',#384,#382,#385,.T.);
#322=EDGE_CURVE('',#378,#384,#386,.T.);
#323=FILL_AREA_STYLE('',(#387));
#324=EDGE_CURVE('',#388,#367,#389,.T.);
#325=EDGE_CURVE('',#363,#388,#390,.T.);
#326=FILL_AREA_STYLE('',(#391));
#327=EDGE_CURVE('',#371,#345,#392,.T.);
#328=EDGE_CURVE('',#371,#373,#393,.T.);
#329=EDGE_CURVE('',#350,#373,#394,.T.);
#330=EDGE_CURVE('',#345,#350,#395,.T.);
#331=FILL_AREA_STYLE('',(#396));
#332=EDGE_CURVE('',#397,#378,#398,.T.);
#333=EDGE_CURVE('',#382,#397,#399,.T.);
#334=EDGE_CURVE('',#377,#380,#400,.T.);
#335=FILL_AREA_STYLE('',(#401));
#336=EDGE_CURVE('',#346,#348,#402,.T.);
#337=FILL_AREA_STYLE('',(#403));
#338=EDGE_CURVE('',#397,#388,#404,.T.);
#339=EDGE_CURVE('',#365,#384,#405,.T.);
#340=FILL_AREA_STYLE('',(#406));
#341=FILL_AREA_STYLE('',(#407));
#342=FILL_AREA_STYLE('',(#408));
#343=FILL_AREA_STYLE('',(#409));
#344=FILL_AREA_STYLE_COLOUR('',#410);
#345=VERTEX_POINT('',#411);
#346=VERTEX_POINT('',#412);
#347=LINE('',#413,#414);
#348=VERTEX_POINT('',#415);
#349=CIRCLE('',#416,15.6);
#350=VERTEX_POINT('',#417);
#351=LINE('',#418,#419);
#352=CIRCLE('',#420,15.0);
#353=FILL_AREA_STYLE_COLOUR('',#421);
#354=VERTEX_POINT('',#422);
#355=VERTEX_POINT('',#423);
#356=CIRCLE('',#424,15.6);
#357=CIRCLE('',#425,15.6);
#358=VERTEX_POINT('',#426);
#359=VERTEX_POINT('',#427);
#360=CIRCLE('',#428,21.6);
#361=CIRCLE('',#429,21.6);
#362=FILL_AREA_STYLE_COLOUR('',#430);
#363=VERTEX_POINT('',#431);
#364=LINE('',#432,#433);
#365=VERTEX_POINT('',#434);
#366=CIRCLE('',#435,22.5);
#367=VERTEX_POINT('',#436);
#368=CIRCLE('',#437,22.5);
#369=LINE('',#438,#439);
#370=FILL_AREA_STYLE_COLOUR('',#440);
#371=VERTEX_POINT('',#441);
#372=LINE('',#442,#443);
#373=VERTEX_POINT('',#444);
#374=CIRCLE('',#445,15.0);
#375=LINE('',#446,#447);
#376=FILL_AREA_STYLE_COLOUR('',#448);
#377=VERTEX_POINT('',#449);
#378=VERTEX_POINT('',#450);
#379=LINE('',#451,#452);
#380=VERTEX_POINT('',#453);
#381=CIRCLE('',#454,21.6);
#382=VERTEX_POINT('',#455);
#383=LINE('',#456,#457);
#384=VERTEX_POINT('',#458);
#385=CIRCLE('',#459,22.5);
#386=CIRCLE('',#460,22.5);
#387=FILL_AREA_STYLE_COLOUR('',#461);
#388=VERTEX_POINT('',#462);
#389=CIRCLE('',#463,22.5);
#390=CIRCLE('',#464,22.5);
#391=FILL_AREA_STYLE_COLOUR('',#465);
#392=LINE('',#466,#467);
#393=CIRCLE('',#468,15.0);
#394=LINE('',#469,#470);
#395=CIRCLE('',#471,15.0);
#396=FILL_AREA_STYLE_COLOUR('',#472);
#397=VERTEX_POINT('',#473);
#398=CIRCLE('',#474,22.5);
#399=CIRCLE('',#475,22.5);
#400=CIRCLE('',#476,21.6);
#401=FILL_AREA_STYLE_COLOUR('',#477);
#402=CIRCLE('',#478,15.6);
#403=FILL_AREA_STYLE_COLOUR('',#479);
#404=LINE('',#480,#481);
#405=LINE('',#482,#483);
#406=FILL_AREA_STYLE_COLOUR('',#484);
#407=FILL_AREA_STYLE_COLOUR('',#485);
#408=FILL_AREA_STYLE_COLOUR('',#486);
#409=FILL_AREA_STYLE_COLOUR('',#487);
#410=COLOUR_RGB('',0.752941191196442,0.752941191196442,0.752941191196442);
#411=CARTESIAN_POINT('',(0.600000000000001,15.0,0.0));
#412=CARTESIAN_POINT('',(0.0,15.6,0.0));
#413=CARTESIAN_POINT('',(0.300000000000001,15.3,-1.87364772134824E-015));
#414=VECTOR('',#488,1.0);
#415=CARTESIAN_POINT('',(0.0,-15.6,1.91038591196291E-015));
#416=AXIS2_PLACEMENT_3D('',#489,#490,#491);
#417=CARTESIAN_POINT('',(0.600000000000001,-15.0,1.83690953073357E-015));
#418=CARTESIAN_POINT('',(0.300000000000001,-15.3,1.87364772134824E-015));
#419=VECTOR('',#492,1.0);
#420=AXIS2_PLACEMENT_3D('',#493,#494,#495);
#421=COLOUR_RGB('',0.752941191196442,0.752941191196442,0.752941191196442);
#422=CARTESIAN_POINT('',(20.0,15.6,0.0));
#423=CARTESIAN_POINT('',(20.0,-15.6,1.91038591196291E-015));
#424=AXIS2_PLACEMENT_3D('',#496,#497,#498);
#425=AXIS2_PLACEMENT_3D('',#499,#500,#501);
#426=CARTESIAN_POINT('',(20.0,21.6,0.0));
#427=CARTESIAN_POINT('',(20.0,-21.6,2.64514972425634E-015));
#428=AXIS2_PLACEMENT_3D('',#502,#503,#504);
#429=AXIS2_PLACEMENT_3D('',#505,#506,#507);
#430=COLOUR_RGB('',0.752941191196442,0.752941191196442,0.752941191196442);
#431=CARTESIAN_POINT('',(19.1,22.5,-2.20429143688028E-016));
#432=CARTESIAN_POINT('',(19.55,22.05,-2.81047158202236E-015));
#433=VECTOR('',#508,1.0);
#434=CARTESIAN_POINT('',(19.1,2.75536429610035E-015,22.5));
#435=AXIS2_PLACEMENT_3D('',#509,#510,#511);
#436=CARTESIAN_POINT('',(19.1,-22.5,2.53493515241232E-015));
#437=AXIS2_PLACEMENT_3D('',#512,#513,#514);
#438=CARTESIAN_POINT('',(19.55,-22.05,2.59004243833433E-015));
#439=VECTOR('',#515,1.0);
#440=COLOUR_RGB('',0.752941191196442,0.752941191196442,0.752941191196442);
#441=CARTESIAN_POINT('',(19.4,15.0,0.0));
#442=CARTESIAN_POINT('',(19.7,15.3,-1.87364772134824E-015));
#443=VECTOR('',#516,1.0);
#444=CARTESIAN_POINT('',(19.4,-15.0,1.83690953073357E-015));
#445=AXIS2_PLACEMENT_3D('',#517,#518,#519);
#446=CARTESIAN_POINT('',(19.7,-15.3,1.87364772134824E-015));
#447=VECTOR('',#520,1.0);
#448=COLOUR_RGB('',0.752941191196442,0.752941191196442,0.752941191196442);
#449=CARTESIAN_POINT('',(0.0,21.6,0.0));
#450=CARTESIAN_POINT('',(0.9,22.5,1.10214571844014E-016));
#451=CARTESIAN_POINT('',(0.449999999999999,22.05,2.75536429610035E-015));
#452=VECTOR('',#521,1.0);
#453=CARTESIAN_POINT('',(0.0,-21.6,-2.64514972425634E-015));
#454=AXIS2_PLACEMENT_3D('',#522,#523,#524);
#455=CARTESIAN_POINT('',(0.9,-22.5,-2.64514972425633E-015));
#456=CARTESIAN_POINT('',(0.449999999999999,-22.05,-2.64514972425634E-015));
#457=VECTOR('',#525,1.0);
#458=CARTESIAN_POINT('',(0.899999999999998,2.75536429610035E-015,22.5));
#459=AXIS2_PLACEMENT_3D('',#526,#527,#528);
#460=AXIS2_PLACEMENT_3D('',#529,#530,#531);
#461=COLOUR_RGB('',0.752941191196442,0.752941191196442,0.752941191196442);
#462=CARTESIAN_POINT('',(19.1,-2.75536429610035E-015,-22.5));
#463=AXIS2_PLACEMENT_3D('',#532,#533,#534);
#464=AXIS2_PLACEMENT_3D('',#535,#536,#537);
#465=COLOUR_RGB('',0.752941191196442,0.752941191196442,0.752941191196442);
#466=CARTESIAN_POINT('',(10.0,15.0,-1.83690953073357E-015));
#467=VECTOR('',#538,1.0);
#468=AXIS2_PLACEMENT_3D('',#539,#540,#541);
#469=CARTESIAN_POINT('',(10.0,-15.0,1.83690953073357E-015));
#470=VECTOR('',#542,1.0);
#471=AXIS2_PLACEMENT_3D('',#543,#544,#545);
#472=COLOUR_RGB('',0.752941191196442,0.752941191196442,0.752941191196442);
#473=CARTESIAN_POINT('',(0.900000000000003,-2.75536429610035E-015,-22.5));
#474=AXIS2_PLACEMENT_3D('',#546,#547,#548);
#475=AXIS2_PLACEMENT_3D('',#549,#550,#551);
#476=AXIS2_PLACEMENT_3D('',#552,#553,#554);
#477=COLOUR_RGB('',0.752941191196442,0.752941191196442,0.752941191196442);
#478=AXIS2_PLACEMENT_3D('',#555,#556,#557);
#479=COLOUR_RGB('',0.752941191196442,0.752941191196442,0.752941191196442);
#480=CARTESIAN_POINT('',(10.0,-2.75536429610035E-015,-22.5));
#481=VECTOR('',#558,1.0);
#482=CARTESIAN_POINT('',(10.0,2.75536429610035E-015,22.5));
#483=VECTOR('',#559,1.0);
#484=COLOUR_RGB('',0.752941191196442,0.752941191196442,0.752941191196442);
#485=COLOUR_RGB('',0.752941191196442,0.752941191196442,0.752941191196442);
#486=COLOUR_RGB('',0.752941191196442,0.752941191196442,0.752941191196442);
#487=COLOUR_RGB('',0.752941191196442,0.752941191196442,0.752941191196442);
#488=DIRECTION('',(-0.707106781186548,0.707106781186547,-8.65927457071935E-017));
#489=CARTESIAN_POINT('',(0.0,0.0,0.0));
#490=DIRECTION('',(1.0,0.0,0.0));
#491=DIRECTION('',(0.0,1.0,0.0));
#492=DIRECTION('',(0.707106781186548,0.707106781186547,-8.65927457071935E-017));
#493=CARTESIAN_POINT('',(0.600000000000001,0.0,0.0));
#494=DIRECTION('',(1.0,0.0,0.0));
#495=DIRECTION('',(0.0,1.0,0.0));
#496=CARTESIAN_POINT('',(20.0,0.0,0.0));
#497=DIRECTION('',(-1.0,0.0,0.0));
#498=DIRECTION('',(0.0,1.0,0.0));
#499=CARTESIAN_POINT('',(20.0,0.0,0.0));
#500=DIRECTION('',(-1.0,0.0,0.0));
#501=DIRECTION('',(0.0,1.0,0.0));
#502=CARTESIAN_POINT('',(20.0,0.0,1.97215226305253E-031));
#503=DIRECTION('',(1.0,0.0,0.0));
#504=DIRECTION('',(0.0,1.0,0.0));
#505=CARTESIAN_POINT('',(20.0,0.0,1.97215226305253E-031));
#506=DIRECTION('',(1.0,0.0,0.0));
#507=DIRECTION('',(0.0,1.0,0.0));
#508=DIRECTION('',(-0.707106781186548,0.707106781186547,-2.59778237121581E-016));
#509=CARTESIAN_POINT('',(19.1,0.0,0.0));
#510=DIRECTION('',(-1.0,0.0,-2.44921270764475E-016));
#511=DIRECTION('',(2.44921270764475E-016,0.0,-1.0));
#512=CARTESIAN_POINT('',(19.1,0.0,0.0));
#513=DIRECTION('',(-1.0,0.0,-2.44921270764475E-016));
#514=DIRECTION('',(2.44921270764475E-016,0.0,-1.0));
#515=DIRECTION('',(0.707106781186548,0.707106781186547,8.65927457071936E-017));
#516=DIRECTION('',(-0.707106781186549,-0.707106781186547,8.65927457071934E-017));
#517=CARTESIAN_POINT('',(19.4,0.0,0.0));
#518=DIRECTION('',(1.0,0.0,0.0));
#519=DIRECTION('',(0.0,1.0,0.0));
#520=DIRECTION('',(0.707106781186549,-0.707106781186547,8.65927457071934E-017));
#521=DIRECTION('',(0.707106781186548,0.707106781186547,1.73185491414387E-016));
#522=CARTESIAN_POINT('',(0.0,0.0,-9.86076131526265E-032));
#523=DIRECTION('',(-1.0,0.0,0.0));
#524=DIRECTION('',(0.0,1.0,0.0));
#525=DIRECTION('',(-0.707106781186548,0.707106781186547,-1.7888002385964E-032));
#526=CARTESIAN_POINT('',(0.9,0.0,0.0));
#527=DIRECTION('',(1.0,0.0,1.22460635382238E-016));
#528=DIRECTION('',(1.22460635382238E-016,0.0,-1.0));
#529=CARTESIAN_POINT('',(0.9,0.0,0.0));
#530=DIRECTION('',(1.0,0.0,1.22460635382238E-016));
#531=DIRECTION('',(1.22460635382238E-016,0.0,-1.0));
#532=CARTESIAN_POINT('',(19.1,0.0,0.0));
#533=DIRECTION('',(-1.0,0.0,-2.44921270764475E-016));
#534=DIRECTION('',(2.44921270764475E-016,0.0,-1.0));
#535=CARTESIAN_POINT('',(19.1,0.0,0.0));
#536=DIRECTION('',(-1.0,0.0,-2.44921270764475E-016));
#537=DIRECTION('',(2.44921270764475E-016,0.0,-1.0));
#538=DIRECTION('',(-1.0,-0.0,0.0));
#539=CARTESIAN_POINT('',(19.4,0.0,0.0));
#540=DIRECTION('',(1.0,0.0,0.0));
#541=DIRECTION('',(0.0,1.0,0.0));
#542=DIRECTION('',(1.0,-0.0,0.0));
#543=CARTESIAN_POINT('',(0.600000000000001,0.0,0.0));
#544=DIRECTION('',(1.0,0.0,0.0));
#545=DIRECTION('',(0.0,1.0,0.0));
#546=CARTESIAN_POINT('',(0.9,0.0,0.0));
#547=DIRECTION('',(1.0,0.0,1.22460635382238E-016));
#548=DIRECTION('',(1.22460635382238E-016,0.0,-1.0));
#549=CARTESIAN_POINT('',(0.9,0.0,0.0));
#550=DIRECTION('',(1.0,0.0,1.22460635382238E-016));
#551=DIRECTION('',(1.22460635382238E-016,0.0,-1.0));
#552=CARTESIAN_POINT('',(0.0,0.0,-9.86076131526265E-032));
#553=DIRECTION('',(-1.0,0.0,0.0));
#554=DIRECTION('',(0.0,1.0,0.0));
#555=CARTESIAN_POINT('',(0.0,0.0,0.0));
#556=DIRECTION('',(1.0,0.0,0.0));
#557=DIRECTION('',(0.0,1.0,0.0));
#558=DIRECTION('',(1.0,0.0,0.0));
#559=DIRECTION('',(-1.0,-0.0,-0.0));
ENDSEC;
END-ISO-10303-21;
