ISO-10303-21;
HEADER;
FILE_DESCRIPTION(('STEP AP214'),'1');
FILE_NAME('C:/Temp/output/halder/CAD/Temp/HALDERN_EH_23111_0712.stp','2015-05-04T09:25:15',('TraceParts'),('TraceParts S.A.'),'Spatial InterOp 3D',' ',' ');
FILE_SCHEMA(('automotive_design'));
ENDSEC;
DATA;
#1=MECHANICAL_DESIGN_GEOMETRIC_PRESENTATION_REPRESENTATION(' ',(#10,#11,#12,#13,#14,#15,#16,#17,#18,#19,#20,#21,#22,#23),#6);
#2=PRODUCT_DEFINITION_CONTEXT('',#24,'design');
#3=APPLICATION_PROTOCOL_DEFINITION('INTERNATIONAL STANDARD','automotive_design',1994,#24);
#4=PRODUCT_CATEGORY_RELATIONSHIP('NONE','NONE',#25,#26);
#5=SHAPE_DEFINITION_REPRESENTATION(#27,#28);
#6= (GEOMETRIC_REPRESENTATION_CONTEXT(3)GLOBAL_UNCERTAINTY_ASSIGNED_CONTEXT((#31))GLOBAL_UNIT_ASSIGNED_CONTEXT((#33,#34,#35))REPRESENTATION_CONTEXT('NONE','WORKSPACE'));
#10=STYLED_ITEM('',(#37),#38);
#11=STYLED_ITEM('',(#39),#40);
#12=STYLED_ITEM('',(#41),#42);
#13=STYLED_ITEM('',(#43),#44);
#14=STYLED_ITEM('',(#45),#46);
#15=STYLED_ITEM('',(#47),#48);
#16=STYLED_ITEM('',(#49),#50);
#17=STYLED_ITEM('',(#51),#52);
#18=STYLED_ITEM('',(#53),#54);
#19=STYLED_ITEM('',(#55),#56);
#20=STYLED_ITEM('',(#57),#58);
#21=STYLED_ITEM('',(#59),#60);
#22=STYLED_ITEM('',(#61),#62);
#23=STYLED_ITEM('',(#63),#64);
#24=APPLICATION_CONTEXT(' ');
#25=PRODUCT_CATEGORY('part','NONE');
#26=PRODUCT_RELATED_PRODUCT_CATEGORY('detail',' ',(#65));
#27=PRODUCT_DEFINITION_SHAPE('NONE','NONE',#66);
#28=ADVANCED_BREP_SHAPE_REPRESENTATION('1',(#67,#68),#6);
#31=UNCERTAINTY_MEASURE_WITH_UNIT(LENGTH_MEASURE(1.0E-006),#33,'','');
#33= (CONVERSION_BASED_UNIT('MILLIMETRE',#71)LENGTH_UNIT()NAMED_UNIT(#74));
#34= (NAMED_UNIT(#76)PLANE_ANGLE_UNIT()SI_UNIT($,.RADIAN.));
#35= (NAMED_UNIT(#76)SOLID_ANGLE_UNIT()SI_UNIT($,.STERADIAN.));
#37=PRESENTATION_STYLE_ASSIGNMENT((#82));
#38=ADVANCED_FACE('',(#83),#84,.T.);
#39=PRESENTATION_STYLE_ASSIGNMENT((#85));
#40=ADVANCED_FACE('',(#86),#87,.T.);
#41=PRESENTATION_STYLE_ASSIGNMENT((#88));
#42=ADVANCED_FACE('',(#89),#90,.T.);
#43=PRESENTATION_STYLE_ASSIGNMENT((#91));
#44=ADVANCED_FACE('',(#92),#93,.T.);
#45=PRESENTATION_STYLE_ASSIGNMENT((#94));
#46=ADVANCED_FACE('',(#95),#96,.F.);
#47=PRESENTATION_STYLE_ASSIGNMENT((#97));
#48=ADVANCED_FACE('',(#98),#99,.F.);
#49=PRESENTATION_STYLE_ASSIGNMENT((#100));
#50=ADVANCED_FACE('',(#101,#102),#103,.T.);
#51=PRESENTATION_STYLE_ASSIGNMENT((#104));
#52=ADVANCED_FACE('',(#105),#106,.F.);
#53=PRESENTATION_STYLE_ASSIGNMENT((#107));
#54=ADVANCED_FACE('',(#108),#109,.F.);
#55=PRESENTATION_STYLE_ASSIGNMENT((#110));
#56=ADVANCED_FACE('',(#111),#112,.F.);
#57=PRESENTATION_STYLE_ASSIGNMENT((#113));
#58=ADVANCED_FACE('',(#114,#115),#116,.T.);
#59=PRESENTATION_STYLE_ASSIGNMENT((#117));
#60=ADVANCED_FACE('',(#118),#119,.T.);
#61=PRESENTATION_STYLE_ASSIGNMENT((#120));
#62=ADVANCED_FACE('',(#121),#122,.F.);
#63=PRESENTATION_STYLE_ASSIGNMENT((#123));
#64=ADVANCED_FACE('',(#124),#125,.T.);
#65=PRODUCT('1','1','PART-1-DESC',(#126));
#66=PRODUCT_DEFINITION('NONE','NONE',#127,#2);
#67=MANIFOLD_SOLID_BREP('1',#128);
#68=AXIS2_PLACEMENT_3D('',#129,#130,#131);
#71=LENGTH_MEASURE_WITH_UNIT(LENGTH_MEASURE(1.0),#132);
#74=DIMENSIONAL_EXPONENTS(1.0,0.0,0.0,0.0,0.0,0.0,0.0);
#76=DIMENSIONAL_EXPONENTS(0.0,0.0,0.0,0.0,0.0,0.0,0.0);
#82=SURFACE_STYLE_USAGE(.BOTH.,#133);
#83=FACE_OUTER_BOUND('',#134,.T.);
#84=CONICAL_SURFACE('',#135,17.15,0.785398163397448);
#85=SURFACE_STYLE_USAGE(.BOTH.,#136);
#86=FACE_OUTER_BOUND('',#137,.T.);
#87=CYLINDRICAL_SURFACE('',#138,17.5);
#88=SURFACE_STYLE_USAGE(.BOTH.,#139);
#89=FACE_OUTER_BOUND('',#140,.T.);
#90=CONICAL_SURFACE('',#141,17.15,0.785398163397448);
#91=SURFACE_STYLE_USAGE(.BOTH.,#142);
#92=FACE_OUTER_BOUND('',#143,.T.);
#93=CONICAL_SURFACE('',#144,17.15,0.785398163397448);
#94=SURFACE_STYLE_USAGE(.BOTH.,#145);
#95=FACE_OUTER_BOUND('',#146,.T.);
#96=CONICAL_SURFACE('',#147,12.75,0.785398163397448);
#97=SURFACE_STYLE_USAGE(.BOTH.,#148);
#98=FACE_OUTER_BOUND('',#149,.T.);
#99=CYLINDRICAL_SURFACE('',#150,12.5);
#100=SURFACE_STYLE_USAGE(.BOTH.,#151);
#101=FACE_BOUND('',#152,.T.);
#102=FACE_OUTER_BOUND('',#153,.T.);
#103=PLANE('',#154);
#104=SURFACE_STYLE_USAGE(.BOTH.,#155);
#105=FACE_OUTER_BOUND('',#156,.T.);
#106=CONICAL_SURFACE('',#157,12.75,0.785398163397448);
#107=SURFACE_STYLE_USAGE(.BOTH.,#158);
#108=FACE_OUTER_BOUND('',#159,.T.);
#109=CYLINDRICAL_SURFACE('',#160,12.5);
#110=SURFACE_STYLE_USAGE(.BOTH.,#161);
#111=FACE_OUTER_BOUND('',#162,.T.);
#112=CONICAL_SURFACE('',#163,12.75,0.785398163397448);
#113=SURFACE_STYLE_USAGE(.BOTH.,#164);
#114=FACE_BOUND('',#165,.T.);
#115=FACE_OUTER_BOUND('',#166,.T.);
#116=PLANE('',#167);
#117=SURFACE_STYLE_USAGE(.BOTH.,#168);
#118=FACE_OUTER_BOUND('',#169,.T.);
#119=CYLINDRICAL_SURFACE('',#170,17.5);
#120=SURFACE_STYLE_USAGE(.BOTH.,#171);
#121=FACE_OUTER_BOUND('',#172,.T.);
#122=CONICAL_SURFACE('',#173,12.75,0.785398163397448);
#123=SURFACE_STYLE_USAGE(.BOTH.,#174);
#124=FACE_OUTER_BOUND('',#175,.T.);
#125=CONICAL_SURFACE('',#176,17.15,0.785398163397448);
#126=PRODUCT_CONTEXT('',#24,'mechanical');
#127=PRODUCT_DEFINITION_FORMATION_WITH_SPECIFIED_SOURCE(' ','NONE',#65,.NOT_KNOWN.);
#128=CLOSED_SHELL('',(#40,#42,#44,#46,#48,#62,#52,#54,#56,#38,#64,#60,#50,#58));
#129=CARTESIAN_POINT('',(0.0,0.0,0.0));
#130=DIRECTION('',(0.0,0.0,1.0));
#131=DIRECTION('',(1.0,0.0,0.0));
#132= (NAMED_UNIT(#74)LENGTH_UNIT()SI_UNIT(.MILLI.,.METRE.));
#133=SURFACE_SIDE_STYLE('',(#178));
#134=EDGE_LOOP('',(#179,#180,#181,#182,#183));
#135=AXIS2_PLACEMENT_3D('',#184,#185,#186);
#136=SURFACE_SIDE_STYLE('',(#187));
#137=EDGE_LOOP('',(#188,#189,#190,#191,#192,#193));
#138=AXIS2_PLACEMENT_3D('',#194,#195,#196);
#139=SURFACE_SIDE_STYLE('',(#197));
#140=EDGE_LOOP('',(#198,#199,#200,#201,#202));
#141=AXIS2_PLACEMENT_3D('',#203,#204,#205);
#142=SURFACE_SIDE_STYLE('',(#206));
#143=EDGE_LOOP('',(#207,#208,#209,#210,#211));
#144=AXIS2_PLACEMENT_3D('',#212,#213,#214);
#145=SURFACE_SIDE_STYLE('',(#215));
#146=EDGE_LOOP('',(#216,#217,#218,#219));
#147=AXIS2_PLACEMENT_3D('',#220,#221,#222);
#148=SURFACE_SIDE_STYLE('',(#223));
#149=EDGE_LOOP('',(#224,#225,#226,#227));
#150=AXIS2_PLACEMENT_3D('',#228,#229,#230);
#151=SURFACE_SIDE_STYLE('',(#231));
#152=EDGE_LOOP('',(#232,#233));
#153=EDGE_LOOP('',(#234,#235));
#154=AXIS2_PLACEMENT_3D('',#236,#237,#238);
#155=SURFACE_SIDE_STYLE('',(#239));
#156=EDGE_LOOP('',(#240,#241,#242,#243));
#157=AXIS2_PLACEMENT_3D('',#244,#245,#246);
#158=SURFACE_SIDE_STYLE('',(#247));
#159=EDGE_LOOP('',(#248,#249,#250,#251));
#160=AXIS2_PLACEMENT_3D('',#252,#253,#254);
#161=SURFACE_SIDE_STYLE('',(#255));
#162=EDGE_LOOP('',(#256,#257,#258,#259));
#163=AXIS2_PLACEMENT_3D('',#260,#261,#262);
#164=SURFACE_SIDE_STYLE('',(#263));
#165=EDGE_LOOP('',(#264,#265));
#166=EDGE_LOOP('',(#266,#267));
#167=AXIS2_PLACEMENT_3D('',#268,#269,#270);
#168=SURFACE_SIDE_STYLE('',(#271));
#169=EDGE_LOOP('',(#272,#273,#274,#275,#276,#277));
#170=AXIS2_PLACEMENT_3D('',#278,#279,#280);
#171=SURFACE_SIDE_STYLE('',(#281));
#172=EDGE_LOOP('',(#282,#283,#284,#285));
#173=AXIS2_PLACEMENT_3D('',#286,#287,#288);
#174=SURFACE_SIDE_STYLE('',(#289));
#175=EDGE_LOOP('',(#290,#291,#292,#293,#294));
#176=AXIS2_PLACEMENT_3D('',#295,#296,#297);
#178=SURFACE_STYLE_FILL_AREA(#298);
#179=ORIENTED_EDGE('',*,*,#299,.T.);
#180=ORIENTED_EDGE('',*,*,#300,.F.);
#181=ORIENTED_EDGE('',*,*,#301,.F.);
#182=ORIENTED_EDGE('',*,*,#302,.T.);
#183=ORIENTED_EDGE('',*,*,#303,.F.);
#184=CARTESIAN_POINT('',(24.65,0.0,-8.57224447675664E-017));
#185=DIRECTION('',(-1.0,0.0,-2.44921270764475E-016));
#186=DIRECTION('',(0.0,1.0,0.0));
#187=SURFACE_STYLE_FILL_AREA(#304);
#188=ORIENTED_EDGE('',*,*,#305,.F.);
#189=ORIENTED_EDGE('',*,*,#306,.T.);
#190=ORIENTED_EDGE('',*,*,#307,.T.);
#191=ORIENTED_EDGE('',*,*,#308,.F.);
#192=ORIENTED_EDGE('',*,*,#300,.T.);
#193=ORIENTED_EDGE('',*,*,#309,.T.);
#194=CARTESIAN_POINT('',(12.5,0.0,0.0));
#195=DIRECTION('',(1.0,0.0,0.0));
#196=DIRECTION('',(0.0,0.0,-1.0));
#197=SURFACE_STYLE_FILL_AREA(#310);
#198=ORIENTED_EDGE('',*,*,#311,.F.);
#199=ORIENTED_EDGE('',*,*,#312,.F.);
#200=ORIENTED_EDGE('',*,*,#313,.F.);
#201=ORIENTED_EDGE('',*,*,#314,.F.);
#202=ORIENTED_EDGE('',*,*,#307,.F.);
#203=CARTESIAN_POINT('',(0.35,0.0,4.28612223837832E-017));
#204=DIRECTION('',(1.0,-0.0,1.22460635382238E-016));
#205=DIRECTION('',(0.0,1.0,0.0));
#206=SURFACE_STYLE_FILL_AREA(#315);
#207=ORIENTED_EDGE('',*,*,#299,.F.);
#208=ORIENTED_EDGE('',*,*,#316,.F.);
#209=ORIENTED_EDGE('',*,*,#302,.F.);
#210=ORIENTED_EDGE('',*,*,#317,.F.);
#211=ORIENTED_EDGE('',*,*,#309,.F.);
#212=CARTESIAN_POINT('',(24.65,0.0,-8.57224447675664E-017));
#213=DIRECTION('',(-1.0,0.0,-2.44921270764475E-016));
#214=DIRECTION('',(0.0,1.0,0.0));
#215=SURFACE_STYLE_FILL_AREA(#318);
#216=ORIENTED_EDGE('',*,*,#319,.F.);
#217=ORIENTED_EDGE('',*,*,#320,.F.);
#218=ORIENTED_EDGE('',*,*,#321,.F.);
#219=ORIENTED_EDGE('',*,*,#322,.F.);
#220=CARTESIAN_POINT('',(24.75,0.0,0.0));
#221=DIRECTION('',(1.0,-0.0,-0.0));
#222=DIRECTION('',(0.0,1.0,0.0));
#223=SURFACE_STYLE_FILL_AREA(#323);
#224=ORIENTED_EDGE('',*,*,#324,.F.);
#225=ORIENTED_EDGE('',*,*,#322,.T.);
#226=ORIENTED_EDGE('',*,*,#325,.F.);
#227=ORIENTED_EDGE('',*,*,#326,.F.);
#228=CARTESIAN_POINT('',(12.5,0.0,0.0));
#229=DIRECTION('',(1.0,0.0,0.0));
#230=DIRECTION('',(0.0,1.0,0.0));
#231=SURFACE_STYLE_FILL_AREA(#327);
#232=ORIENTED_EDGE('',*,*,#328,.T.);
#233=ORIENTED_EDGE('',*,*,#329,.T.);
#234=ORIENTED_EDGE('',*,*,#330,.T.);
#235=ORIENTED_EDGE('',*,*,#312,.T.);
#236=CARTESIAN_POINT('',(0.0,0.0,0.0));
#237=DIRECTION('',(-1.0,0.0,0.0));
#238=DIRECTION('',(0.0,0.0,1.0));
#239=SURFACE_STYLE_FILL_AREA(#331);
#240=ORIENTED_EDGE('',*,*,#332,.T.);
#241=ORIENTED_EDGE('',*,*,#329,.F.);
#242=ORIENTED_EDGE('',*,*,#333,.T.);
#243=ORIENTED_EDGE('',*,*,#334,.T.);
#244=CARTESIAN_POINT('',(0.25,0.0,0.0));
#245=DIRECTION('',(-1.0,-0.0,-0.0));
#246=DIRECTION('',(0.0,1.0,0.0));
#247=SURFACE_STYLE_FILL_AREA(#335);
#248=ORIENTED_EDGE('',*,*,#324,.T.);
#249=ORIENTED_EDGE('',*,*,#334,.F.);
#250=ORIENTED_EDGE('',*,*,#325,.T.);
#251=ORIENTED_EDGE('',*,*,#336,.T.);
#252=CARTESIAN_POINT('',(12.5,0.0,0.0));
#253=DIRECTION('',(1.0,0.0,0.0));
#254=DIRECTION('',(0.0,1.0,0.0));
#255=SURFACE_STYLE_FILL_AREA(#337);
#256=ORIENTED_EDGE('',*,*,#319,.T.);
#257=ORIENTED_EDGE('',*,*,#336,.F.);
#258=ORIENTED_EDGE('',*,*,#321,.T.);
#259=ORIENTED_EDGE('',*,*,#338,.F.);
#260=CARTESIAN_POINT('',(24.75,0.0,0.0));
#261=DIRECTION('',(1.0,-0.0,-0.0));
#262=DIRECTION('',(0.0,1.0,0.0));
#263=SURFACE_STYLE_FILL_AREA(#339);
#264=ORIENTED_EDGE('',*,*,#338,.T.);
#265=ORIENTED_EDGE('',*,*,#320,.T.);
#266=ORIENTED_EDGE('',*,*,#303,.T.);
#267=ORIENTED_EDGE('',*,*,#316,.T.);
#268=CARTESIAN_POINT('',(25.0,0.0,0.0));
#269=DIRECTION('',(1.0,0.0,0.0));
#270=DIRECTION('',(0.0,0.0,-1.0));
#271=SURFACE_STYLE_FILL_AREA(#340);
#272=ORIENTED_EDGE('',*,*,#305,.T.);
#273=ORIENTED_EDGE('',*,*,#317,.T.);
#274=ORIENTED_EDGE('',*,*,#301,.T.);
#275=ORIENTED_EDGE('',*,*,#308,.T.);
#276=ORIENTED_EDGE('',*,*,#314,.T.);
#277=ORIENTED_EDGE('',*,*,#341,.T.);
#278=CARTESIAN_POINT('',(12.5,0.0,0.0));
#279=DIRECTION('',(1.0,0.0,0.0));
#280=DIRECTION('',(0.0,0.0,-1.0));
#281=SURFACE_STYLE_FILL_AREA(#342);
#282=ORIENTED_EDGE('',*,*,#332,.F.);
#283=ORIENTED_EDGE('',*,*,#326,.T.);
#284=ORIENTED_EDGE('',*,*,#333,.F.);
#285=ORIENTED_EDGE('',*,*,#328,.F.);
#286=CARTESIAN_POINT('',(0.25,0.0,0.0));
#287=DIRECTION('',(-1.0,-0.0,-0.0));
#288=DIRECTION('',(0.0,1.0,0.0));
#289=SURFACE_STYLE_FILL_AREA(#343);
#290=ORIENTED_EDGE('',*,*,#311,.T.);
#291=ORIENTED_EDGE('',*,*,#306,.F.);
#292=ORIENTED_EDGE('',*,*,#341,.F.);
#293=ORIENTED_EDGE('',*,*,#313,.T.);
#294=ORIENTED_EDGE('',*,*,#330,.F.);
#295=CARTESIAN_POINT('',(0.35,0.0,4.28612223837832E-017));
#296=DIRECTION('',(1.0,-0.0,1.22460635382238E-016));
#297=DIRECTION('',(0.0,1.0,0.0));
#298=FILL_AREA_STYLE('',(#344));
#299=EDGE_CURVE('',#345,#346,#347,.T.);
#300=EDGE_CURVE('',#348,#346,#349,.T.);
#301=EDGE_CURVE('',#350,#348,#351,.T.);
#302=EDGE_CURVE('',#350,#352,#353,.T.);
#303=EDGE_CURVE('',#345,#352,#354,.T.);
#304=FILL_AREA_STYLE('',(#355));
#305=EDGE_CURVE('',#356,#357,#358,.T.);
#306=EDGE_CURVE('',#356,#359,#360,.T.);
#307=EDGE_CURVE('',#359,#361,#362,.T.);
#308=EDGE_CURVE('',#348,#361,#363,.T.);
#309=EDGE_CURVE('',#346,#357,#364,.T.);
#310=FILL_AREA_STYLE('',(#365));
#311=EDGE_CURVE('',#366,#359,#367,.T.);
#312=EDGE_CURVE('',#368,#366,#369,.T.);
#313=EDGE_CURVE('',#370,#368,#371,.T.);
#314=EDGE_CURVE('',#361,#370,#372,.T.);
#315=FILL_AREA_STYLE('',(#373));
#316=EDGE_CURVE('',#352,#345,#374,.T.);
#317=EDGE_CURVE('',#357,#350,#375,.T.);
#318=FILL_AREA_STYLE('',(#376));
#319=EDGE_CURVE('',#377,#378,#379,.T.);
#320=EDGE_CURVE('',#380,#377,#381,.T.);
#321=EDGE_CURVE('',#382,#380,#383,.T.);
#322=EDGE_CURVE('',#378,#382,#384,.T.);
#323=FILL_AREA_STYLE('',(#385));
#324=EDGE_CURVE('',#378,#386,#387,.T.);
#325=EDGE_CURVE('',#388,#382,#389,.T.);
#326=EDGE_CURVE('',#386,#388,#390,.T.);
#327=FILL_AREA_STYLE('',(#391));
#328=EDGE_CURVE('',#392,#393,#394,.T.);
#329=EDGE_CURVE('',#393,#392,#395,.T.);
#330=EDGE_CURVE('',#366,#368,#396,.T.);
#331=FILL_AREA_STYLE('',(#397));
#332=EDGE_CURVE('',#386,#392,#398,.T.);
#333=EDGE_CURVE('',#393,#388,#399,.T.);
#334=EDGE_CURVE('',#388,#386,#400,.T.);
#335=FILL_AREA_STYLE('',(#401));
#336=EDGE_CURVE('',#382,#378,#402,.T.);
#337=FILL_AREA_STYLE('',(#403));
#338=EDGE_CURVE('',#377,#380,#404,.T.);
#339=FILL_AREA_STYLE('',(#405));
#340=FILL_AREA_STYLE('',(#406));
#341=EDGE_CURVE('',#370,#356,#407,.T.);
#342=FILL_AREA_STYLE('',(#408));
#343=FILL_AREA_STYLE('',(#409));
#344=FILL_AREA_STYLE_COLOUR('',#410);
#345=VERTEX_POINT('',#411);
#346=VERTEX_POINT('',#412);
#347=LINE('',#413,#414);
#348=VERTEX_POINT('',#415);
#349=CIRCLE('',#416,17.5);
#350=VERTEX_POINT('',#417);
#351=CIRCLE('',#418,17.5);
#352=VERTEX_POINT('',#419);
#353=LINE('',#420,#421);
#354=CIRCLE('',#422,16.8);
#355=FILL_AREA_STYLE_COLOUR('',#423);
#356=VERTEX_POINT('',#424);
#357=VERTEX_POINT('',#425);
#358=LINE('',#426,#427);
#359=VERTEX_POINT('',#428);
#360=CIRCLE('',#429,17.5);
#361=VERTEX_POINT('',#430);
#362=CIRCLE('',#431,17.5);
#363=LINE('',#432,#433);
#364=CIRCLE('',#434,17.5);
#365=FILL_AREA_STYLE_COLOUR('',#435);
#366=VERTEX_POINT('',#436);
#367=LINE('',#437,#438);
#368=VERTEX_POINT('',#439);
#369=CIRCLE('',#440,16.8);
#370=VERTEX_POINT('',#441);
#371=LINE('',#442,#443);
#372=CIRCLE('',#444,17.5);
#373=FILL_AREA_STYLE_COLOUR('',#445);
#374=CIRCLE('',#446,16.8);
#375=CIRCLE('',#447,17.5);
#376=FILL_AREA_STYLE_COLOUR('',#448);
#377=VERTEX_POINT('',#449);
#378=VERTEX_POINT('',#450);
#379=LINE('',#451,#452);
#380=VERTEX_POINT('',#453);
#381=CIRCLE('',#454,13.0);
#382=VERTEX_POINT('',#455);
#383=LINE('',#456,#457);
#384=CIRCLE('',#458,12.5);
#385=FILL_AREA_STYLE_COLOUR('',#459);
#386=VERTEX_POINT('',#460);
#387=LINE('',#461,#462);
#388=VERTEX_POINT('',#463);
#389=LINE('',#464,#465);
#390=CIRCLE('',#466,12.5);
#391=FILL_AREA_STYLE_COLOUR('',#467);
#392=VERTEX_POINT('',#468);
#393=VERTEX_POINT('',#469);
#394=CIRCLE('',#470,13.0);
#395=CIRCLE('',#471,13.0);
#396=CIRCLE('',#472,16.8);
#397=FILL_AREA_STYLE_COLOUR('',#473);
#398=LINE('',#474,#475);
#399=LINE('',#476,#477);
#400=CIRCLE('',#478,12.5);
#401=FILL_AREA_STYLE_COLOUR('',#479);
#402=CIRCLE('',#480,12.5);
#403=FILL_AREA_STYLE_COLOUR('',#481);
#404=CIRCLE('',#482,13.0);
#405=FILL_AREA_STYLE_COLOUR('',#483);
#406=FILL_AREA_STYLE_COLOUR('',#484);
#407=CIRCLE('',#485,17.5);
#408=FILL_AREA_STYLE_COLOUR('',#486);
#409=FILL_AREA_STYLE_COLOUR('',#487);
#410=COLOUR_RGB('',0.752941191196442,0.752941191196442,0.752941191196442);
#411=CARTESIAN_POINT('',(25.0,16.8,0.0));
#412=CARTESIAN_POINT('',(24.3,17.5,-1.71444889535133E-016));
#413=CARTESIAN_POINT('',(24.65,17.15,-2.18592234157294E-015));
#414=VECTOR('',#488,1.0);
#415=CARTESIAN_POINT('',(24.3,2.14306111918916E-015,17.5));
#416=AXIS2_PLACEMENT_3D('',#489,#490,#491);
#417=CARTESIAN_POINT('',(24.3,-17.5,1.97161622965403E-015));
#418=AXIS2_PLACEMENT_3D('',#492,#493,#494);
#419=CARTESIAN_POINT('',(25.0,-16.8,2.05733867442159E-015));
#420=CARTESIAN_POINT('',(24.65,-17.15,2.01447745203781E-015));
#421=VECTOR('',#495,1.0);
#422=AXIS2_PLACEMENT_3D('',#496,#497,#498);
#423=COLOUR_RGB('',0.752941191196442,0.752941191196442,0.752941191196442);
#424=CARTESIAN_POINT('',(0.700000000000001,-2.14306111918916E-015,-17.5));
#425=CARTESIAN_POINT('',(24.3,-2.14306111918916E-015,-17.5));
#426=CARTESIAN_POINT('',(12.5,-2.14306111918916E-015,-17.5));
#427=VECTOR('',#499,1.0);
#428=CARTESIAN_POINT('',(0.699999999999999,17.5,8.57224447675664E-017));
#429=AXIS2_PLACEMENT_3D('',#500,#501,#502);
#430=CARTESIAN_POINT('',(0.699999999999997,2.14306111918916E-015,17.5));
#431=AXIS2_PLACEMENT_3D('',#503,#504,#505);
#432=CARTESIAN_POINT('',(12.5,2.14306111918916E-015,17.5));
#433=VECTOR('',#506,1.0);
#434=AXIS2_PLACEMENT_3D('',#507,#508,#509);
#435=COLOUR_RGB('',0.752941191196442,0.752941191196442,0.752941191196442);
#436=CARTESIAN_POINT('',(0.0,16.8,0.0));
#437=CARTESIAN_POINT('',(0.35,17.15,2.14306111918916E-015));
#438=VECTOR('',#510,1.0);
#439=CARTESIAN_POINT('',(0.0,-16.8,-2.05733867442159E-015));
#440=AXIS2_PLACEMENT_3D('',#511,#512,#513);
#441=CARTESIAN_POINT('',(0.699999999999999,-17.5,-2.05733867442159E-015));
#442=CARTESIAN_POINT('',(0.35,-17.15,-2.05733867442159E-015));
#443=VECTOR('',#514,1.0);
#444=AXIS2_PLACEMENT_3D('',#515,#516,#517);
#445=COLOUR_RGB('',0.752941191196442,0.752941191196442,0.752941191196442);
#446=AXIS2_PLACEMENT_3D('',#518,#519,#520);
#447=AXIS2_PLACEMENT_3D('',#521,#522,#523);
#448=COLOUR_RGB('',0.752941191196442,0.752941191196442,0.752941191196442);
#449=CARTESIAN_POINT('',(25.0,13.0,0.0));
#450=CARTESIAN_POINT('',(24.5,12.5,0.0));
#451=CARTESIAN_POINT('',(24.75,12.75,-1.56137310112353E-015));
#452=VECTOR('',#524,1.0);
#453=CARTESIAN_POINT('',(25.0,-13.0,1.59198825996909E-015));
#454=AXIS2_PLACEMENT_3D('',#525,#526,#527);
#455=CARTESIAN_POINT('',(24.5,-12.5,1.53075794227797E-015));
#456=CARTESIAN_POINT('',(24.75,-12.75,1.56137310112353E-015));
#457=VECTOR('',#528,1.0);
#458=AXIS2_PLACEMENT_3D('',#529,#530,#531);
#459=COLOUR_RGB('',0.752941191196442,0.752941191196442,0.752941191196442);
#460=CARTESIAN_POINT('',(0.5,12.5,0.0));
#461=CARTESIAN_POINT('',(12.5,12.5,-1.53075794227797E-015));
#462=VECTOR('',#532,1.0);
#463=CARTESIAN_POINT('',(0.5,-12.5,1.53075794227797E-015));
#464=CARTESIAN_POINT('',(12.5,-12.5,1.53075794227797E-015));
#465=VECTOR('',#533,1.0);
#466=AXIS2_PLACEMENT_3D('',#534,#535,#536);
#467=COLOUR_RGB('',0.752941191196442,0.752941191196442,0.752941191196442);
#468=CARTESIAN_POINT('',(0.0,13.0,0.0));
#469=CARTESIAN_POINT('',(0.0,-13.0,1.59198825996909E-015));
#470=AXIS2_PLACEMENT_3D('',#537,#538,#539);
#471=AXIS2_PLACEMENT_3D('',#540,#541,#542);
#472=AXIS2_PLACEMENT_3D('',#543,#544,#545);
#473=COLOUR_RGB('',0.752941191196442,0.752941191196442,0.752941191196442);
#474=CARTESIAN_POINT('',(0.25,12.75,-1.56137310112353E-015));
#475=VECTOR('',#546,1.0);
#476=CARTESIAN_POINT('',(0.25,-12.75,1.56137310112353E-015));
#477=VECTOR('',#547,1.0);
#478=AXIS2_PLACEMENT_3D('',#548,#549,#550);
#479=COLOUR_RGB('',0.752941191196442,0.752941191196442,0.752941191196442);
#480=AXIS2_PLACEMENT_3D('',#551,#552,#553);
#481=COLOUR_RGB('',0.752941191196442,0.752941191196442,0.752941191196442);
#482=AXIS2_PLACEMENT_3D('',#554,#555,#556);
#483=COLOUR_RGB('',0.752941191196442,0.752941191196442,0.752941191196442);
#484=COLOUR_RGB('',0.752941191196442,0.752941191196442,0.752941191196442);
#485=AXIS2_PLACEMENT_3D('',#557,#558,#559);
#486=COLOUR_RGB('',0.752941191196442,0.752941191196442,0.752941191196442);
#487=COLOUR_RGB('',0.752941191196442,0.752941191196442,0.752941191196442);
#488=DIRECTION('',(-0.707106781186548,0.707106781186547,-2.59778237121581E-016));
#489=CARTESIAN_POINT('',(24.3,0.0,0.0));
#490=DIRECTION('',(-1.0,0.0,-2.44921270764475E-016));
#491=DIRECTION('',(2.44921270764475E-016,0.0,-1.0));
#492=CARTESIAN_POINT('',(24.3,0.0,0.0));
#493=DIRECTION('',(-1.0,0.0,-2.44921270764475E-016));
#494=DIRECTION('',(2.44921270764475E-016,0.0,-1.0));
#495=DIRECTION('',(0.707106781186548,0.707106781186547,8.65927457071936E-017));
#496=CARTESIAN_POINT('',(25.0,0.0,-3.45126646034193E-031));
#497=DIRECTION('',(1.0,0.0,0.0));
#498=DIRECTION('',(0.0,1.0,0.0));
#499=DIRECTION('',(1.0,0.0,0.0));
#500=CARTESIAN_POINT('',(0.699999999999999,0.0,0.0));
#501=DIRECTION('',(1.0,0.0,1.22460635382238E-016));
#502=DIRECTION('',(1.22460635382238E-016,0.0,-1.0));
#503=CARTESIAN_POINT('',(0.699999999999999,0.0,0.0));
#504=DIRECTION('',(1.0,0.0,1.22460635382238E-016));
#505=DIRECTION('',(1.22460635382238E-016,0.0,-1.0));
#506=DIRECTION('',(-1.0,-0.0,-0.0));
#507=CARTESIAN_POINT('',(24.3,0.0,0.0));
#508=DIRECTION('',(-1.0,0.0,-2.44921270764475E-016));
#509=DIRECTION('',(2.44921270764475E-016,0.0,-1.0));
#510=DIRECTION('',(0.707106781186548,0.707106781186547,1.73185491414387E-016));
#511=CARTESIAN_POINT('',(0.0,0.0,-4.31408307542741E-032));
#512=DIRECTION('',(-1.0,0.0,0.0));
#513=DIRECTION('',(0.0,1.0,0.0));
#514=DIRECTION('',(-0.707106781186548,0.707106781186547,0.0));
#515=CARTESIAN_POINT('',(0.699999999999999,0.0,0.0));
#516=DIRECTION('',(1.0,0.0,1.22460635382238E-016));
#517=DIRECTION('',(1.22460635382238E-016,0.0,-1.0));
#518=CARTESIAN_POINT('',(25.0,0.0,-3.45126646034193E-031));
#519=DIRECTION('',(1.0,0.0,0.0));
#520=DIRECTION('',(0.0,1.0,0.0));
#521=CARTESIAN_POINT('',(24.3,0.0,0.0));
#522=DIRECTION('',(-1.0,0.0,-2.44921270764475E-016));
#523=DIRECTION('',(2.44921270764475E-016,0.0,-1.0));
#524=DIRECTION('',(-0.707106781186548,-0.707106781186548,8.65927457071936E-017));
#525=CARTESIAN_POINT('',(25.0,0.0,0.0));
#526=DIRECTION('',(-1.0,0.0,0.0));
#527=DIRECTION('',(0.0,1.0,0.0));
#528=DIRECTION('',(0.707106781186548,-0.707106781186548,8.65927457071935E-017));
#529=CARTESIAN_POINT('',(24.5,0.0,0.0));
#530=DIRECTION('',(1.0,0.0,0.0));
#531=DIRECTION('',(0.0,1.0,0.0));
#532=DIRECTION('',(-1.0,-0.0,0.0));
#533=DIRECTION('',(1.0,-0.0,0.0));
#534=CARTESIAN_POINT('',(0.5,0.0,0.0));
#535=DIRECTION('',(1.0,0.0,0.0));
#536=DIRECTION('',(0.0,1.0,0.0));
#537=CARTESIAN_POINT('',(0.0,0.0,0.0));
#538=DIRECTION('',(1.0,0.0,0.0));
#539=DIRECTION('',(0.0,1.0,0.0));
#540=CARTESIAN_POINT('',(0.0,0.0,0.0));
#541=DIRECTION('',(1.0,0.0,0.0));
#542=DIRECTION('',(0.0,1.0,0.0));
#543=CARTESIAN_POINT('',(0.0,0.0,-4.31408307542741E-032));
#544=DIRECTION('',(-1.0,0.0,0.0));
#545=DIRECTION('',(0.0,1.0,0.0));
#546=DIRECTION('',(-0.707106781186548,0.707106781186548,-8.65927457071936E-017));
#547=DIRECTION('',(0.707106781186548,0.707106781186548,-8.65927457071935E-017));
#548=CARTESIAN_POINT('',(0.5,0.0,0.0));
#549=DIRECTION('',(1.0,0.0,0.0));
#550=DIRECTION('',(0.0,1.0,0.0));
#551=CARTESIAN_POINT('',(24.5,0.0,0.0));
#552=DIRECTION('',(1.0,0.0,0.0));
#553=DIRECTION('',(0.0,1.0,0.0));
#554=CARTESIAN_POINT('',(25.0,0.0,0.0));
#555=DIRECTION('',(-1.0,0.0,0.0));
#556=DIRECTION('',(0.0,1.0,0.0));
#557=CARTESIAN_POINT('',(0.699999999999999,0.0,0.0));
#558=DIRECTION('',(1.0,0.0,1.22460635382238E-016));
#559=DIRECTION('',(1.22460635382238E-016,0.0,-1.0));
ENDSEC;
END-ISO-10303-21;
