ISO-10303-21;
HEADER;
FILE_DESCRIPTION(('STEP AP214'),'1');
FILE_NAME('C:/Temp/output/halder/CAD/Temp/HALDERN_EH_23111_0704.stp','2015-05-04T09:25:15',('TraceParts'),('TraceParts S.A.'),'Spatial InterOp 3D',' ',' ');
FILE_SCHEMA(('automotive_design'));
ENDSEC;
DATA;
#1=MECHANICAL_DESIGN_GEOMETRIC_PRESENTATION_REPRESENTATION(' ',(#10,#11,#12,#13,#14,#15,#16,#17,#18,#19,#20,#21,#22,#23),#6);
#2=PRODUCT_DEFINITION_CONTEXT('',#24,'design');
#3=APPLICATION_PROTOCOL_DEFINITION('INTERNATIONAL STANDARD','automotive_design',1994,#24);
#4=PRODUCT_CATEGORY_RELATIONSHIP('NONE','NONE',#25,#26);
#5=SHAPE_DEFINITION_REPRESENTATION(#27,#28);
#6= (GEOMETRIC_REPRESENTATION_CONTEXT(3)GLOBAL_UNCERTAINTY_ASSIGNED_CONTEXT((#31))GLOBAL_UNIT_ASSIGNED_CONTEXT((#33,#34,#35))REPRESENTATION_CONTEXT('NONE','WORKSPACE'));
#10=STYLED_ITEM('',(#37),#38);
#11=STYLED_ITEM('',(#39),#40);
#12=STYLED_ITEM('',(#41),#42);
#13=STYLED_ITEM('',(#43),#44);
#14=STYLED_ITEM('',(#45),#46);
#15=STYLED_ITEM('',(#47),#48);
#16=STYLED_ITEM('',(#49),#50);
#17=STYLED_ITEM('',(#51),#52);
#18=STYLED_ITEM('',(#53),#54);
#19=STYLED_ITEM('',(#55),#56);
#20=STYLED_ITEM('',(#57),#58);
#21=STYLED_ITEM('',(#59),#60);
#22=STYLED_ITEM('',(#61),#62);
#23=STYLED_ITEM('',(#63),#64);
#24=APPLICATION_CONTEXT(' ');
#25=PRODUCT_CATEGORY('part','NONE');
#26=PRODUCT_RELATED_PRODUCT_CATEGORY('detail',' ',(#65));
#27=PRODUCT_DEFINITION_SHAPE('NONE','NONE',#66);
#28=ADVANCED_BREP_SHAPE_REPRESENTATION('1',(#67,#68),#6);
#31=UNCERTAINTY_MEASURE_WITH_UNIT(LENGTH_MEASURE(1.0E-006),#33,'','');
#33= (CONVERSION_BASED_UNIT('MILLIMETRE',#71)LENGTH_UNIT()NAMED_UNIT(#74));
#34= (NAMED_UNIT(#76)PLANE_ANGLE_UNIT()SI_UNIT($,.RADIAN.));
#35= (NAMED_UNIT(#76)SOLID_ANGLE_UNIT()SI_UNIT($,.STERADIAN.));
#37=PRESENTATION_STYLE_ASSIGNMENT((#82));
#38=ADVANCED_FACE('',(#83),#84,.F.);
#39=PRESENTATION_STYLE_ASSIGNMENT((#85));
#40=ADVANCED_FACE('',(#86),#87,.T.);
#41=PRESENTATION_STYLE_ASSIGNMENT((#88));
#42=ADVANCED_FACE('',(#89),#90,.F.);
#43=PRESENTATION_STYLE_ASSIGNMENT((#91));
#44=ADVANCED_FACE('',(#92),#93,.T.);
#45=PRESENTATION_STYLE_ASSIGNMENT((#94));
#46=ADVANCED_FACE('',(#95),#96,.T.);
#47=PRESENTATION_STYLE_ASSIGNMENT((#97));
#48=ADVANCED_FACE('',(#98,#99),#100,.T.);
#49=PRESENTATION_STYLE_ASSIGNMENT((#101));
#50=ADVANCED_FACE('',(#102),#103,.T.);
#51=PRESENTATION_STYLE_ASSIGNMENT((#104));
#52=ADVANCED_FACE('',(#105),#106,.F.);
#53=PRESENTATION_STYLE_ASSIGNMENT((#107));
#54=ADVANCED_FACE('',(#108),#109,.T.);
#55=PRESENTATION_STYLE_ASSIGNMENT((#110));
#56=ADVANCED_FACE('',(#111),#112,.F.);
#57=PRESENTATION_STYLE_ASSIGNMENT((#113));
#58=ADVANCED_FACE('',(#114,#115),#116,.T.);
#59=PRESENTATION_STYLE_ASSIGNMENT((#117));
#60=ADVANCED_FACE('',(#118),#119,.T.);
#61=PRESENTATION_STYLE_ASSIGNMENT((#120));
#62=ADVANCED_FACE('',(#121),#122,.F.);
#63=PRESENTATION_STYLE_ASSIGNMENT((#123));
#64=ADVANCED_FACE('',(#124),#125,.F.);
#65=PRODUCT('1','1','PART-1-DESC',(#126));
#66=PRODUCT_DEFINITION('NONE','NONE',#127,#2);
#67=MANIFOLD_SOLID_BREP('1',#128);
#68=AXIS2_PLACEMENT_3D('',#129,#130,#131);
#71=LENGTH_MEASURE_WITH_UNIT(LENGTH_MEASURE(1.0),#132);
#74=DIMENSIONAL_EXPONENTS(1.0,0.0,0.0,0.0,0.0,0.0,0.0);
#76=DIMENSIONAL_EXPONENTS(0.0,0.0,0.0,0.0,0.0,0.0,0.0);
#82=SURFACE_STYLE_USAGE(.BOTH.,#133);
#83=FACE_OUTER_BOUND('',#134,.T.);
#84=CONICAL_SURFACE('',#135,8.16,0.785398163397449);
#85=SURFACE_STYLE_USAGE(.BOTH.,#136);
#86=FACE_OUTER_BOUND('',#137,.T.);
#87=CONICAL_SURFACE('',#138,12.25,0.785398163397448);
#88=SURFACE_STYLE_USAGE(.BOTH.,#139);
#89=FACE_OUTER_BOUND('',#140,.T.);
#90=CYLINDRICAL_SURFACE('',#141,8.0);
#91=SURFACE_STYLE_USAGE(.BOTH.,#142);
#92=FACE_OUTER_BOUND('',#143,.T.);
#93=CONICAL_SURFACE('',#144,12.25,0.785398163397448);
#94=SURFACE_STYLE_USAGE(.BOTH.,#145);
#95=FACE_OUTER_BOUND('',#146,.T.);
#96=CYLINDRICAL_SURFACE('',#147,12.5);
#97=SURFACE_STYLE_USAGE(.BOTH.,#148);
#98=FACE_BOUND('',#149,.T.);
#99=FACE_OUTER_BOUND('',#150,.T.);
#100=PLANE('',#151);
#101=SURFACE_STYLE_USAGE(.BOTH.,#152);
#102=FACE_OUTER_BOUND('',#153,.T.);
#103=CYLINDRICAL_SURFACE('',#154,12.5);
#104=SURFACE_STYLE_USAGE(.BOTH.,#155);
#105=FACE_OUTER_BOUND('',#156,.T.);
#106=CONICAL_SURFACE('',#157,8.16,0.785398163397448);
#107=SURFACE_STYLE_USAGE(.BOTH.,#158);
#108=FACE_OUTER_BOUND('',#159,.T.);
#109=CONICAL_SURFACE('',#160,12.25,0.785398163397448);
#110=SURFACE_STYLE_USAGE(.BOTH.,#161);
#111=FACE_OUTER_BOUND('',#162,.T.);
#112=CONICAL_SURFACE('',#163,8.16,0.785398163397449);
#113=SURFACE_STYLE_USAGE(.BOTH.,#164);
#114=FACE_BOUND('',#165,.T.);
#115=FACE_OUTER_BOUND('',#166,.T.);
#116=PLANE('',#167);
#117=SURFACE_STYLE_USAGE(.BOTH.,#168);
#118=FACE_OUTER_BOUND('',#169,.T.);
#119=CONICAL_SURFACE('',#170,12.25,0.785398163397448);
#120=SURFACE_STYLE_USAGE(.BOTH.,#171);
#121=FACE_OUTER_BOUND('',#172,.T.);
#122=CONICAL_SURFACE('',#173,8.16,0.785398163397448);
#123=SURFACE_STYLE_USAGE(.BOTH.,#174);
#124=FACE_OUTER_BOUND('',#175,.T.);
#125=CYLINDRICAL_SURFACE('',#176,8.0);
#126=PRODUCT_CONTEXT('',#24,'mechanical');
#127=PRODUCT_DEFINITION_FORMATION_WITH_SPECIFIED_SOURCE(' ','NONE',#65,.NOT_KNOWN.);
#128=CLOSED_SHELL('',(#50,#60,#44,#62,#42,#38,#56,#64,#52,#40,#54,#46,#58,#48));
#129=CARTESIAN_POINT('',(0.0,0.0,0.0));
#130=DIRECTION('',(0.0,0.0,1.0));
#131=DIRECTION('',(1.0,0.0,0.0));
#132= (NAMED_UNIT(#74)LENGTH_UNIT()SI_UNIT(.MILLI.,.METRE.));
#133=SURFACE_SIDE_STYLE('',(#178));
#134=EDGE_LOOP('',(#179,#180,#181,#182));
#135=AXIS2_PLACEMENT_3D('',#183,#184,#185);
#136=SURFACE_SIDE_STYLE('',(#186));
#137=EDGE_LOOP('',(#187,#188,#189,#190,#191));
#138=AXIS2_PLACEMENT_3D('',#192,#193,#194);
#139=SURFACE_SIDE_STYLE('',(#195));
#140=EDGE_LOOP('',(#196,#197,#198,#199));
#141=AXIS2_PLACEMENT_3D('',#200,#201,#202);
#142=SURFACE_SIDE_STYLE('',(#203));
#143=EDGE_LOOP('',(#204,#205,#206,#207,#208));
#144=AXIS2_PLACEMENT_3D('',#209,#210,#211);
#145=SURFACE_SIDE_STYLE('',(#212));
#146=EDGE_LOOP('',(#213,#214,#215,#216,#217,#218));
#147=AXIS2_PLACEMENT_3D('',#219,#220,#221);
#148=SURFACE_SIDE_STYLE('',(#222));
#149=EDGE_LOOP('',(#223,#224));
#150=EDGE_LOOP('',(#225,#226));
#151=AXIS2_PLACEMENT_3D('',#227,#228,#229);
#152=SURFACE_SIDE_STYLE('',(#230));
#153=EDGE_LOOP('',(#231,#232,#233,#234,#235,#236));
#154=AXIS2_PLACEMENT_3D('',#237,#238,#239);
#155=SURFACE_SIDE_STYLE('',(#240));
#156=EDGE_LOOP('',(#241,#242,#243,#244));
#157=AXIS2_PLACEMENT_3D('',#245,#246,#247);
#158=SURFACE_SIDE_STYLE('',(#248));
#159=EDGE_LOOP('',(#249,#250,#251,#252,#253));
#160=AXIS2_PLACEMENT_3D('',#254,#255,#256);
#161=SURFACE_SIDE_STYLE('',(#257));
#162=EDGE_LOOP('',(#258,#259,#260,#261));
#163=AXIS2_PLACEMENT_3D('',#262,#263,#264);
#164=SURFACE_SIDE_STYLE('',(#265));
#165=EDGE_LOOP('',(#266,#267));
#166=EDGE_LOOP('',(#268,#269));
#167=AXIS2_PLACEMENT_3D('',#270,#271,#272);
#168=SURFACE_SIDE_STYLE('',(#273));
#169=EDGE_LOOP('',(#274,#275,#276,#277,#278));
#170=AXIS2_PLACEMENT_3D('',#279,#280,#281);
#171=SURFACE_SIDE_STYLE('',(#282));
#172=EDGE_LOOP('',(#283,#284,#285,#286));
#173=AXIS2_PLACEMENT_3D('',#287,#288,#289);
#174=SURFACE_SIDE_STYLE('',(#290));
#175=EDGE_LOOP('',(#291,#292,#293,#294));
#176=AXIS2_PLACEMENT_3D('',#295,#296,#297);
#178=SURFACE_STYLE_FILL_AREA(#298);
#179=ORIENTED_EDGE('',*,*,#299,.F.);
#180=ORIENTED_EDGE('',*,*,#300,.T.);
#181=ORIENTED_EDGE('',*,*,#301,.F.);
#182=ORIENTED_EDGE('',*,*,#302,.F.);
#183=CARTESIAN_POINT('',(0.16,0.0,0.0));
#184=DIRECTION('',(-1.0,-0.0,-0.0));
#185=DIRECTION('',(0.0,1.0,0.0));
#186=SURFACE_STYLE_FILL_AREA(#303);
#187=ORIENTED_EDGE('',*,*,#304,.T.);
#188=ORIENTED_EDGE('',*,*,#305,.F.);
#189=ORIENTED_EDGE('',*,*,#306,.F.);
#190=ORIENTED_EDGE('',*,*,#307,.T.);
#191=ORIENTED_EDGE('',*,*,#308,.F.);
#192=CARTESIAN_POINT('',(24.75,0.0,-6.12303176911189E-017));
#193=DIRECTION('',(-1.0,0.0,-2.44921270764475E-016));
#194=DIRECTION('',(0.0,1.0,0.0));
#195=SURFACE_STYLE_FILL_AREA(#309);
#196=ORIENTED_EDGE('',*,*,#310,.F.);
#197=ORIENTED_EDGE('',*,*,#311,.T.);
#198=ORIENTED_EDGE('',*,*,#312,.F.);
#199=ORIENTED_EDGE('',*,*,#300,.F.);
#200=CARTESIAN_POINT('',(12.5,0.0,0.0));
#201=DIRECTION('',(1.0,0.0,0.0));
#202=DIRECTION('',(0.0,1.0,0.0));
#203=SURFACE_STYLE_FILL_AREA(#313);
#204=ORIENTED_EDGE('',*,*,#304,.F.);
#205=ORIENTED_EDGE('',*,*,#314,.F.);
#206=ORIENTED_EDGE('',*,*,#307,.F.);
#207=ORIENTED_EDGE('',*,*,#315,.F.);
#208=ORIENTED_EDGE('',*,*,#316,.F.);
#209=CARTESIAN_POINT('',(24.75,0.0,-6.12303176911189E-017));
#210=DIRECTION('',(-1.0,0.0,-2.44921270764475E-016));
#211=DIRECTION('',(0.0,1.0,0.0));
#212=SURFACE_STYLE_FILL_AREA(#317);
#213=ORIENTED_EDGE('',*,*,#318,.T.);
#214=ORIENTED_EDGE('',*,*,#315,.T.);
#215=ORIENTED_EDGE('',*,*,#306,.T.);
#216=ORIENTED_EDGE('',*,*,#319,.T.);
#217=ORIENTED_EDGE('',*,*,#320,.T.);
#218=ORIENTED_EDGE('',*,*,#321,.T.);
#219=CARTESIAN_POINT('',(12.5,0.0,0.0));
#220=DIRECTION('',(1.0,0.0,0.0));
#221=DIRECTION('',(0.0,0.0,-1.0));
#222=SURFACE_STYLE_FILL_AREA(#322);
#223=ORIENTED_EDGE('',*,*,#323,.T.);
#224=ORIENTED_EDGE('',*,*,#324,.T.);
#225=ORIENTED_EDGE('',*,*,#308,.T.);
#226=ORIENTED_EDGE('',*,*,#314,.T.);
#227=CARTESIAN_POINT('',(25.0,0.0,0.0));
#228=DIRECTION('',(1.0,0.0,0.0));
#229=DIRECTION('',(0.0,0.0,-1.0));
#230=SURFACE_STYLE_FILL_AREA(#325);
#231=ORIENTED_EDGE('',*,*,#318,.F.);
#232=ORIENTED_EDGE('',*,*,#326,.T.);
#233=ORIENTED_EDGE('',*,*,#327,.T.);
#234=ORIENTED_EDGE('',*,*,#319,.F.);
#235=ORIENTED_EDGE('',*,*,#305,.T.);
#236=ORIENTED_EDGE('',*,*,#316,.T.);
#237=CARTESIAN_POINT('',(12.5,0.0,0.0));
#238=DIRECTION('',(1.0,0.0,0.0));
#239=DIRECTION('',(0.0,0.0,-1.0));
#240=SURFACE_STYLE_FILL_AREA(#328);
#241=ORIENTED_EDGE('',*,*,#329,.T.);
#242=ORIENTED_EDGE('',*,*,#330,.F.);
#243=ORIENTED_EDGE('',*,*,#331,.T.);
#244=ORIENTED_EDGE('',*,*,#323,.F.);
#245=CARTESIAN_POINT('',(24.84,0.0,0.0));
#246=DIRECTION('',(1.0,-0.0,-0.0));
#247=DIRECTION('',(0.0,1.0,0.0));
#248=SURFACE_STYLE_FILL_AREA(#332);
#249=ORIENTED_EDGE('',*,*,#333,.T.);
#250=ORIENTED_EDGE('',*,*,#326,.F.);
#251=ORIENTED_EDGE('',*,*,#321,.F.);
#252=ORIENTED_EDGE('',*,*,#334,.T.);
#253=ORIENTED_EDGE('',*,*,#335,.F.);
#254=CARTESIAN_POINT('',(0.25,0.0,3.06151588455594E-017));
#255=DIRECTION('',(1.0,-0.0,1.22460635382238E-016));
#256=DIRECTION('',(0.0,1.0,0.0));
#257=SURFACE_STYLE_FILL_AREA(#336);
#258=ORIENTED_EDGE('',*,*,#299,.T.);
#259=ORIENTED_EDGE('',*,*,#337,.F.);
#260=ORIENTED_EDGE('',*,*,#301,.T.);
#261=ORIENTED_EDGE('',*,*,#338,.T.);
#262=CARTESIAN_POINT('',(0.16,0.0,0.0));
#263=DIRECTION('',(-1.0,-0.0,-0.0));
#264=DIRECTION('',(0.0,1.0,0.0));
#265=SURFACE_STYLE_FILL_AREA(#339);
#266=ORIENTED_EDGE('',*,*,#302,.T.);
#267=ORIENTED_EDGE('',*,*,#337,.T.);
#268=ORIENTED_EDGE('',*,*,#335,.T.);
#269=ORIENTED_EDGE('',*,*,#340,.T.);
#270=CARTESIAN_POINT('',(0.0,0.0,0.0));
#271=DIRECTION('',(-1.0,0.0,0.0));
#272=DIRECTION('',(0.0,0.0,1.0));
#273=SURFACE_STYLE_FILL_AREA(#341);
#274=ORIENTED_EDGE('',*,*,#333,.F.);
#275=ORIENTED_EDGE('',*,*,#340,.F.);
#276=ORIENTED_EDGE('',*,*,#334,.F.);
#277=ORIENTED_EDGE('',*,*,#320,.F.);
#278=ORIENTED_EDGE('',*,*,#327,.F.);
#279=CARTESIAN_POINT('',(0.25,0.0,3.06151588455594E-017));
#280=DIRECTION('',(1.0,-0.0,1.22460635382238E-016));
#281=DIRECTION('',(0.0,1.0,0.0));
#282=SURFACE_STYLE_FILL_AREA(#342);
#283=ORIENTED_EDGE('',*,*,#329,.F.);
#284=ORIENTED_EDGE('',*,*,#324,.F.);
#285=ORIENTED_EDGE('',*,*,#331,.F.);
#286=ORIENTED_EDGE('',*,*,#311,.F.);
#287=CARTESIAN_POINT('',(24.84,0.0,0.0));
#288=DIRECTION('',(1.0,-0.0,-0.0));
#289=DIRECTION('',(0.0,1.0,0.0));
#290=SURFACE_STYLE_FILL_AREA(#343);
#291=ORIENTED_EDGE('',*,*,#310,.T.);
#292=ORIENTED_EDGE('',*,*,#338,.F.);
#293=ORIENTED_EDGE('',*,*,#312,.T.);
#294=ORIENTED_EDGE('',*,*,#330,.T.);
#295=CARTESIAN_POINT('',(12.5,0.0,0.0));
#296=DIRECTION('',(1.0,0.0,0.0));
#297=DIRECTION('',(0.0,1.0,0.0));
#298=FILL_AREA_STYLE('',(#344));
#299=EDGE_CURVE('',#345,#346,#347,.T.);
#300=EDGE_CURVE('',#345,#348,#349,.T.);
#301=EDGE_CURVE('',#350,#348,#351,.T.);
#302=EDGE_CURVE('',#346,#350,#352,.T.);
#303=FILL_AREA_STYLE('',(#353));
#304=EDGE_CURVE('',#354,#355,#356,.T.);
#305=EDGE_CURVE('',#357,#355,#358,.T.);
#306=EDGE_CURVE('',#359,#357,#360,.T.);
#307=EDGE_CURVE('',#359,#361,#362,.T.);
#308=EDGE_CURVE('',#354,#361,#363,.T.);
#309=FILL_AREA_STYLE('',(#364));
#310=EDGE_CURVE('',#365,#345,#366,.T.);
#311=EDGE_CURVE('',#365,#367,#368,.T.);
#312=EDGE_CURVE('',#348,#367,#369,.T.);
#313=FILL_AREA_STYLE('',(#370));
#314=EDGE_CURVE('',#361,#354,#371,.T.);
#315=EDGE_CURVE('',#372,#359,#373,.T.);
#316=EDGE_CURVE('',#355,#372,#374,.T.);
#317=FILL_AREA_STYLE('',(#375));
#318=EDGE_CURVE('',#376,#372,#377,.T.);
#319=EDGE_CURVE('',#357,#378,#379,.T.);
#320=EDGE_CURVE('',#378,#380,#381,.T.);
#321=EDGE_CURVE('',#380,#376,#382,.T.);
#322=FILL_AREA_STYLE('',(#383));
#323=EDGE_CURVE('',#384,#385,#386,.T.);
#324=EDGE_CURVE('',#385,#384,#387,.T.);
#325=FILL_AREA_STYLE('',(#388));
#326=EDGE_CURVE('',#376,#389,#390,.T.);
#327=EDGE_CURVE('',#389,#378,#391,.T.);
#328=FILL_AREA_STYLE('',(#392));
#329=EDGE_CURVE('',#384,#365,#393,.T.);
#330=EDGE_CURVE('',#367,#365,#394,.T.);
#331=EDGE_CURVE('',#367,#385,#395,.T.);
#332=FILL_AREA_STYLE('',(#396));
#333=EDGE_CURVE('',#397,#389,#398,.T.);
#334=EDGE_CURVE('',#380,#399,#400,.T.);
#335=EDGE_CURVE('',#397,#399,#401,.T.);
#336=FILL_AREA_STYLE('',(#402));
#337=EDGE_CURVE('',#350,#346,#403,.T.);
#338=EDGE_CURVE('',#348,#345,#404,.T.);
#339=FILL_AREA_STYLE('',(#405));
#340=EDGE_CURVE('',#399,#397,#406,.T.);
#341=FILL_AREA_STYLE('',(#407));
#342=FILL_AREA_STYLE('',(#408));
#343=FILL_AREA_STYLE('',(#409));
#344=FILL_AREA_STYLE_COLOUR('',#410);
#345=VERTEX_POINT('',#411);
#346=VERTEX_POINT('',#412);
#347=LINE('',#413,#414);
#348=VERTEX_POINT('',#415);
#349=CIRCLE('',#416,8.0);
#350=VERTEX_POINT('',#417);
#351=LINE('',#418,#419);
#352=CIRCLE('',#420,8.32);
#353=FILL_AREA_STYLE_COLOUR('',#421);
#354=VERTEX_POINT('',#422);
#355=VERTEX_POINT('',#423);
#356=LINE('',#424,#425);
#357=VERTEX_POINT('',#426);
#358=CIRCLE('',#427,12.5);
#359=VERTEX_POINT('',#428);
#360=CIRCLE('',#429,12.5);
#361=VERTEX_POINT('',#430);
#362=LINE('',#431,#432);
#363=CIRCLE('',#433,12.0);
#364=FILL_AREA_STYLE_COLOUR('',#434);
#365=VERTEX_POINT('',#435);
#366=LINE('',#436,#437);
#367=VERTEX_POINT('',#438);
#368=CIRCLE('',#439,8.0);
#369=LINE('',#440,#441);
#370=FILL_AREA_STYLE_COLOUR('',#442);
#371=CIRCLE('',#443,12.0);
#372=VERTEX_POINT('',#444);
#373=CIRCLE('',#445,12.5);
#374=CIRCLE('',#446,12.5);
#375=FILL_AREA_STYLE_COLOUR('',#447);
#376=VERTEX_POINT('',#448);
#377=LINE('',#449,#450);
#378=VERTEX_POINT('',#451);
#379=LINE('',#452,#453);
#380=VERTEX_POINT('',#454);
#381=CIRCLE('',#455,12.5);
#382=CIRCLE('',#456,12.5);
#383=FILL_AREA_STYLE_COLOUR('',#457);
#384=VERTEX_POINT('',#458);
#385=VERTEX_POINT('',#459);
#386=CIRCLE('',#460,8.32);
#387=CIRCLE('',#461,8.32);
#388=FILL_AREA_STYLE_COLOUR('',#462);
#389=VERTEX_POINT('',#463);
#390=CIRCLE('',#464,12.5);
#391=CIRCLE('',#465,12.5);
#392=FILL_AREA_STYLE_COLOUR('',#466);
#393=LINE('',#467,#468);
#394=CIRCLE('',#469,8.0);
#395=LINE('',#470,#471);
#396=FILL_AREA_STYLE_COLOUR('',#472);
#397=VERTEX_POINT('',#473);
#398=LINE('',#474,#475);
#399=VERTEX_POINT('',#476);
#400=LINE('',#477,#478);
#401=CIRCLE('',#479,12.0);
#402=FILL_AREA_STYLE_COLOUR('',#480);
#403=CIRCLE('',#481,8.32);
#404=CIRCLE('',#482,8.0);
#405=FILL_AREA_STYLE_COLOUR('',#483);
#406=CIRCLE('',#484,12.0);
#407=FILL_AREA_STYLE_COLOUR('',#485);
#408=FILL_AREA_STYLE_COLOUR('',#486);
#409=FILL_AREA_STYLE_COLOUR('',#487);
#410=COLOUR_RGB('',0.752941191196442,0.752941191196442,0.752941191196442);
#411=CARTESIAN_POINT('',(0.32,8.0,0.0));
#412=CARTESIAN_POINT('',(0.0,8.32,0.0));
#413=CARTESIAN_POINT('',(0.16,8.16,-9.9927878471906E-016));
#414=VECTOR('',#488,1.0);
#415=CARTESIAN_POINT('',(0.32,-8.0,9.79685083057902E-016));
#416=AXIS2_PLACEMENT_3D('',#489,#490,#491);
#417=CARTESIAN_POINT('',(0.0,-8.32,1.01887248638022E-015));
#418=CARTESIAN_POINT('',(0.16,-8.16,9.9927878471906E-016));
#419=VECTOR('',#492,1.0);
#420=AXIS2_PLACEMENT_3D('',#493,#494,#495);
#421=COLOUR_RGB('',0.752941191196442,0.752941191196442,0.752941191196442);
#422=CARTESIAN_POINT('',(25.0,12.0,0.0));
#423=CARTESIAN_POINT('',(24.5,12.5,-1.22460635382238E-016));
#424=CARTESIAN_POINT('',(24.75,12.25,-1.56137310112353E-015));
#425=VECTOR('',#496,1.0);
#426=CARTESIAN_POINT('',(24.5,1.53075794227797E-015,12.5));
#427=AXIS2_PLACEMENT_3D('',#497,#498,#499);
#428=CARTESIAN_POINT('',(24.5,-12.5,1.40829730689573E-015));
#429=AXIS2_PLACEMENT_3D('',#500,#501,#502);
#430=CARTESIAN_POINT('',(25.0,-12.0,1.46952762458685E-015));
#431=CARTESIAN_POINT('',(24.75,-12.25,1.43891246574129E-015));
#432=VECTOR('',#503,1.0);
#433=AXIS2_PLACEMENT_3D('',#504,#505,#506);
#434=COLOUR_RGB('',0.752941191196442,0.752941191196442,0.752941191196442);
#435=CARTESIAN_POINT('',(24.68,8.0,0.0));
#436=CARTESIAN_POINT('',(12.5,8.0,-9.79685083057902E-016));
#437=VECTOR('',#507,1.0);
#438=CARTESIAN_POINT('',(24.68,-8.0,9.79685083057902E-016));
#439=AXIS2_PLACEMENT_3D('',#508,#509,#510);
#440=CARTESIAN_POINT('',(12.5,-8.0,9.79685083057902E-016));
#441=VECTOR('',#511,1.0);
#442=COLOUR_RGB('',0.752941191196442,0.752941191196442,0.752941191196442);
#443=AXIS2_PLACEMENT_3D('',#512,#513,#514);
#444=CARTESIAN_POINT('',(24.5,-1.53075794227797E-015,-12.5));
#445=AXIS2_PLACEMENT_3D('',#515,#516,#517);
#446=AXIS2_PLACEMENT_3D('',#518,#519,#520);
#447=COLOUR_RGB('',0.752941191196442,0.752941191196442,0.752941191196442);
#448=CARTESIAN_POINT('',(0.500000000000002,-1.53075794227797E-015,-12.5));
#449=CARTESIAN_POINT('',(12.5,-1.53075794227797E-015,-12.5));
#450=VECTOR('',#521,1.0);
#451=CARTESIAN_POINT('',(0.499999999999998,1.53075794227797E-015,12.5));
#452=CARTESIAN_POINT('',(12.5,1.53075794227797E-015,12.5));
#453=VECTOR('',#522,1.0);
#454=CARTESIAN_POINT('',(0.5,-12.5,-1.46952762458685E-015));
#455=AXIS2_PLACEMENT_3D('',#523,#524,#525);
#456=AXIS2_PLACEMENT_3D('',#526,#527,#528);
#457=COLOUR_RGB('',0.752941191196442,0.752941191196442,0.752941191196442);
#458=CARTESIAN_POINT('',(25.0,8.32,0.0));
#459=CARTESIAN_POINT('',(25.0,-8.32,1.01887248638022E-015));
#460=AXIS2_PLACEMENT_3D('',#529,#530,#531);
#461=AXIS2_PLACEMENT_3D('',#532,#533,#534);
#462=COLOUR_RGB('',0.752941191196442,0.752941191196442,0.752941191196442);
#463=CARTESIAN_POINT('',(0.5,12.5,6.12303176911189E-017));
#464=AXIS2_PLACEMENT_3D('',#535,#536,#537);
#465=AXIS2_PLACEMENT_3D('',#538,#539,#540);
#466=COLOUR_RGB('',0.752941191196442,0.752941191196442,0.752941191196442);
#467=CARTESIAN_POINT('',(24.84,8.16,-9.9927878471906E-016));
#468=VECTOR('',#541,1.0);
#469=AXIS2_PLACEMENT_3D('',#542,#543,#544);
#470=CARTESIAN_POINT('',(24.84,-8.16,9.9927878471906E-016));
#471=VECTOR('',#545,1.0);
#472=COLOUR_RGB('',0.752941191196442,0.752941191196442,0.752941191196442);
#473=CARTESIAN_POINT('',(0.0,12.0,0.0));
#474=CARTESIAN_POINT('',(0.25,12.25,1.53075794227797E-015));
#475=VECTOR('',#546,1.0);
#476=CARTESIAN_POINT('',(0.0,-12.0,-1.46952762458685E-015));
#477=CARTESIAN_POINT('',(0.25,-12.25,-1.46952762458685E-015));
#478=VECTOR('',#547,1.0);
#479=AXIS2_PLACEMENT_3D('',#548,#549,#550);
#480=COLOUR_RGB('',0.752941191196442,0.752941191196442,0.752941191196442);
#481=AXIS2_PLACEMENT_3D('',#551,#552,#553);
#482=AXIS2_PLACEMENT_3D('',#554,#555,#556);
#483=COLOUR_RGB('',0.752941191196442,0.752941191196442,0.752941191196442);
#484=AXIS2_PLACEMENT_3D('',#557,#558,#559);
#485=COLOUR_RGB('',0.752941191196442,0.752941191196442,0.752941191196442);
#486=COLOUR_RGB('',0.752941191196442,0.752941191196442,0.752941191196442);
#487=COLOUR_RGB('',0.752941191196442,0.752941191196442,0.752941191196442);
#488=DIRECTION('',(-0.707106781186547,0.707106781186548,-8.65927457071936E-017));
#489=CARTESIAN_POINT('',(0.32,0.0,0.0));
#490=DIRECTION('',(1.0,0.0,0.0));
#491=DIRECTION('',(0.0,1.0,0.0));
#492=DIRECTION('',(0.707106781186547,0.707106781186548,-8.65927457071936E-017));
#493=CARTESIAN_POINT('',(0.0,0.0,0.0));
#494=DIRECTION('',(1.0,0.0,0.0));
#495=DIRECTION('',(0.0,1.0,0.0));
#496=DIRECTION('',(-0.707106781186548,0.707106781186547,-2.59778237121581E-016));
#497=CARTESIAN_POINT('',(24.5,0.0,0.0));
#498=DIRECTION('',(-1.0,0.0,-2.44921270764475E-016));
#499=DIRECTION('',(2.44921270764475E-016,0.0,-1.0));
#500=CARTESIAN_POINT('',(24.5,0.0,0.0));
#501=DIRECTION('',(-1.0,0.0,-2.44921270764475E-016));
#502=DIRECTION('',(2.44921270764475E-016,0.0,-1.0));
#503=DIRECTION('',(0.707106781186548,0.707106781186547,8.65927457071935E-017));
#504=CARTESIAN_POINT('',(25.0,0.0,-1.23259516440783E-032));
#505=DIRECTION('',(1.0,0.0,0.0));
#506=DIRECTION('',(0.0,1.0,0.0));
#507=DIRECTION('',(-1.0,-0.0,0.0));
#508=CARTESIAN_POINT('',(24.68,0.0,0.0));
#509=DIRECTION('',(1.0,0.0,0.0));
#510=DIRECTION('',(0.0,1.0,0.0));
#511=DIRECTION('',(1.0,-0.0,0.0));
#512=CARTESIAN_POINT('',(25.0,0.0,-1.23259516440783E-032));
#513=DIRECTION('',(1.0,0.0,0.0));
#514=DIRECTION('',(0.0,1.0,0.0));
#515=CARTESIAN_POINT('',(24.5,0.0,0.0));
#516=DIRECTION('',(-1.0,0.0,-2.44921270764475E-016));
#517=DIRECTION('',(2.44921270764475E-016,0.0,-1.0));
#518=CARTESIAN_POINT('',(24.5,0.0,0.0));
#519=DIRECTION('',(-1.0,0.0,-2.44921270764475E-016));
#520=DIRECTION('',(2.44921270764475E-016,0.0,-1.0));
#521=DIRECTION('',(1.0,0.0,0.0));
#522=DIRECTION('',(-1.0,-0.0,-0.0));
#523=CARTESIAN_POINT('',(0.5,0.0,0.0));
#524=DIRECTION('',(1.0,0.0,1.22460635382238E-016));
#525=DIRECTION('',(1.22460635382238E-016,0.0,-1.0));
#526=CARTESIAN_POINT('',(0.5,0.0,0.0));
#527=DIRECTION('',(1.0,0.0,1.22460635382238E-016));
#528=DIRECTION('',(1.22460635382238E-016,0.0,-1.0));
#529=CARTESIAN_POINT('',(25.0,0.0,0.0));
#530=DIRECTION('',(-1.0,0.0,0.0));
#531=DIRECTION('',(0.0,1.0,0.0));
#532=CARTESIAN_POINT('',(25.0,0.0,0.0));
#533=DIRECTION('',(-1.0,0.0,0.0));
#534=DIRECTION('',(0.0,1.0,0.0));
#535=CARTESIAN_POINT('',(0.5,0.0,0.0));
#536=DIRECTION('',(1.0,0.0,1.22460635382238E-016));
#537=DIRECTION('',(1.22460635382238E-016,0.0,-1.0));
#538=CARTESIAN_POINT('',(0.5,0.0,0.0));
#539=DIRECTION('',(1.0,0.0,1.22460635382238E-016));
#540=DIRECTION('',(1.22460635382238E-016,0.0,-1.0));
#541=DIRECTION('',(-0.707106781186547,-0.707106781186548,8.65927457071935E-017));
#542=CARTESIAN_POINT('',(24.68,0.0,0.0));
#543=DIRECTION('',(1.0,0.0,0.0));
#544=DIRECTION('',(0.0,1.0,0.0));
#545=DIRECTION('',(0.707106781186547,-0.707106781186548,8.65927457071935E-017));
#546=DIRECTION('',(0.707106781186548,0.707106781186547,1.73185491414387E-016));
#547=DIRECTION('',(-0.707106781186548,0.707106781186547,1.60992021473676E-032));
#548=CARTESIAN_POINT('',(0.0,0.0,6.16297582203915E-033));
#549=DIRECTION('',(-1.0,0.0,0.0));
#550=DIRECTION('',(0.0,1.0,0.0));
#551=CARTESIAN_POINT('',(0.0,0.0,0.0));
#552=DIRECTION('',(1.0,0.0,0.0));
#553=DIRECTION('',(0.0,1.0,0.0));
#554=CARTESIAN_POINT('',(0.32,0.0,0.0));
#555=DIRECTION('',(1.0,0.0,0.0));
#556=DIRECTION('',(0.0,1.0,0.0));
#557=CARTESIAN_POINT('',(0.0,0.0,6.16297582203915E-033));
#558=DIRECTION('',(-1.0,0.0,0.0));
#559=DIRECTION('',(0.0,1.0,0.0));
ENDSEC;
END-ISO-10303-21;
