ISO-10303-21;
HEADER;
FILE_DESCRIPTION(('STEP AP214'),'1');
FILE_NAME('HALDERN_EH_23060_0155.stp','2018-01-15T15:22:01',('TraceParts'),('TraceParts S.A.'),'Spatial InterOp 3D',' ',' ');
FILE_SCHEMA(('automotive_design'));
ENDSEC;
DATA;
#1=MECHANICAL_DESIGN_GEOMETRIC_PRESENTATION_REPRESENTATION(' ',(#10,#11,#12,#13,#14,#15,#16,#17),#6);
#2=PRODUCT_DEFINITION_CONTEXT('',#18,'design');
#3=APPLICATION_PROTOCOL_DEFINITION('INTERNATIONAL STANDARD','automotive_design',1994,#18);
#4=PRODUCT_CATEGORY_RELATIONSHIP('NONE','NONE',#19,#20);
#5=SHAPE_DEFINITION_REPRESENTATION(#21,#22);
#6= (GEOMETRIC_REPRESENTATION_CONTEXT(3)GLOBAL_UNCERTAINTY_ASSIGNED_CONTEXT((#25))GLOBAL_UNIT_ASSIGNED_CONTEXT((#27,#28,#29))REPRESENTATION_CONTEXT('NONE','WORKSPACE'));
#10=STYLED_ITEM('',(#31),#32);
#11=STYLED_ITEM('',(#33),#34);
#12=STYLED_ITEM('',(#35),#36);
#13=STYLED_ITEM('',(#37),#38);
#14=STYLED_ITEM('',(#39),#40);
#15=STYLED_ITEM('',(#41),#42);
#16=STYLED_ITEM('',(#43),#44);
#17=STYLED_ITEM('',(#45),#46);
#18=APPLICATION_CONTEXT(' ');
#19=PRODUCT_CATEGORY('part','NONE');
#20=PRODUCT_RELATED_PRODUCT_CATEGORY('detail',' ',(#47));
#21=PRODUCT_DEFINITION_SHAPE('NONE','NONE',#48);
#22=ADVANCED_BREP_SHAPE_REPRESENTATION('HALDERN_EH_23060_0155',(#49,#50),#6);
#25=UNCERTAINTY_MEASURE_WITH_UNIT(LENGTH_MEASURE(1.0E-006),#27,'','');
#27= (CONVERSION_BASED_UNIT('MILLIMETRE',#53)LENGTH_UNIT()NAMED_UNIT(#56));
#28= (NAMED_UNIT(#58)PLANE_ANGLE_UNIT()SI_UNIT($,.RADIAN.));
#29= (NAMED_UNIT(#58)SOLID_ANGLE_UNIT()SI_UNIT($,.STERADIAN.));
#31=PRESENTATION_STYLE_ASSIGNMENT((#64));
#32=ADVANCED_FACE('',(#65),#66,.T.);
#33=PRESENTATION_STYLE_ASSIGNMENT((#67));
#34=ADVANCED_FACE('',(#68),#69,.F.);
#35=PRESENTATION_STYLE_ASSIGNMENT((#70));
#36=ADVANCED_FACE('',(#71),#72,.T.);
#37=PRESENTATION_STYLE_ASSIGNMENT((#73));
#38=ADVANCED_FACE('',(#74),#75,.T.);
#39=PRESENTATION_STYLE_ASSIGNMENT((#76));
#40=ADVANCED_FACE('',(#77),#78,.F.);
#41=PRESENTATION_STYLE_ASSIGNMENT((#79));
#42=ADVANCED_FACE('',(#80),#81,.T.);
#43=PRESENTATION_STYLE_ASSIGNMENT((#82));
#44=ADVANCED_FACE('',(#83,#84),#85,.T.);
#45=PRESENTATION_STYLE_ASSIGNMENT((#86));
#46=ADVANCED_FACE('',(#87,#88),#89,.T.);
#47=PRODUCT('HALDERN_EH_23060_0155','HALDERN_EH_23060_0155','PART-HALDERN_EH_23060_0155-DESC',(#90));
#48=PRODUCT_DEFINITION('NONE','NONE',#91,#2);
#49=MANIFOLD_SOLID_BREP('HALDERN_EH_23060_0155',#92);
#50=AXIS2_PLACEMENT_3D('',#93,#94,#95);
#53=LENGTH_MEASURE_WITH_UNIT(LENGTH_MEASURE(1.0),#96);
#56=DIMENSIONAL_EXPONENTS(1.0,0.0,0.0,0.0,0.0,0.0,0.0);
#58=DIMENSIONAL_EXPONENTS(0.0,0.0,0.0,0.0,0.0,0.0,0.0);
#64=SURFACE_STYLE_USAGE(.BOTH.,#97);
#65=FACE_OUTER_BOUND('',#98,.T.);
#66=CYLINDRICAL_SURFACE('',#99,6.5);
#67=SURFACE_STYLE_USAGE(.BOTH.,#100);
#68=FACE_OUTER_BOUND('',#101,.T.);
#69=CYLINDRICAL_SURFACE('',#102,2.65);
#70=SURFACE_STYLE_USAGE(.BOTH.,#103);
#71=FACE_OUTER_BOUND('',#104,.T.);
#72=CONICAL_SURFACE('',#105,6.35,0.785398163397448);
#73=SURFACE_STYLE_USAGE(.BOTH.,#106);
#74=FACE_OUTER_BOUND('',#107,.T.);
#75=CONICAL_SURFACE('',#108,6.35,0.785398163397448);
#76=SURFACE_STYLE_USAGE(.BOTH.,#109);
#77=FACE_OUTER_BOUND('',#110,.T.);
#78=CYLINDRICAL_SURFACE('',#111,2.65);
#79=SURFACE_STYLE_USAGE(.BOTH.,#112);
#80=FACE_OUTER_BOUND('',#113,.T.);
#81=CYLINDRICAL_SURFACE('',#114,6.5);
#82=SURFACE_STYLE_USAGE(.BOTH.,#115);
#83=FACE_BOUND('',#116,.T.);
#84=FACE_OUTER_BOUND('',#117,.T.);
#85=PLANE('',#118);
#86=SURFACE_STYLE_USAGE(.BOTH.,#119);
#87=FACE_OUTER_BOUND('',#120,.T.);
#88=FACE_BOUND('',#121,.T.);
#89=PLANE('',#122);
#90=PRODUCT_CONTEXT('',#18,'mechanical');
#91=PRODUCT_DEFINITION_FORMATION_WITH_SPECIFIED_SOURCE(' ','NONE',#47,.NOT_KNOWN.);
#92=CLOSED_SHELL('',(#32,#34,#36,#38,#40,#42,#44,#46));
#93=CARTESIAN_POINT('',(0.0,0.0,0.0));
#94=DIRECTION('',(0.0,0.0,1.0));
#95=DIRECTION('',(1.0,0.0,0.0));
#96= (NAMED_UNIT(#56)LENGTH_UNIT()SI_UNIT(.MILLI.,.METRE.));
#97=SURFACE_SIDE_STYLE('',(#124));
#98=EDGE_LOOP('',(#125,#126,#127,#128,#129));
#99=AXIS2_PLACEMENT_3D('',#130,#131,#132);
#100=SURFACE_SIDE_STYLE('',(#133));
#101=EDGE_LOOP('',(#134,#135,#136,#137));
#102=AXIS2_PLACEMENT_3D('',#138,#139,#140);
#103=SURFACE_SIDE_STYLE('',(#141));
#104=EDGE_LOOP('',(#142,#143,#144,#145,#146));
#105=AXIS2_PLACEMENT_3D('',#147,#148,#149);
#106=SURFACE_SIDE_STYLE('',(#150));
#107=EDGE_LOOP('',(#151,#152,#153,#154,#155));
#108=AXIS2_PLACEMENT_3D('',#156,#157,#158);
#109=SURFACE_SIDE_STYLE('',(#159));
#110=EDGE_LOOP('',(#160,#161,#162,#163));
#111=AXIS2_PLACEMENT_3D('',#164,#165,#166);
#112=SURFACE_SIDE_STYLE('',(#167));
#113=EDGE_LOOP('',(#168,#169,#170,#171,#172));
#114=AXIS2_PLACEMENT_3D('',#173,#174,#175);
#115=SURFACE_SIDE_STYLE('',(#176));
#116=EDGE_LOOP('',(#177,#178));
#117=EDGE_LOOP('',(#179,#180));
#118=AXIS2_PLACEMENT_3D('',#181,#182,#183);
#119=SURFACE_SIDE_STYLE('',(#184));
#120=EDGE_LOOP('',(#185,#186));
#121=EDGE_LOOP('',(#187,#188));
#122=AXIS2_PLACEMENT_3D('',#189,#190,#191);
#124=SURFACE_STYLE_FILL_AREA(#192);
#125=ORIENTED_EDGE('',*,*,#193,.F.);
#126=ORIENTED_EDGE('',*,*,#194,.F.);
#127=ORIENTED_EDGE('',*,*,#195,.F.);
#128=ORIENTED_EDGE('',*,*,#196,.T.);
#129=ORIENTED_EDGE('',*,*,#197,.T.);
#130=CARTESIAN_POINT('',(0.0,0.0,1.5));
#131=DIRECTION('',(0.0,0.0,1.0));
#132=DIRECTION('',(1.0,0.0,0.0));
#133=SURFACE_STYLE_FILL_AREA(#198);
#134=ORIENTED_EDGE('',*,*,#199,.F.);
#135=ORIENTED_EDGE('',*,*,#200,.F.);
#136=ORIENTED_EDGE('',*,*,#201,.F.);
#137=ORIENTED_EDGE('',*,*,#202,.F.);
#138=CARTESIAN_POINT('',(0.0,0.0,1.5));
#139=DIRECTION('',(0.0,0.0,1.0));
#140=DIRECTION('',(1.0,0.0,0.0));
#141=SURFACE_STYLE_FILL_AREA(#203);
#142=ORIENTED_EDGE('',*,*,#204,.F.);
#143=ORIENTED_EDGE('',*,*,#205,.F.);
#144=ORIENTED_EDGE('',*,*,#206,.F.);
#145=ORIENTED_EDGE('',*,*,#207,.F.);
#146=ORIENTED_EDGE('',*,*,#197,.F.);
#147=CARTESIAN_POINT('',(-9.18454765366783E-018,0.0,2.85));
#148=DIRECTION('',(-6.12303176911189E-017,0.0,-1.0));
#149=DIRECTION('',(0.0,1.0,0.0));
#150=SURFACE_STYLE_FILL_AREA(#208);
#151=ORIENTED_EDGE('',*,*,#204,.T.);
#152=ORIENTED_EDGE('',*,*,#196,.F.);
#153=ORIENTED_EDGE('',*,*,#209,.F.);
#154=ORIENTED_EDGE('',*,*,#206,.T.);
#155=ORIENTED_EDGE('',*,*,#210,.F.);
#156=CARTESIAN_POINT('',(-9.18454765366783E-018,0.0,2.85));
#157=DIRECTION('',(-6.12303176911189E-017,0.0,-1.0));
#158=DIRECTION('',(0.0,1.0,0.0));
#159=SURFACE_STYLE_FILL_AREA(#211);
#160=ORIENTED_EDGE('',*,*,#199,.T.);
#161=ORIENTED_EDGE('',*,*,#212,.F.);
#162=ORIENTED_EDGE('',*,*,#201,.T.);
#163=ORIENTED_EDGE('',*,*,#213,.F.);
#164=CARTESIAN_POINT('',(0.0,0.0,1.5));
#165=DIRECTION('',(0.0,0.0,1.0));
#166=DIRECTION('',(1.0,0.0,0.0));
#167=SURFACE_STYLE_FILL_AREA(#214);
#168=ORIENTED_EDGE('',*,*,#193,.T.);
#169=ORIENTED_EDGE('',*,*,#207,.T.);
#170=ORIENTED_EDGE('',*,*,#209,.T.);
#171=ORIENTED_EDGE('',*,*,#195,.T.);
#172=ORIENTED_EDGE('',*,*,#215,.F.);
#173=CARTESIAN_POINT('',(0.0,0.0,1.5));
#174=DIRECTION('',(0.0,0.0,1.0));
#175=DIRECTION('',(1.0,0.0,0.0));
#176=SURFACE_STYLE_FILL_AREA(#216);
#177=ORIENTED_EDGE('',*,*,#212,.T.);
#178=ORIENTED_EDGE('',*,*,#202,.T.);
#179=ORIENTED_EDGE('',*,*,#215,.T.);
#180=ORIENTED_EDGE('',*,*,#194,.T.);
#181=CARTESIAN_POINT('',(0.0,0.0,0.0));
#182=DIRECTION('',(0.0,0.0,-1.0));
#183=DIRECTION('',(-1.0,0.0,0.0));
#184=SURFACE_STYLE_FILL_AREA(#217);
#185=ORIENTED_EDGE('',*,*,#210,.T.);
#186=ORIENTED_EDGE('',*,*,#205,.T.);
#187=ORIENTED_EDGE('',*,*,#200,.T.);
#188=ORIENTED_EDGE('',*,*,#213,.T.);
#189=CARTESIAN_POINT('',(0.0,0.0,3.0));
#190=DIRECTION('',(0.0,0.0,1.0));
#191=DIRECTION('',(1.0,0.0,0.0));
#192=FILL_AREA_STYLE('',(#218));
#193=EDGE_CURVE('',#219,#220,#221,.T.);
#194=EDGE_CURVE('',#222,#219,#223,.T.);
#195=EDGE_CURVE('',#224,#222,#225,.T.);
#196=EDGE_CURVE('',#224,#226,#227,.T.);
#197=EDGE_CURVE('',#226,#220,#228,.T.);
#198=FILL_AREA_STYLE('',(#229));
#199=EDGE_CURVE('',#230,#231,#232,.T.);
#200=EDGE_CURVE('',#233,#230,#234,.T.);
#201=EDGE_CURVE('',#235,#233,#236,.T.);
#202=EDGE_CURVE('',#231,#235,#237,.T.);
#203=FILL_AREA_STYLE('',(#238));
#204=EDGE_CURVE('',#239,#226,#240,.T.);
#205=EDGE_CURVE('',#241,#239,#242,.T.);
#206=EDGE_CURVE('',#243,#241,#244,.T.);
#207=EDGE_CURVE('',#220,#243,#245,.T.);
#208=FILL_AREA_STYLE('',(#246));
#209=EDGE_CURVE('',#243,#224,#247,.T.);
#210=EDGE_CURVE('',#239,#241,#248,.T.);
#211=FILL_AREA_STYLE('',(#249));
#212=EDGE_CURVE('',#235,#231,#250,.T.);
#213=EDGE_CURVE('',#230,#233,#251,.T.);
#214=FILL_AREA_STYLE('',(#252));
#215=EDGE_CURVE('',#219,#222,#253,.T.);
#216=FILL_AREA_STYLE('',(#254));
#217=FILL_AREA_STYLE('',(#255));
#218=FILL_AREA_STYLE_COLOUR('',#256);
#219=VERTEX_POINT('',#257);
#220=VERTEX_POINT('',#258);
#221=LINE('',#259,#260);
#222=VERTEX_POINT('',#261);
#223=CIRCLE('',#262,6.5);
#224=VERTEX_POINT('',#263);
#225=LINE('',#264,#265);
#226=VERTEX_POINT('',#266);
#227=CIRCLE('',#267,6.5);
#228=CIRCLE('',#268,6.5);
#229=FILL_AREA_STYLE_COLOUR('',#269);
#230=VERTEX_POINT('',#270);
#231=VERTEX_POINT('',#271);
#232=LINE('',#272,#273);
#233=VERTEX_POINT('',#274);
#234=CIRCLE('',#275,2.65);
#235=VERTEX_POINT('',#276);
#236=LINE('',#277,#278);
#237=CIRCLE('',#279,2.65);
#238=FILL_AREA_STYLE_COLOUR('',#280);
#239=VERTEX_POINT('',#281);
#240=LINE('',#282,#283);
#241=VERTEX_POINT('',#284);
#242=CIRCLE('',#285,6.2);
#243=VERTEX_POINT('',#286);
#244=LINE('',#287,#288);
#245=CIRCLE('',#289,6.5);
#246=FILL_AREA_STYLE_COLOUR('',#290);
#247=CIRCLE('',#291,6.5);
#248=CIRCLE('',#292,6.2);
#249=FILL_AREA_STYLE_COLOUR('',#293);
#250=CIRCLE('',#294,2.65);
#251=CIRCLE('',#295,2.65);
#252=FILL_AREA_STYLE_COLOUR('',#296);
#253=CIRCLE('',#297,6.5);
#254=FILL_AREA_STYLE_COLOUR('',#298);
#255=FILL_AREA_STYLE_COLOUR('',#299);
#256=COLOUR_RGB('',0.749019622802734,0.749019622802734,0.749019622802734);
#257=CARTESIAN_POINT('',(6.5,0.0,0.0));
#258=CARTESIAN_POINT('',(6.5,-7.95994129984545E-016,2.7));
#259=CARTESIAN_POINT('',(6.5,-7.95994129984545E-016,1.5));
#260=VECTOR('',#300,1.0);
#261=CARTESIAN_POINT('',(-6.5,7.95994129984545E-016,0.0));
#262=AXIS2_PLACEMENT_3D('',#301,#302,#303);
#263=CARTESIAN_POINT('',(-6.5,7.95994129984545E-016,2.7));
#264=CARTESIAN_POINT('',(-6.5,7.95994129984545E-016,1.5));
#265=VECTOR('',#304,1.0);
#266=CARTESIAN_POINT('',(-1.83690953073357E-017,6.5,2.7));
#267=AXIS2_PLACEMENT_3D('',#305,#306,#307);
#268=AXIS2_PLACEMENT_3D('',#308,#309,#310);
#269=COLOUR_RGB('',0.749019622802734,0.749019622802734,0.749019622802734);
#270=CARTESIAN_POINT('',(2.65,-3.2452068376293E-016,3.0));
#271=CARTESIAN_POINT('',(2.65,-3.2452068376293E-016,0.0));
#272=CARTESIAN_POINT('',(2.65,-3.2452068376293E-016,1.5));
#273=VECTOR('',#311,1.0);
#274=CARTESIAN_POINT('',(-2.65,3.2452068376293E-016,3.0));
#275=AXIS2_PLACEMENT_3D('',#312,#313,#314);
#276=CARTESIAN_POINT('',(-2.65,-3.2452068376293E-016,0.0));
#277=CARTESIAN_POINT('',(-2.65,3.2452068376293E-016,1.5));
#278=VECTOR('',#315,1.0);
#279=AXIS2_PLACEMENT_3D('',#316,#317,#318);
#280=COLOUR_RGB('',0.749019622802734,0.749019622802734,0.749019622802734);
#281=CARTESIAN_POINT('',(0.0,6.2,3.0));
#282=CARTESIAN_POINT('',(7.68440487023542E-016,6.35,2.85));
#283=VECTOR('',#319,1.0);
#284=CARTESIAN_POINT('',(-7.59255939369874E-016,-6.2,3.0));
#285=AXIS2_PLACEMENT_3D('',#320,#321,#322);
#286=CARTESIAN_POINT('',(-8.14363225291881E-016,-6.5,2.7));
#287=CARTESIAN_POINT('',(-7.86809582330877E-016,-6.35,2.85));
#288=VECTOR('',#323,1.0);
#289=AXIS2_PLACEMENT_3D('',#324,#325,#326);
#290=COLOUR_RGB('',0.749019622802734,0.749019622802734,0.749019622802734);
#291=AXIS2_PLACEMENT_3D('',#327,#328,#329);
#292=AXIS2_PLACEMENT_3D('',#330,#331,#332);
#293=COLOUR_RGB('',0.749019622802734,0.749019622802734,0.749019622802734);
#294=AXIS2_PLACEMENT_3D('',#333,#334,#335);
#295=AXIS2_PLACEMENT_3D('',#336,#337,#338);
#296=COLOUR_RGB('',0.749019622802734,0.749019622802734,0.749019622802734);
#297=AXIS2_PLACEMENT_3D('',#339,#340,#341);
#298=COLOUR_RGB('',0.749019622802734,0.749019622802734,0.749019622802734);
#299=COLOUR_RGB('',0.749019622802734,0.749019622802734,0.749019622802734);
#300=DIRECTION('',(0.0,0.0,1.0));
#301=CARTESIAN_POINT('',(0.0,0.0,0.0));
#302=DIRECTION('',(0.0,0.0,-1.0));
#303=DIRECTION('',(1.0,0.0,0.0));
#304=DIRECTION('',(-0.0,-0.0,-1.0));
#305=CARTESIAN_POINT('',(0.0,0.0,2.7));
#306=DIRECTION('',(-6.12303176911189E-017,0.0,-1.0));
#307=DIRECTION('',(1.0,0.0,-6.12303176911189E-017));
#308=CARTESIAN_POINT('',(0.0,0.0,2.7));
#309=DIRECTION('',(-6.12303176911189E-017,0.0,-1.0));
#310=DIRECTION('',(1.0,0.0,-6.12303176911189E-017));
#311=DIRECTION('',(-0.0,0.0,-1.0));
#312=CARTESIAN_POINT('',(0.0,0.0,3.0));
#313=DIRECTION('',(0.0,0.0,-1.0));
#314=DIRECTION('',(1.0,0.0,0.0));
#315=DIRECTION('',(-0.0,0.0,1.0));
#316=CARTESIAN_POINT('',(0.0,0.0,0.0));
#317=DIRECTION('',(0.0,0.0,1.0));
#318=DIRECTION('',(1.0,0.0,0.0));
#319=DIRECTION('',(4.32963728535968E-017,0.707106781186547,-0.707106781186548));
#320=CARTESIAN_POINT('',(6.16297582203915E-033,0.0,3.0));
#321=DIRECTION('',(0.0,-0.0,1.0));
#322=DIRECTION('',(0.0,1.0,0.0));
#323=DIRECTION('',(1.2988911856079E-016,0.707106781186547,0.707106781186548));
#324=CARTESIAN_POINT('',(0.0,0.0,2.7));
#325=DIRECTION('',(-6.12303176911189E-017,0.0,-1.0));
#326=DIRECTION('',(1.0,0.0,-6.12303176911189E-017));
#327=CARTESIAN_POINT('',(0.0,0.0,2.7));
#328=DIRECTION('',(-6.12303176911189E-017,0.0,-1.0));
#329=DIRECTION('',(1.0,0.0,-6.12303176911189E-017));
#330=CARTESIAN_POINT('',(6.16297582203915E-033,0.0,3.0));
#331=DIRECTION('',(0.0,-0.0,1.0));
#332=DIRECTION('',(0.0,1.0,0.0));
#333=CARTESIAN_POINT('',(0.0,0.0,0.0));
#334=DIRECTION('',(0.0,0.0,1.0));
#335=DIRECTION('',(1.0,0.0,0.0));
#336=CARTESIAN_POINT('',(0.0,0.0,3.0));
#337=DIRECTION('',(0.0,0.0,-1.0));
#338=DIRECTION('',(1.0,0.0,0.0));
#339=CARTESIAN_POINT('',(0.0,0.0,0.0));
#340=DIRECTION('',(0.0,0.0,-1.0));
#341=DIRECTION('',(1.0,0.0,0.0));
ENDSEC;
END-ISO-10303-21;
