ISO-10303-21;
HEADER;
FILE_DESCRIPTION(('STEP AP214'),'1');
FILE_NAME(' ','  ',('TraceParts'),('TraceParts S.A.'),'XStep 1.0',' ',' ');
FILE_SCHEMA(('automotive_design'));
ENDSEC;
DATA;
#1=MECHANICAL_DESIGN_GEOMETRIC_PRESENTATION_REPRESENTATION(' ',(#10,#11,#12,#13,#14,#15,#16,#17,#18,#19,#20,#21,#22,#23,#24,#25,#26,#27,#28,#29,#30,#31,#32,#33,#34,#35,#36),#6);
#2=PRODUCT_DEFINITION_CONTEXT('',#37,'design');
#3=APPLICATION_PROTOCOL_DEFINITION('INTERNATIONAL STANDARD','automotive_design',1994,#37);
#4=PRODUCT_CATEGORY_RELATIONSHIP('NONE','NONE',#38,#39);
#5=SHAPE_DEFINITION_REPRESENTATION(#40,#41);
#6= (GEOMETRIC_REPRESENTATION_CONTEXT(3)GLOBAL_UNCERTAINTY_ASSIGNED_CONTEXT((#44))GLOBAL_UNIT_ASSIGNED_CONTEXT((#46,#47,#48))REPRESENTATION_CONTEXT('NONE','WORKSPACE'));
#10=STYLED_ITEM('',(#50),#51);
#11=STYLED_ITEM('',(#52),#53);
#12=STYLED_ITEM('',(#54),#55);
#13=STYLED_ITEM('',(#56),#57);
#14=STYLED_ITEM('',(#58),#59);
#15=STYLED_ITEM('',(#60),#61);
#16=STYLED_ITEM('',(#62),#63);
#17=STYLED_ITEM('',(#64),#65);
#18=STYLED_ITEM('',(#66),#67);
#19=STYLED_ITEM('',(#68),#69);
#20=STYLED_ITEM('',(#70),#71);
#21=STYLED_ITEM('',(#72),#73);
#22=STYLED_ITEM('',(#74),#75);
#23=STYLED_ITEM('',(#76),#77);
#24=STYLED_ITEM('',(#78),#79);
#25=STYLED_ITEM('',(#80),#81);
#26=STYLED_ITEM('',(#82),#83);
#27=STYLED_ITEM('',(#84),#85);
#28=STYLED_ITEM('',(#86),#87);
#29=STYLED_ITEM('',(#88),#89);
#30=STYLED_ITEM('',(#90),#91);
#31=STYLED_ITEM('',(#92),#93);
#32=STYLED_ITEM('',(#94),#95);
#33=STYLED_ITEM('',(#96),#97);
#34=STYLED_ITEM('',(#98),#99);
#35=STYLED_ITEM('',(#100),#101);
#36=STYLED_ITEM('',(#102),#103);
#37=APPLICATION_CONTEXT(' ');
#38=PRODUCT_CATEGORY('part','NONE');
#39=PRODUCT_RELATED_PRODUCT_CATEGORY('detail',' ',(#104));
#40=PRODUCT_DEFINITION_SHAPE('NONE','NONE',#105);
#41=ADVANCED_BREP_SHAPE_REPRESENTATION('1',(#55,#106),#6);
#44=UNCERTAINTY_MEASURE_WITH_UNIT(LENGTH_MEASURE(1.0E-006),#46,'','');
#46= (CONVERSION_BASED_UNIT('MILLIMETRE',#109)LENGTH_UNIT()NAMED_UNIT(#112));
#47= (NAMED_UNIT(#114)PLANE_ANGLE_UNIT()SI_UNIT($,.RADIAN.));
#48= (NAMED_UNIT(#114)SOLID_ANGLE_UNIT()SI_UNIT($,.STERADIAN.));
#50=PRESENTATION_STYLE_ASSIGNMENT((#120));
#51=EDGE_CURVE('',#101,#83,#121,.T.);
#52=PRESENTATION_STYLE_ASSIGNMENT((#122));
#53=ADVANCED_FACE('',(#123),#124,.T.);
#54=PRESENTATION_STYLE_ASSIGNMENT((#125));
#55=MANIFOLD_SOLID_BREP('1',#126);
#56=PRESENTATION_STYLE_ASSIGNMENT((#127));
#57=EDGE_CURVE('',#103,#61,#128,.T.);
#58=PRESENTATION_STYLE_ASSIGNMENT((#129));
#59=ADVANCED_FACE('',(#130,#131),#132,.T.);
#60=PRESENTATION_STYLE_ASSIGNMENT((#133));
#61=VERTEX_POINT('',#134);
#62=PRESENTATION_STYLE_ASSIGNMENT((#135));
#63=EDGE_CURVE('',#97,#77,#136,.T.);
#64=PRESENTATION_STYLE_ASSIGNMENT((#137));
#65=VERTEX_POINT('',#138);
#66=PRESENTATION_STYLE_ASSIGNMENT((#139));
#67=ADVANCED_FACE('',(#140),#141,.T.);
#68=PRESENTATION_STYLE_ASSIGNMENT((#142));
#69=EDGE_CURVE('',#83,#101,#143,.T.);
#70=PRESENTATION_STYLE_ASSIGNMENT((#144));
#71=EDGE_CURVE('',#61,#101,#145,.T.);
#72=PRESENTATION_STYLE_ASSIGNMENT((#146));
#73=ADVANCED_FACE('',(#147),#148,.F.);
#74=PRESENTATION_STYLE_ASSIGNMENT((#149));
#75=ADVANCED_FACE('',(#150,#151),#152,.T.);
#76=PRESENTATION_STYLE_ASSIGNMENT((#153));
#77=VERTEX_POINT('',#154);
#78=PRESENTATION_STYLE_ASSIGNMENT((#155));
#79=EDGE_CURVE('',#65,#99,#156,.T.);
#80=PRESENTATION_STYLE_ASSIGNMENT((#157));
#81=EDGE_CURVE('',#77,#97,#158,.T.);
#82=PRESENTATION_STYLE_ASSIGNMENT((#159));
#83=VERTEX_POINT('',#160);
#84=PRESENTATION_STYLE_ASSIGNMENT((#161));
#85=EDGE_CURVE('',#83,#103,#162,.T.);
#86=PRESENTATION_STYLE_ASSIGNMENT((#163));
#87=EDGE_CURVE('',#99,#77,#164,.T.);
#88=PRESENTATION_STYLE_ASSIGNMENT((#165));
#89=EDGE_CURVE('',#61,#103,#166,.T.);
#90=PRESENTATION_STYLE_ASSIGNMENT((#167));
#91=EDGE_CURVE('',#97,#65,#168,.T.);
#92=PRESENTATION_STYLE_ASSIGNMENT((#169));
#93=EDGE_CURVE('',#99,#65,#170,.T.);
#94=PRESENTATION_STYLE_ASSIGNMENT((#171));
#95=ADVANCED_FACE('',(#172),#173,.F.);
#96=PRESENTATION_STYLE_ASSIGNMENT((#174));
#97=VERTEX_POINT('',#175);
#98=PRESENTATION_STYLE_ASSIGNMENT((#176));
#99=VERTEX_POINT('',#177);
#100=PRESENTATION_STYLE_ASSIGNMENT((#178));
#101=VERTEX_POINT('',#179);
#102=PRESENTATION_STYLE_ASSIGNMENT((#180));
#103=VERTEX_POINT('',#181);
#104=PRODUCT('1','1','PART-1-DESC',(#182));
#105=PRODUCT_DEFINITION('NONE','NONE',#183,#2);
#106=AXIS2_PLACEMENT_3D('',#184,#185,#186);
#109=LENGTH_MEASURE_WITH_UNIT(LENGTH_MEASURE(1.0),#187);
#112=DIMENSIONAL_EXPONENTS(1.0,0.0,0.0,0.0,0.0,0.0,0.0);
#114=DIMENSIONAL_EXPONENTS(0.0,0.0,0.0,0.0,0.0,0.0,0.0);
#120=CURVE_STYLE('',#188,POSITIVE_LENGTH_MEASURE(1.0E-006),#189);
#121=CIRCLE('',#190,19.0);
#122=SURFACE_STYLE_USAGE(.BOTH.,#191);
#123=FACE_OUTER_BOUND('',#192,.T.);
#124=CYLINDRICAL_SURFACE('',#193,40.0);
#125=SURFACE_STYLE_USAGE(.BOTH.,#194);
#126=CLOSED_SHELL('',(#95,#53,#75,#67,#59,#73));
#127=CURVE_STYLE('',#195,POSITIVE_LENGTH_MEASURE(1.0E-006),#196);
#128=CIRCLE('',#197,19.0);
#129=SURFACE_STYLE_USAGE(.BOTH.,#198);
#130=FACE_BOUND('',#199,.T.);
#131=FACE_OUTER_BOUND('',#200,.T.);
#132=PLANE('',#201);
#133=POINT_STYLE(' ',#202,POSITIVE_LENGTH_MEASURE(1.0E-006),#203);
#134=CARTESIAN_POINT('',(-19.0,1.32265364646952E-014,-2.8421709430404E-014));
#135=CURVE_STYLE('',#204,POSITIVE_LENGTH_MEASURE(1.0E-006),#205);
#136=CIRCLE('',#206,40.0);
#137=POINT_STYLE(' ',#207,POSITIVE_LENGTH_MEASURE(1.0E-006),#208);
#138=CARTESIAN_POINT('',(-40.0,9.84375464225293E-015,12.0));
#139=SURFACE_STYLE_USAGE(.BOTH.,#209);
#140=FACE_OUTER_BOUND('',#210,.T.);
#141=CYLINDRICAL_SURFACE('',#211,40.0);
#142=CURVE_STYLE('',#212,POSITIVE_LENGTH_MEASURE(1.0E-006),#213);
#143=CIRCLE('',#214,19.0);
#144=CURVE_STYLE('',#215,POSITIVE_LENGTH_MEASURE(1.0E-006),#216);
#145=LINE('',#217,#218);
#146=SURFACE_STYLE_USAGE(.BOTH.,#219);
#147=FACE_OUTER_BOUND('',#220,.T.);
#148=CYLINDRICAL_SURFACE('',#221,19.0);
#149=SURFACE_STYLE_USAGE(.BOTH.,#222);
#150=FACE_OUTER_BOUND('',#223,.T.);
#151=FACE_BOUND('',#224,.T.);
#152=PLANE('',#225);
#153=POINT_STYLE(' ',#226,POSITIVE_LENGTH_MEASURE(1.0E-006),#227);
#154=CARTESIAN_POINT('',(40.0,1.70219124020555E-014,-2.8421709430404E-014));
#155=CURVE_STYLE('',#228,POSITIVE_LENGTH_MEASURE(1.0E-006),#229);
#156=CIRCLE('',#230,40.0);
#157=CURVE_STYLE('',#231,POSITIVE_LENGTH_MEASURE(1.0E-006),#232);
#158=CIRCLE('',#233,40.0);
#159=POINT_STYLE(' ',#234,POSITIVE_LENGTH_MEASURE(1.0E-006),#235);
#160=CARTESIAN_POINT('',(19.0,1.6287148589762E-014,12.0));
#161=CURVE_STYLE('',#236,POSITIVE_LENGTH_MEASURE(1.0E-006),#237);
#162=LINE('',#238,#239);
#163=CURVE_STYLE('',#240,POSITIVE_LENGTH_MEASURE(1.0E-006),#241);
#164=LINE('',#242,#243);
#165=CURVE_STYLE('',#244,POSITIVE_LENGTH_MEASURE(1.0E-006),#245);
#166=CIRCLE('',#246,19.0);
#167=CURVE_STYLE('',#247,POSITIVE_LENGTH_MEASURE(1.0E-006),#248);
#168=LINE('',#249,#250);
#169=CURVE_STYLE('',#251,POSITIVE_LENGTH_MEASURE(1.0E-006),#252);
#170=CIRCLE('',#253,40.0);
#171=SURFACE_STYLE_USAGE(.BOTH.,#254);
#172=FACE_OUTER_BOUND('',#255,.T.);
#173=CYLINDRICAL_SURFACE('',#256,19.0);
#174=POINT_STYLE(' ',#257,POSITIVE_LENGTH_MEASURE(1.0E-006),#258);
#175=CARTESIAN_POINT('',(-40.0,9.84375464225293E-015,-2.8421709430404E-014));
#176=POINT_STYLE(' ',#259,POSITIVE_LENGTH_MEASURE(1.0E-006),#260);
#177=CARTESIAN_POINT('',(40.0,1.6287148589762E-014,12.0));
#178=POINT_STYLE(' ',#261,POSITIVE_LENGTH_MEASURE(1.0E-006),#262);
#179=CARTESIAN_POINT('',(-19.0,1.32265364646952E-014,12.0));
#180=POINT_STYLE(' ',#263,POSITIVE_LENGTH_MEASURE(1.0E-006),#264);
#181=CARTESIAN_POINT('',(19.0,1.70219124020555E-014,-2.8421709430404E-014));
#182=PRODUCT_CONTEXT('',#37,'mechanical');
#183=PRODUCT_DEFINITION_FORMATION_WITH_SPECIFIED_SOURCE(' ','NONE',#104,.NOT_KNOWN.);
#184=CARTESIAN_POINT('',(0.0,0.0,0.0));
#185=DIRECTION('',(0.0,0.0,1.0));
#186=DIRECTION('',(1.0,0.0,0.0));
#187= (NAMED_UNIT(#112)LENGTH_UNIT()SI_UNIT(.MILLI.,.METRE.));
#188=DRAUGHTING_PRE_DEFINED_CURVE_FONT('continuous');
#189=COLOUR_RGB('',0.509803950786591,0.509803950786591,0.588235318660736);
#190=AXIS2_PLACEMENT_3D('',#266,#267,#268);
#191=SURFACE_SIDE_STYLE('',(#269));
#192=EDGE_LOOP('',(#270,#271,#272,#273));
#193=AXIS2_PLACEMENT_3D('',#274,#275,#276);
#194=SURFACE_SIDE_STYLE('',(#277));
#195=DRAUGHTING_PRE_DEFINED_CURVE_FONT('continuous');
#196=COLOUR_RGB('',0.509803950786591,0.509803950786591,0.588235318660736);
#197=AXIS2_PLACEMENT_3D('',#278,#279,#280);
#198=SURFACE_SIDE_STYLE('',(#281));
#199=EDGE_LOOP('',(#282,#283));
#200=EDGE_LOOP('',(#284,#285));
#201=AXIS2_PLACEMENT_3D('',#286,#287,#288);
#202=PRE_DEFINED_MARKER('');
#203=COLOUR_RGB('',0.509803950786591,0.509803950786591,0.588235318660736);
#204=DRAUGHTING_PRE_DEFINED_CURVE_FONT('continuous');
#205=COLOUR_RGB('',0.509803950786591,0.509803950786591,0.588235318660736);
#206=AXIS2_PLACEMENT_3D('',#289,#290,#291);
#207=PRE_DEFINED_MARKER('');
#208=COLOUR_RGB('',0.509803950786591,0.509803950786591,0.588235318660736);
#209=SURFACE_SIDE_STYLE('',(#292));
#210=EDGE_LOOP('',(#293,#294,#295,#296));
#211=AXIS2_PLACEMENT_3D('',#297,#298,#299);
#212=DRAUGHTING_PRE_DEFINED_CURVE_FONT('continuous');
#213=COLOUR_RGB('',0.509803950786591,0.509803950786591,0.588235318660736);
#214=AXIS2_PLACEMENT_3D('',#300,#301,#302);
#215=DRAUGHTING_PRE_DEFINED_CURVE_FONT('continuous');
#216=COLOUR_RGB('',0.509803950786591,0.509803950786591,0.588235318660736);
#217=CARTESIAN_POINT('',(-19.0,1.32265364646952E-014,5.99999999999997));
#218=VECTOR('',#303,1.0);
#219=SURFACE_SIDE_STYLE('',(#304));
#220=EDGE_LOOP('',(#305,#306,#307,#308));
#221=AXIS2_PLACEMENT_3D('',#309,#310,#311);
#222=SURFACE_SIDE_STYLE('',(#312));
#223=EDGE_LOOP('',(#313,#314));
#224=EDGE_LOOP('',(#315,#316));
#225=AXIS2_PLACEMENT_3D('',#317,#318,#319);
#226=PRE_DEFINED_MARKER('');
#227=COLOUR_RGB('',0.509803950786591,0.509803950786591,0.588235318660736);
#228=DRAUGHTING_PRE_DEFINED_CURVE_FONT('continuous');
#229=COLOUR_RGB('',0.509803950786591,0.509803950786591,0.588235318660736);
#230=AXIS2_PLACEMENT_3D('',#320,#321,#322);
#231=DRAUGHTING_PRE_DEFINED_CURVE_FONT('continuous');
#232=COLOUR_RGB('',0.509803950786591,0.509803950786591,0.588235318660736);
#233=AXIS2_PLACEMENT_3D('',#323,#324,#325);
#234=PRE_DEFINED_MARKER('');
#235=COLOUR_RGB('',0.509803950786591,0.509803950786591,0.588235318660736);
#236=DRAUGHTING_PRE_DEFINED_CURVE_FONT('continuous');
#237=COLOUR_RGB('',0.509803950786591,0.509803950786591,0.588235318660736);
#238=CARTESIAN_POINT('',(19.0,1.93477607148289E-014,5.99999999999997));
#239=VECTOR('',#326,1.0);
#240=DRAUGHTING_PRE_DEFINED_CURVE_FONT('continuous');
#241=COLOUR_RGB('',0.509803950786591,0.509803950786591,0.588235318660736);
#242=CARTESIAN_POINT('',(40.0,2.27305425372711E-014,5.99999999999997));
#243=VECTOR('',#327,1.0);
#244=DRAUGHTING_PRE_DEFINED_CURVE_FONT('continuous');
#245=COLOUR_RGB('',0.509803950786591,0.509803950786591,0.588235318660736);
#246=AXIS2_PLACEMENT_3D('',#328,#329,#330);
#247=DRAUGHTING_PRE_DEFINED_CURVE_FONT('continuous');
#248=COLOUR_RGB('',0.509803950786591,0.509803950786591,0.588235318660736);
#249=CARTESIAN_POINT('',(-40.0,9.84375464225293E-015,5.99999999999997));
#250=VECTOR('',#331,1.0);
#251=DRAUGHTING_PRE_DEFINED_CURVE_FONT('continuous');
#252=COLOUR_RGB('',0.509803950786591,0.509803950786591,0.588235318660736);
#253=AXIS2_PLACEMENT_3D('',#332,#333,#334);
#254=SURFACE_SIDE_STYLE('',(#335));
#255=EDGE_LOOP('',(#336,#337,#338,#339));
#256=AXIS2_PLACEMENT_3D('',#340,#341,#342);
#257=PRE_DEFINED_MARKER('');
#258=COLOUR_RGB('',0.509803950786591,0.509803950786591,0.588235318660736);
#259=PRE_DEFINED_MARKER('');
#260=COLOUR_RGB('',0.509803950786591,0.509803950786591,0.588235318660736);
#261=PRE_DEFINED_MARKER('');
#262=COLOUR_RGB('',0.509803950786591,0.509803950786591,0.588235318660736);
#263=PRE_DEFINED_MARKER('');
#264=COLOUR_RGB('',0.509803950786591,0.509803950786591,0.588235318660736);
#266=CARTESIAN_POINT('',(-2.8421709430404E-014,1.6287148589762E-014,12.0));
#267=DIRECTION('',(0.0,0.0,-1.0));
#268=DIRECTION('',(1.0,3.86242133054898E-017,0.0));
#269=SURFACE_STYLE_FILL_AREA(#343);
#270=ORIENTED_EDGE('',*,*,#87,.F.);
#271=ORIENTED_EDGE('',*,*,#93,.T.);
#272=ORIENTED_EDGE('',*,*,#91,.F.);
#273=ORIENTED_EDGE('',*,*,#81,.F.);
#274=CARTESIAN_POINT('',(-2.8421709430404E-014,1.6287148589762E-014,5.99999999999997));
#275=DIRECTION('',(-0.0,-0.0,1.0));
#276=DIRECTION('',(1.0,3.86242133054898E-017,0.0));
#277=SURFACE_STYLE_FILL_AREA(#344);
#278=CARTESIAN_POINT('',(-2.8421709430404E-014,1.6287148589762E-014,-2.8421709430404E-014));
#279=DIRECTION('',(0.0,0.0,-1.0));
#280=DIRECTION('',(1.0,3.86242133054898E-017,0.0));
#281=SURFACE_STYLE_FILL_AREA(#345);
#282=ORIENTED_EDGE('',*,*,#57,.F.);
#283=ORIENTED_EDGE('',*,*,#89,.F.);
#284=ORIENTED_EDGE('',*,*,#81,.T.);
#285=ORIENTED_EDGE('',*,*,#63,.T.);
#286=CARTESIAN_POINT('',(29.5,1.70219124020555E-014,-2.8421709430404E-014));
#287=DIRECTION('',(0.0,0.0,-1.0));
#288=DIRECTION('',(-1.0,0.0,0.0));
#289=CARTESIAN_POINT('',(-2.8421709430404E-014,1.6287148589762E-014,-2.8421709430404E-014));
#290=DIRECTION('',(0.0,0.0,-1.0));
#291=DIRECTION('',(1.0,3.86242133054898E-017,0.0));
#292=SURFACE_STYLE_FILL_AREA(#346);
#293=ORIENTED_EDGE('',*,*,#87,.T.);
#294=ORIENTED_EDGE('',*,*,#63,.F.);
#295=ORIENTED_EDGE('',*,*,#91,.T.);
#296=ORIENTED_EDGE('',*,*,#79,.T.);
#297=CARTESIAN_POINT('',(-2.8421709430404E-014,1.6287148589762E-014,5.99999999999997));
#298=DIRECTION('',(-0.0,-0.0,1.0));
#299=DIRECTION('',(1.0,3.86242133054898E-017,0.0));
#300=CARTESIAN_POINT('',(-2.8421709430404E-014,1.6287148589762E-014,12.0));
#301=DIRECTION('',(0.0,0.0,-1.0));
#302=DIRECTION('',(1.0,3.86242133054898E-017,0.0));
#303=DIRECTION('',(-0.0,-0.0,1.0));
#304=SURFACE_STYLE_FILL_AREA(#347);
#305=ORIENTED_EDGE('',*,*,#85,.T.);
#306=ORIENTED_EDGE('',*,*,#57,.T.);
#307=ORIENTED_EDGE('',*,*,#71,.T.);
#308=ORIENTED_EDGE('',*,*,#69,.F.);
#309=CARTESIAN_POINT('',(-2.8421709430404E-014,1.6287148589762E-014,5.99999999999997));
#310=DIRECTION('',(-0.0,-0.0,1.0));
#311=DIRECTION('',(1.0,3.86242133054898E-017,0.0));
#312=SURFACE_STYLE_FILL_AREA(#348);
#313=ORIENTED_EDGE('',*,*,#93,.F.);
#314=ORIENTED_EDGE('',*,*,#79,.F.);
#315=ORIENTED_EDGE('',*,*,#69,.T.);
#316=ORIENTED_EDGE('',*,*,#51,.T.);
#317=CARTESIAN_POINT('',(29.5,1.6287148589762E-014,12.0));
#318=DIRECTION('',(0.0,0.0,1.0));
#319=DIRECTION('',(1.0,0.0,0.0));
#320=CARTESIAN_POINT('',(-2.8421709430404E-014,1.6287148589762E-014,12.0));
#321=DIRECTION('',(0.0,0.0,-1.0));
#322=DIRECTION('',(1.0,3.86242133054898E-017,0.0));
#323=CARTESIAN_POINT('',(-2.8421709430404E-014,1.6287148589762E-014,-2.8421709430404E-014));
#324=DIRECTION('',(0.0,0.0,-1.0));
#325=DIRECTION('',(1.0,3.86242133054898E-017,0.0));
#326=DIRECTION('',(-0.0,-0.0,-1.0));
#327=DIRECTION('',(0.0,0.0,-1.0));
#328=CARTESIAN_POINT('',(-2.8421709430404E-014,1.6287148589762E-014,-2.8421709430404E-014));
#329=DIRECTION('',(0.0,0.0,-1.0));
#330=DIRECTION('',(1.0,3.86242133054898E-017,0.0));
#331=DIRECTION('',(-0.0,-0.0,1.0));
#332=CARTESIAN_POINT('',(-2.8421709430404E-014,1.6287148589762E-014,12.0));
#333=DIRECTION('',(0.0,0.0,-1.0));
#334=DIRECTION('',(1.0,3.86242133054898E-017,0.0));
#335=SURFACE_STYLE_FILL_AREA(#349);
#336=ORIENTED_EDGE('',*,*,#85,.F.);
#337=ORIENTED_EDGE('',*,*,#51,.F.);
#338=ORIENTED_EDGE('',*,*,#71,.F.);
#339=ORIENTED_EDGE('',*,*,#89,.T.);
#340=CARTESIAN_POINT('',(-2.8421709430404E-014,1.6287148589762E-014,5.99999999999997));
#341=DIRECTION('',(-0.0,-0.0,1.0));
#342=DIRECTION('',(1.0,3.86242133054898E-017,0.0));
#343=FILL_AREA_STYLE('',(#350));
#344=FILL_AREA_STYLE('',(#351));
#345=FILL_AREA_STYLE('',(#352));
#346=FILL_AREA_STYLE('',(#353));
#347=FILL_AREA_STYLE('',(#354));
#348=FILL_AREA_STYLE('',(#355));
#349=FILL_AREA_STYLE('',(#356));
#350=FILL_AREA_STYLE_COLOUR('',#357);
#351=FILL_AREA_STYLE_COLOUR('',#358);
#352=FILL_AREA_STYLE_COLOUR('',#359);
#353=FILL_AREA_STYLE_COLOUR('',#360);
#354=FILL_AREA_STYLE_COLOUR('',#361);
#355=FILL_AREA_STYLE_COLOUR('',#362);
#356=FILL_AREA_STYLE_COLOUR('',#363);
#357=COLOUR_RGB('',0.509803950786591,0.509803950786591,0.588235318660736);
#358=COLOUR_RGB('',0.509803950786591,0.509803950786591,0.588235318660736);
#359=COLOUR_RGB('',0.509803950786591,0.509803950786591,0.588235318660736);
#360=COLOUR_RGB('',0.509803950786591,0.509803950786591,0.588235318660736);
#361=COLOUR_RGB('',0.509803950786591,0.509803950786591,0.588235318660736);
#362=COLOUR_RGB('',0.509803950786591,0.509803950786591,0.588235318660736);
#363=COLOUR_RGB('',0.509803950786591,0.509803950786591,0.588235318660736);
ENDSEC;
END-ISO-10303-21;
