ISO-10303-21;
HEADER;
FILE_DESCRIPTION(('STEP AP214'),'1');
FILE_NAME(' ','  ',('TraceParts'),('TraceParts S.A.'),'XStep 1.0',' ',' ');
FILE_SCHEMA(('automotive_design'));
ENDSEC;
DATA;
#1=MECHANICAL_DESIGN_GEOMETRIC_PRESENTATION_REPRESENTATION(' ',(#10,#11,#12,#13,#14,#15,#16,#17,#18,#19,#20,#21,#22,#23,#24,#25,#26,#27,#28,#29,#30,#31,#32,#33,#34,#35,#36),#6);
#2=PRODUCT_DEFINITION_CONTEXT('',#37,'design');
#3=APPLICATION_PROTOCOL_DEFINITION('INTERNATIONAL STANDARD','automotive_design',1994,#37);
#4=PRODUCT_CATEGORY_RELATIONSHIP('NONE','NONE',#38,#39);
#5=SHAPE_DEFINITION_REPRESENTATION(#40,#41);
#6= (GEOMETRIC_REPRESENTATION_CONTEXT(3)GLOBAL_UNCERTAINTY_ASSIGNED_CONTEXT((#44))GLOBAL_UNIT_ASSIGNED_CONTEXT((#46,#47,#48))REPRESENTATION_CONTEXT('NONE','WORKSPACE'));
#10=STYLED_ITEM('',(#50),#51);
#11=STYLED_ITEM('',(#52),#53);
#12=STYLED_ITEM('',(#54),#55);
#13=STYLED_ITEM('',(#56),#57);
#14=STYLED_ITEM('',(#58),#59);
#15=STYLED_ITEM('',(#60),#61);
#16=STYLED_ITEM('',(#62),#63);
#17=STYLED_ITEM('',(#64),#65);
#18=STYLED_ITEM('',(#66),#67);
#19=STYLED_ITEM('',(#68),#69);
#20=STYLED_ITEM('',(#70),#71);
#21=STYLED_ITEM('',(#72),#73);
#22=STYLED_ITEM('',(#74),#75);
#23=STYLED_ITEM('',(#76),#77);
#24=STYLED_ITEM('',(#78),#79);
#25=STYLED_ITEM('',(#80),#81);
#26=STYLED_ITEM('',(#82),#83);
#27=STYLED_ITEM('',(#84),#85);
#28=STYLED_ITEM('',(#86),#87);
#29=STYLED_ITEM('',(#88),#89);
#30=STYLED_ITEM('',(#90),#91);
#31=STYLED_ITEM('',(#92),#93);
#32=STYLED_ITEM('',(#94),#95);
#33=STYLED_ITEM('',(#96),#97);
#34=STYLED_ITEM('',(#98),#99);
#35=STYLED_ITEM('',(#100),#101);
#36=STYLED_ITEM('',(#102),#103);
#37=APPLICATION_CONTEXT(' ');
#38=PRODUCT_CATEGORY('part','NONE');
#39=PRODUCT_RELATED_PRODUCT_CATEGORY('detail',' ',(#104));
#40=PRODUCT_DEFINITION_SHAPE('NONE','NONE',#105);
#41=ADVANCED_BREP_SHAPE_REPRESENTATION('1',(#53,#106),#6);
#44=UNCERTAINTY_MEASURE_WITH_UNIT(LENGTH_MEASURE(1.0E-006),#46,'','');
#46= (CONVERSION_BASED_UNIT('MILLIMETRE',#109)LENGTH_UNIT()NAMED_UNIT(#112));
#47= (NAMED_UNIT(#114)PLANE_ANGLE_UNIT()SI_UNIT($,.RADIAN.));
#48= (NAMED_UNIT(#114)SOLID_ANGLE_UNIT()SI_UNIT($,.STERADIAN.));
#50=PRESENTATION_STYLE_ASSIGNMENT((#120));
#51=EDGE_CURVE('',#87,#101,#121,.T.);
#52=PRESENTATION_STYLE_ASSIGNMENT((#122));
#53=MANIFOLD_SOLID_BREP('1',#123);
#54=PRESENTATION_STYLE_ASSIGNMENT((#124));
#55=EDGE_CURVE('',#85,#87,#125,.T.);
#56=PRESENTATION_STYLE_ASSIGNMENT((#126));
#57=EDGE_CURVE('',#89,#85,#127,.T.);
#58=PRESENTATION_STYLE_ASSIGNMENT((#128));
#59=EDGE_CURVE('',#95,#83,#129,.T.);
#60=PRESENTATION_STYLE_ASSIGNMENT((#130));
#61=ADVANCED_FACE('',(#131,#132),#133,.T.);
#62=PRESENTATION_STYLE_ASSIGNMENT((#134));
#63=ADVANCED_FACE('',(#135),#136,.T.);
#64=PRESENTATION_STYLE_ASSIGNMENT((#137));
#65=EDGE_CURVE('',#101,#89,#138,.T.);
#66=PRESENTATION_STYLE_ASSIGNMENT((#139));
#67=EDGE_CURVE('',#103,#83,#140,.T.);
#68=PRESENTATION_STYLE_ASSIGNMENT((#141));
#69=EDGE_CURVE('',#85,#89,#142,.T.);
#70=PRESENTATION_STYLE_ASSIGNMENT((#143));
#71=EDGE_CURVE('',#101,#87,#144,.T.);
#72=PRESENTATION_STYLE_ASSIGNMENT((#145));
#73=EDGE_CURVE('',#75,#103,#146,.T.);
#74=PRESENTATION_STYLE_ASSIGNMENT((#147));
#75=VERTEX_POINT('',#148);
#76=PRESENTATION_STYLE_ASSIGNMENT((#149));
#77=ADVANCED_FACE('',(#150),#151,.T.);
#78=PRESENTATION_STYLE_ASSIGNMENT((#152));
#79=EDGE_CURVE('',#83,#95,#153,.T.);
#80=PRESENTATION_STYLE_ASSIGNMENT((#154));
#81=ADVANCED_FACE('',(#155),#156,.F.);
#82=PRESENTATION_STYLE_ASSIGNMENT((#157));
#83=VERTEX_POINT('',#158);
#84=PRESENTATION_STYLE_ASSIGNMENT((#159));
#85=VERTEX_POINT('',#160);
#86=PRESENTATION_STYLE_ASSIGNMENT((#161));
#87=VERTEX_POINT('',#162);
#88=PRESENTATION_STYLE_ASSIGNMENT((#163));
#89=VERTEX_POINT('',#164);
#90=PRESENTATION_STYLE_ASSIGNMENT((#165));
#91=EDGE_CURVE('',#95,#75,#166,.T.);
#92=PRESENTATION_STYLE_ASSIGNMENT((#167));
#93=EDGE_CURVE('',#103,#75,#168,.T.);
#94=PRESENTATION_STYLE_ASSIGNMENT((#169));
#95=VERTEX_POINT('',#170);
#96=PRESENTATION_STYLE_ASSIGNMENT((#171));
#97=ADVANCED_FACE('',(#172),#173,.F.);
#98=PRESENTATION_STYLE_ASSIGNMENT((#174));
#99=ADVANCED_FACE('',(#175,#176),#177,.T.);
#100=PRESENTATION_STYLE_ASSIGNMENT((#178));
#101=VERTEX_POINT('',#179);
#102=PRESENTATION_STYLE_ASSIGNMENT((#180));
#103=VERTEX_POINT('',#181);
#104=PRODUCT('1','1','PART-1-DESC',(#182));
#105=PRODUCT_DEFINITION('NONE','NONE',#183,#2);
#106=AXIS2_PLACEMENT_3D('',#184,#185,#186);
#109=LENGTH_MEASURE_WITH_UNIT(LENGTH_MEASURE(1.0),#187);
#112=DIMENSIONAL_EXPONENTS(1.0,0.0,0.0,0.0,0.0,0.0,0.0);
#114=DIMENSIONAL_EXPONENTS(0.0,0.0,0.0,0.0,0.0,0.0,0.0);
#120=CURVE_STYLE('',#188,POSITIVE_LENGTH_MEASURE(1.0E-006),#189);
#121=CIRCLE('',#190,10.5);
#122=SURFACE_STYLE_USAGE(.BOTH.,#191);
#123=CLOSED_SHELL('',(#97,#63,#61,#77,#99,#81));
#124=CURVE_STYLE('',#192,POSITIVE_LENGTH_MEASURE(1.0E-006),#193);
#125=LINE('',#194,#195);
#126=CURVE_STYLE('',#196,POSITIVE_LENGTH_MEASURE(1.0E-006),#197);
#127=CIRCLE('',#198,10.5);
#128=CURVE_STYLE('',#199,POSITIVE_LENGTH_MEASURE(1.0E-006),#200);
#129=CIRCLE('',#201,25.0);
#130=SURFACE_STYLE_USAGE(.BOTH.,#202);
#131=FACE_OUTER_BOUND('',#203,.T.);
#132=FACE_BOUND('',#204,.T.);
#133=PLANE('',#205);
#134=SURFACE_STYLE_USAGE(.BOTH.,#206);
#135=FACE_OUTER_BOUND('',#207,.T.);
#136=CYLINDRICAL_SURFACE('',#208,25.0);
#137=CURVE_STYLE('',#209,POSITIVE_LENGTH_MEASURE(1.0E-006),#210);
#138=LINE('',#211,#212);
#139=CURVE_STYLE('',#213,POSITIVE_LENGTH_MEASURE(1.0E-006),#214);
#140=LINE('',#215,#216);
#141=CURVE_STYLE('',#217,POSITIVE_LENGTH_MEASURE(1.0E-006),#218);
#142=CIRCLE('',#219,10.5);
#143=CURVE_STYLE('',#220,POSITIVE_LENGTH_MEASURE(1.0E-006),#221);
#144=CIRCLE('',#222,10.5);
#145=CURVE_STYLE('',#223,POSITIVE_LENGTH_MEASURE(1.0E-006),#224);
#146=CIRCLE('',#225,25.0);
#147=POINT_STYLE(' ',#226,POSITIVE_LENGTH_MEASURE(1.0E-006),#227);
#148=CARTESIAN_POINT('',(-25.0,1.16172259729075E-014,5.99999999999997));
#149=SURFACE_STYLE_USAGE(.BOTH.,#228);
#150=FACE_OUTER_BOUND('',#229,.T.);
#151=CYLINDRICAL_SURFACE('',#230,25.0);
#152=CURVE_STYLE('',#231,POSITIVE_LENGTH_MEASURE(1.0E-006),#232);
#153=CIRCLE('',#233,25.0);
#154=SURFACE_STYLE_USAGE(.BOTH.,#234);
#155=FACE_OUTER_BOUND('',#235,.T.);
#156=CYLINDRICAL_SURFACE('',#236,10.5);
#157=POINT_STYLE(' ',#237,POSITIVE_LENGTH_MEASURE(1.0E-006),#238);
#158=CARTESIAN_POINT('',(25.0,1.59197666836153E-014,-2.8421709430404E-014));
#159=POINT_STYLE(' ',#239,POSITIVE_LENGTH_MEASURE(1.0E-006),#240);
#160=CARTESIAN_POINT('',(10.5,1.55523847774686E-014,5.99999999999997));
#161=POINT_STYLE(' ',#241,POSITIVE_LENGTH_MEASURE(1.0E-006),#242);
#162=CARTESIAN_POINT('',(10.5,1.59197666836153E-014,-2.8421709430404E-014));
#163=POINT_STYLE(' ',#243,POSITIVE_LENGTH_MEASURE(1.0E-006),#244);
#164=CARTESIAN_POINT('',(-10.5,1.3899618079553E-014,5.99999999999997));
#165=CURVE_STYLE('',#245,POSITIVE_LENGTH_MEASURE(1.0E-006),#246);
#166=LINE('',#247,#248);
#167=CURVE_STYLE('',#249,POSITIVE_LENGTH_MEASURE(1.0E-006),#250);
#168=CIRCLE('',#251,25.0);
#169=POINT_STYLE(' ',#252,POSITIVE_LENGTH_MEASURE(1.0E-006),#253);
#170=CARTESIAN_POINT('',(-25.0,1.16172259729075E-014,-2.8421709430404E-014));
#171=SURFACE_STYLE_USAGE(.BOTH.,#254);
#172=FACE_OUTER_BOUND('',#255,.T.);
#173=CYLINDRICAL_SURFACE('',#256,10.5);
#174=SURFACE_STYLE_USAGE(.BOTH.,#257);
#175=FACE_BOUND('',#258,.T.);
#176=FACE_OUTER_BOUND('',#259,.T.);
#177=PLANE('',#260);
#178=POINT_STYLE(' ',#261,POSITIVE_LENGTH_MEASURE(1.0E-006),#262);
#179=CARTESIAN_POINT('',(-10.5,1.3899618079553E-014,-2.8421709430404E-014));
#180=POINT_STYLE(' ',#263,POSITIVE_LENGTH_MEASURE(1.0E-006),#264);
#181=CARTESIAN_POINT('',(25.0,1.55523847774686E-014,5.99999999999997));
#182=PRODUCT_CONTEXT('',#37,'mechanical');
#183=PRODUCT_DEFINITION_FORMATION_WITH_SPECIFIED_SOURCE(' ','NONE',#104,.NOT_KNOWN.);
#184=CARTESIAN_POINT('',(0.0,0.0,0.0));
#185=DIRECTION('',(0.0,0.0,1.0));
#186=DIRECTION('',(1.0,0.0,0.0));
#187= (NAMED_UNIT(#112)LENGTH_UNIT()SI_UNIT(.MILLI.,.METRE.));
#188=DRAUGHTING_PRE_DEFINED_CURVE_FONT('continuous');
#189=COLOUR_RGB('',0.509803950786591,0.509803950786591,0.588235318660736);
#190=AXIS2_PLACEMENT_3D('',#266,#267,#268);
#191=SURFACE_SIDE_STYLE('',(#269));
#192=DRAUGHTING_PRE_DEFINED_CURVE_FONT('continuous');
#193=COLOUR_RGB('',0.509803950786591,0.509803950786591,0.588235318660736);
#194=CARTESIAN_POINT('',(10.5,1.72051514753843E-014,2.99999999999997));
#195=VECTOR('',#270,1.0);
#196=DRAUGHTING_PRE_DEFINED_CURVE_FONT('continuous');
#197=COLOUR_RGB('',0.509803950786591,0.509803950786591,0.588235318660736);
#198=AXIS2_PLACEMENT_3D('',#271,#272,#273);
#199=DRAUGHTING_PRE_DEFINED_CURVE_FONT('continuous');
#200=COLOUR_RGB('',0.509803950786591,0.509803950786591,0.588235318660736);
#201=AXIS2_PLACEMENT_3D('',#274,#275,#276);
#202=SURFACE_SIDE_STYLE('',(#277));
#203=EDGE_LOOP('',(#278,#279));
#204=EDGE_LOOP('',(#280,#281));
#205=AXIS2_PLACEMENT_3D('',#282,#283,#284);
#206=SURFACE_SIDE_STYLE('',(#285));
#207=EDGE_LOOP('',(#286,#287,#288,#289));
#208=AXIS2_PLACEMENT_3D('',#290,#291,#292);
#209=DRAUGHTING_PRE_DEFINED_CURVE_FONT('continuous');
#210=COLOUR_RGB('',0.509803950786591,0.509803950786591,0.588235318660736);
#211=CARTESIAN_POINT('',(-10.5,1.3899618079553E-014,2.99999999999997));
#212=VECTOR('',#293,1.0);
#213=DRAUGHTING_PRE_DEFINED_CURVE_FONT('continuous');
#214=COLOUR_RGB('',0.509803950786591,0.509803950786591,0.588235318660736);
#215=CARTESIAN_POINT('',(25.0,1.94875435820297E-014,2.99999999999997));
#216=VECTOR('',#294,1.0);
#217=DRAUGHTING_PRE_DEFINED_CURVE_FONT('continuous');
#218=COLOUR_RGB('',0.509803950786591,0.509803950786591,0.588235318660736);
#219=AXIS2_PLACEMENT_3D('',#295,#296,#297);
#220=DRAUGHTING_PRE_DEFINED_CURVE_FONT('continuous');
#221=COLOUR_RGB('',0.509803950786591,0.509803950786591,0.588235318660736);
#222=AXIS2_PLACEMENT_3D('',#298,#299,#300);
#223=DRAUGHTING_PRE_DEFINED_CURVE_FONT('continuous');
#224=COLOUR_RGB('',0.509803950786591,0.509803950786591,0.588235318660736);
#225=AXIS2_PLACEMENT_3D('',#301,#302,#303);
#226=PRE_DEFINED_MARKER('');
#227=COLOUR_RGB('',0.509803950786591,0.509803950786591,0.588235318660736);
#228=SURFACE_SIDE_STYLE('',(#304));
#229=EDGE_LOOP('',(#305,#306,#307,#308));
#230=AXIS2_PLACEMENT_3D('',#309,#310,#311);
#231=DRAUGHTING_PRE_DEFINED_CURVE_FONT('continuous');
#232=COLOUR_RGB('',0.509803950786591,0.509803950786591,0.588235318660736);
#233=AXIS2_PLACEMENT_3D('',#312,#313,#314);
#234=SURFACE_SIDE_STYLE('',(#315));
#235=EDGE_LOOP('',(#316,#317,#318,#319));
#236=AXIS2_PLACEMENT_3D('',#320,#321,#322);
#237=PRE_DEFINED_MARKER('');
#238=COLOUR_RGB('',0.509803950786591,0.509803950786591,0.588235318660736);
#239=PRE_DEFINED_MARKER('');
#240=COLOUR_RGB('',0.509803950786591,0.509803950786591,0.588235318660736);
#241=PRE_DEFINED_MARKER('');
#242=COLOUR_RGB('',0.509803950786591,0.509803950786591,0.588235318660736);
#243=PRE_DEFINED_MARKER('');
#244=COLOUR_RGB('',0.509803950786591,0.509803950786591,0.588235318660736);
#245=DRAUGHTING_PRE_DEFINED_CURVE_FONT('continuous');
#246=COLOUR_RGB('',0.509803950786591,0.509803950786591,0.588235318660736);
#247=CARTESIAN_POINT('',(-25.0,1.16172259729075E-014,2.99999999999997));
#248=VECTOR('',#323,1.0);
#249=DRAUGHTING_PRE_DEFINED_CURVE_FONT('continuous');
#250=COLOUR_RGB('',0.509803950786591,0.509803950786591,0.588235318660736);
#251=AXIS2_PLACEMENT_3D('',#324,#325,#326);
#252=PRE_DEFINED_MARKER('');
#253=COLOUR_RGB('',0.509803950786591,0.509803950786591,0.588235318660736);
#254=SURFACE_SIDE_STYLE('',(#327));
#255=EDGE_LOOP('',(#328,#329,#330,#331));
#256=AXIS2_PLACEMENT_3D('',#332,#333,#334);
#257=SURFACE_SIDE_STYLE('',(#335));
#258=EDGE_LOOP('',(#336,#337));
#259=EDGE_LOOP('',(#338,#339));
#260=AXIS2_PLACEMENT_3D('',#340,#341,#342);
#261=PRE_DEFINED_MARKER('');
#262=COLOUR_RGB('',0.509803950786591,0.509803950786591,0.588235318660736);
#263=PRE_DEFINED_MARKER('');
#264=COLOUR_RGB('',0.509803950786591,0.509803950786591,0.588235318660736);
#266=CARTESIAN_POINT('',(-2.8421709430404E-014,1.55523847774686E-014,-2.8421709430404E-014));
#267=DIRECTION('',(0.0,0.0,-1.0));
#268=DIRECTION('',(1.0,3.49457168002049E-017,0.0));
#269=SURFACE_STYLE_FILL_AREA(#343);
#270=DIRECTION('',(-0.0,-0.0,-1.0));
#271=CARTESIAN_POINT('',(-2.8421709430404E-014,1.55523847774686E-014,5.99999999999997));
#272=DIRECTION('',(0.0,0.0,-1.0));
#273=DIRECTION('',(1.0,3.49457168002049E-017,0.0));
#274=CARTESIAN_POINT('',(-2.8421709430404E-014,1.55523847774686E-014,-2.8421709430404E-014));
#275=DIRECTION('',(0.0,0.0,-1.0));
#276=DIRECTION('',(1.0,3.49457168002049E-017,0.0));
#277=SURFACE_STYLE_FILL_AREA(#344);
#278=ORIENTED_EDGE('',*,*,#93,.F.);
#279=ORIENTED_EDGE('',*,*,#73,.F.);
#280=ORIENTED_EDGE('',*,*,#69,.T.);
#281=ORIENTED_EDGE('',*,*,#57,.T.);
#282=CARTESIAN_POINT('',(17.75,1.55523847774686E-014,5.99999999999997));
#283=DIRECTION('',(0.0,0.0,1.0));
#284=DIRECTION('',(1.0,0.0,0.0));
#285=SURFACE_STYLE_FILL_AREA(#345);
#286=ORIENTED_EDGE('',*,*,#67,.F.);
#287=ORIENTED_EDGE('',*,*,#93,.T.);
#288=ORIENTED_EDGE('',*,*,#91,.F.);
#289=ORIENTED_EDGE('',*,*,#79,.F.);
#290=CARTESIAN_POINT('',(-2.8421709430404E-014,1.55523847774686E-014,2.99999999999997));
#291=DIRECTION('',(-0.0,-0.0,1.0));
#292=DIRECTION('',(1.0,3.49457168002049E-017,0.0));
#293=DIRECTION('',(-0.0,-0.0,1.0));
#294=DIRECTION('',(0.0,0.0,-1.0));
#295=CARTESIAN_POINT('',(-2.8421709430404E-014,1.55523847774686E-014,5.99999999999997));
#296=DIRECTION('',(0.0,0.0,-1.0));
#297=DIRECTION('',(1.0,3.49457168002049E-017,0.0));
#298=CARTESIAN_POINT('',(-2.8421709430404E-014,1.55523847774686E-014,-2.8421709430404E-014));
#299=DIRECTION('',(0.0,0.0,-1.0));
#300=DIRECTION('',(1.0,3.49457168002049E-017,0.0));
#301=CARTESIAN_POINT('',(-2.8421709430404E-014,1.55523847774686E-014,5.99999999999997));
#302=DIRECTION('',(0.0,0.0,-1.0));
#303=DIRECTION('',(1.0,3.49457168002049E-017,0.0));
#304=SURFACE_STYLE_FILL_AREA(#346);
#305=ORIENTED_EDGE('',*,*,#67,.T.);
#306=ORIENTED_EDGE('',*,*,#59,.F.);
#307=ORIENTED_EDGE('',*,*,#91,.T.);
#308=ORIENTED_EDGE('',*,*,#73,.T.);
#309=CARTESIAN_POINT('',(-2.8421709430404E-014,1.55523847774686E-014,2.99999999999997));
#310=DIRECTION('',(-0.0,-0.0,1.0));
#311=DIRECTION('',(1.0,3.49457168002049E-017,0.0));
#312=CARTESIAN_POINT('',(-2.8421709430404E-014,1.55523847774686E-014,-2.8421709430404E-014));
#313=DIRECTION('',(0.0,0.0,-1.0));
#314=DIRECTION('',(1.0,3.49457168002049E-017,0.0));
#315=SURFACE_STYLE_FILL_AREA(#347);
#316=ORIENTED_EDGE('',*,*,#55,.T.);
#317=ORIENTED_EDGE('',*,*,#51,.T.);
#318=ORIENTED_EDGE('',*,*,#65,.T.);
#319=ORIENTED_EDGE('',*,*,#69,.F.);
#320=CARTESIAN_POINT('',(-2.8421709430404E-014,1.55523847774686E-014,2.99999999999997));
#321=DIRECTION('',(-0.0,-0.0,1.0));
#322=DIRECTION('',(1.0,3.49457168002049E-017,0.0));
#323=DIRECTION('',(-0.0,-0.0,1.0));
#324=CARTESIAN_POINT('',(-2.8421709430404E-014,1.55523847774686E-014,5.99999999999997));
#325=DIRECTION('',(0.0,0.0,-1.0));
#326=DIRECTION('',(1.0,3.49457168002049E-017,0.0));
#327=SURFACE_STYLE_FILL_AREA(#348);
#328=ORIENTED_EDGE('',*,*,#55,.F.);
#329=ORIENTED_EDGE('',*,*,#57,.F.);
#330=ORIENTED_EDGE('',*,*,#65,.F.);
#331=ORIENTED_EDGE('',*,*,#71,.T.);
#332=CARTESIAN_POINT('',(-2.8421709430404E-014,1.55523847774686E-014,2.99999999999997));
#333=DIRECTION('',(-0.0,-0.0,1.0));
#334=DIRECTION('',(1.0,3.49457168002049E-017,0.0));
#335=SURFACE_STYLE_FILL_AREA(#349);
#336=ORIENTED_EDGE('',*,*,#51,.F.);
#337=ORIENTED_EDGE('',*,*,#71,.F.);
#338=ORIENTED_EDGE('',*,*,#79,.T.);
#339=ORIENTED_EDGE('',*,*,#59,.T.);
#340=CARTESIAN_POINT('',(17.75,1.59197666836153E-014,-2.8421709430404E-014));
#341=DIRECTION('',(0.0,0.0,-1.0));
#342=DIRECTION('',(-1.0,0.0,0.0));
#343=FILL_AREA_STYLE('',(#350));
#344=FILL_AREA_STYLE('',(#351));
#345=FILL_AREA_STYLE('',(#352));
#346=FILL_AREA_STYLE('',(#353));
#347=FILL_AREA_STYLE('',(#354));
#348=FILL_AREA_STYLE('',(#355));
#349=FILL_AREA_STYLE('',(#356));
#350=FILL_AREA_STYLE_COLOUR('',#357);
#351=FILL_AREA_STYLE_COLOUR('',#358);
#352=FILL_AREA_STYLE_COLOUR('',#359);
#353=FILL_AREA_STYLE_COLOUR('',#360);
#354=FILL_AREA_STYLE_COLOUR('',#361);
#355=FILL_AREA_STYLE_COLOUR('',#362);
#356=FILL_AREA_STYLE_COLOUR('',#363);
#357=COLOUR_RGB('',0.509803950786591,0.509803950786591,0.588235318660736);
#358=COLOUR_RGB('',0.509803950786591,0.509803950786591,0.588235318660736);
#359=COLOUR_RGB('',0.509803950786591,0.509803950786591,0.588235318660736);
#360=COLOUR_RGB('',0.509803950786591,0.509803950786591,0.588235318660736);
#361=COLOUR_RGB('',0.509803950786591,0.509803950786591,0.588235318660736);
#362=COLOUR_RGB('',0.509803950786591,0.509803950786591,0.588235318660736);
#363=COLOUR_RGB('',0.509803950786591,0.509803950786591,0.588235318660736);
ENDSEC;
END-ISO-10303-21;
