ISO-10303-21;
HEADER;
FILE_DESCRIPTION(('STEP AP214'),'1');
FILE_NAME(' ','  ',('TraceParts'),('TraceParts S.A.'),'XStep 1.0',' ',' ');
FILE_SCHEMA(('automotive_design'));
ENDSEC;
DATA;
#1=MECHANICAL_DESIGN_GEOMETRIC_PRESENTATION_REPRESENTATION(' ',(#10,#11,#12,#13,#14,#15,#16,#17,#18,#19,#20,#21,#22,#23,#24,#25,#26,#27,#28,#29,#30,#31,#32,#33,#34,#35,#36),#6);
#2=PRODUCT_DEFINITION_CONTEXT('',#37,'design');
#3=APPLICATION_PROTOCOL_DEFINITION('INTERNATIONAL STANDARD','automotive_design',1994,#37);
#4=PRODUCT_CATEGORY_RELATIONSHIP('NONE','NONE',#38,#39);
#5=SHAPE_DEFINITION_REPRESENTATION(#40,#41);
#6= (GEOMETRIC_REPRESENTATION_CONTEXT(3)GLOBAL_UNCERTAINTY_ASSIGNED_CONTEXT((#44))GLOBAL_UNIT_ASSIGNED_CONTEXT((#46,#47,#48))REPRESENTATION_CONTEXT('NONE','WORKSPACE'));
#10=STYLED_ITEM('',(#50),#51);
#11=STYLED_ITEM('',(#52),#53);
#12=STYLED_ITEM('',(#54),#55);
#13=STYLED_ITEM('',(#56),#57);
#14=STYLED_ITEM('',(#58),#59);
#15=STYLED_ITEM('',(#60),#61);
#16=STYLED_ITEM('',(#62),#63);
#17=STYLED_ITEM('',(#64),#65);
#18=STYLED_ITEM('',(#66),#67);
#19=STYLED_ITEM('',(#68),#69);
#20=STYLED_ITEM('',(#70),#71);
#21=STYLED_ITEM('',(#72),#73);
#22=STYLED_ITEM('',(#74),#75);
#23=STYLED_ITEM('',(#76),#77);
#24=STYLED_ITEM('',(#78),#79);
#25=STYLED_ITEM('',(#80),#81);
#26=STYLED_ITEM('',(#82),#83);
#27=STYLED_ITEM('',(#84),#85);
#28=STYLED_ITEM('',(#86),#87);
#29=STYLED_ITEM('',(#88),#89);
#30=STYLED_ITEM('',(#90),#91);
#31=STYLED_ITEM('',(#92),#93);
#32=STYLED_ITEM('',(#94),#95);
#33=STYLED_ITEM('',(#96),#97);
#34=STYLED_ITEM('',(#98),#99);
#35=STYLED_ITEM('',(#100),#101);
#36=STYLED_ITEM('',(#102),#103);
#37=APPLICATION_CONTEXT(' ');
#38=PRODUCT_CATEGORY('part','NONE');
#39=PRODUCT_RELATED_PRODUCT_CATEGORY('detail',' ',(#104));
#40=PRODUCT_DEFINITION_SHAPE('NONE','NONE',#105);
#41=ADVANCED_BREP_SHAPE_REPRESENTATION('1',(#57,#106),#6);
#44=UNCERTAINTY_MEASURE_WITH_UNIT(LENGTH_MEASURE(1.0E-006),#46,'','');
#46= (CONVERSION_BASED_UNIT('MILLIMETRE',#109)LENGTH_UNIT()NAMED_UNIT(#112));
#47= (NAMED_UNIT(#114)PLANE_ANGLE_UNIT()SI_UNIT($,.RADIAN.));
#48= (NAMED_UNIT(#114)SOLID_ANGLE_UNIT()SI_UNIT($,.STERADIAN.));
#50=PRESENTATION_STYLE_ASSIGNMENT((#120));
#51=VERTEX_POINT('',#121);
#52=PRESENTATION_STYLE_ASSIGNMENT((#122));
#53=VERTEX_POINT('',#123);
#54=PRESENTATION_STYLE_ASSIGNMENT((#124));
#55=EDGE_CURVE('',#53,#93,#125,.T.);
#56=PRESENTATION_STYLE_ASSIGNMENT((#126));
#57=MANIFOLD_SOLID_BREP('1',#127);
#58=PRESENTATION_STYLE_ASSIGNMENT((#128));
#59=VERTEX_POINT('',#129);
#60=PRESENTATION_STYLE_ASSIGNMENT((#130));
#61=ADVANCED_FACE('',(#131),#132,.F.);
#62=PRESENTATION_STYLE_ASSIGNMENT((#133));
#63=ADVANCED_FACE('',(#134),#135,.F.);
#64=PRESENTATION_STYLE_ASSIGNMENT((#136));
#65=EDGE_CURVE('',#51,#103,#137,.T.);
#66=PRESENTATION_STYLE_ASSIGNMENT((#138));
#67=EDGE_CURVE('',#101,#59,#139,.T.);
#68=PRESENTATION_STYLE_ASSIGNMENT((#140));
#69=ADVANCED_FACE('',(#141),#142,.T.);
#70=PRESENTATION_STYLE_ASSIGNMENT((#143));
#71=ADVANCED_FACE('',(#144,#145),#146,.T.);
#72=PRESENTATION_STYLE_ASSIGNMENT((#147));
#73=EDGE_CURVE('',#95,#89,#148,.T.);
#74=PRESENTATION_STYLE_ASSIGNMENT((#149));
#75=ADVANCED_FACE('',(#150),#151,.T.);
#76=PRESENTATION_STYLE_ASSIGNMENT((#152));
#77=ADVANCED_FACE('',(#153,#154),#155,.T.);
#78=PRESENTATION_STYLE_ASSIGNMENT((#156));
#79=EDGE_CURVE('',#93,#53,#157,.T.);
#80=PRESENTATION_STYLE_ASSIGNMENT((#158));
#81=EDGE_CURVE('',#89,#95,#159,.T.);
#82=PRESENTATION_STYLE_ASSIGNMENT((#160));
#83=EDGE_CURVE('',#95,#53,#161,.T.);
#84=PRESENTATION_STYLE_ASSIGNMENT((#162));
#85=EDGE_CURVE('',#103,#51,#163,.T.);
#86=PRESENTATION_STYLE_ASSIGNMENT((#164));
#87=EDGE_CURVE('',#93,#89,#165,.T.);
#88=PRESENTATION_STYLE_ASSIGNMENT((#166));
#89=VERTEX_POINT('',#167);
#90=PRESENTATION_STYLE_ASSIGNMENT((#168));
#91=EDGE_CURVE('',#59,#101,#169,.T.);
#92=PRESENTATION_STYLE_ASSIGNMENT((#170));
#93=VERTEX_POINT('',#171);
#94=PRESENTATION_STYLE_ASSIGNMENT((#172));
#95=VERTEX_POINT('',#173);
#96=PRESENTATION_STYLE_ASSIGNMENT((#174));
#97=EDGE_CURVE('',#51,#59,#175,.T.);
#98=PRESENTATION_STYLE_ASSIGNMENT((#176));
#99=EDGE_CURVE('',#101,#103,#177,.T.);
#100=PRESENTATION_STYLE_ASSIGNMENT((#178));
#101=VERTEX_POINT('',#179);
#102=PRESENTATION_STYLE_ASSIGNMENT((#180));
#103=VERTEX_POINT('',#181);
#104=PRODUCT('1','1','PART-1-DESC',(#182));
#105=PRODUCT_DEFINITION('NONE','NONE',#183,#2);
#106=AXIS2_PLACEMENT_3D('',#184,#185,#186);
#109=LENGTH_MEASURE_WITH_UNIT(LENGTH_MEASURE(1.0),#187);
#112=DIMENSIONAL_EXPONENTS(1.0,0.0,0.0,0.0,0.0,0.0,0.0);
#114=DIMENSIONAL_EXPONENTS(0.0,0.0,0.0,0.0,0.0,0.0,0.0);
#120=POINT_STYLE(' ',#188,POSITIVE_LENGTH_MEASURE(1.0E-006),#189);
#121=CARTESIAN_POINT('',(22.5,1.55523847774686E-014,5.99999999999997));
#122=POINT_STYLE(' ',#190,POSITIVE_LENGTH_MEASURE(1.0E-006),#191);
#123=CARTESIAN_POINT('',(9.49999999999997,1.59197666836153E-014,-2.8421709430404E-014));
#124=CURVE_STYLE('',#192,POSITIVE_LENGTH_MEASURE(1.0E-006),#193);
#125=CIRCLE('',#194,9.5);
#126=SURFACE_STYLE_USAGE(.BOTH.,#195);
#127=CLOSED_SHELL('',(#61,#69,#71,#75,#77,#63));
#128=POINT_STYLE(' ',#196,POSITIVE_LENGTH_MEASURE(1.0E-006),#197);
#129=CARTESIAN_POINT('',(22.5,1.59197666836153E-014,-2.8421709430404E-014));
#130=SURFACE_STYLE_USAGE(.BOTH.,#198);
#131=FACE_OUTER_BOUND('',#199,.T.);
#132=CYLINDRICAL_SURFACE('',#200,9.5);
#133=SURFACE_STYLE_USAGE(.BOTH.,#201);
#134=FACE_OUTER_BOUND('',#202,.T.);
#135=CYLINDRICAL_SURFACE('',#203,9.5);
#136=CURVE_STYLE('',#204,POSITIVE_LENGTH_MEASURE(1.0E-006),#205);
#137=CIRCLE('',#206,22.5);
#138=CURVE_STYLE('',#207,POSITIVE_LENGTH_MEASURE(1.0E-006),#208);
#139=CIRCLE('',#209,22.5);
#140=SURFACE_STYLE_USAGE(.BOTH.,#210);
#141=FACE_OUTER_BOUND('',#211,.T.);
#142=CYLINDRICAL_SURFACE('',#212,22.5);
#143=SURFACE_STYLE_USAGE(.BOTH.,#213);
#144=FACE_OUTER_BOUND('',#214,.T.);
#145=FACE_BOUND('',#215,.T.);
#146=PLANE('',#216);
#147=CURVE_STYLE('',#217,POSITIVE_LENGTH_MEASURE(1.0E-006),#218);
#148=CIRCLE('',#219,9.5);
#149=SURFACE_STYLE_USAGE(.BOTH.,#220);
#150=FACE_OUTER_BOUND('',#221,.T.);
#151=CYLINDRICAL_SURFACE('',#222,22.5);
#152=SURFACE_STYLE_USAGE(.BOTH.,#223);
#153=FACE_BOUND('',#224,.T.);
#154=FACE_OUTER_BOUND('',#225,.T.);
#155=PLANE('',#226);
#156=CURVE_STYLE('',#227,POSITIVE_LENGTH_MEASURE(1.0E-006),#228);
#157=CIRCLE('',#229,9.5);
#158=CURVE_STYLE('',#230,POSITIVE_LENGTH_MEASURE(1.0E-006),#231);
#159=CIRCLE('',#232,9.5);
#160=CURVE_STYLE('',#233,POSITIVE_LENGTH_MEASURE(1.0E-006),#234);
#161=LINE('',#235,#236);
#162=CURVE_STYLE('',#237,POSITIVE_LENGTH_MEASURE(1.0E-006),#238);
#163=CIRCLE('',#239,22.5);
#164=CURVE_STYLE('',#240,POSITIVE_LENGTH_MEASURE(1.0E-006),#241);
#165=LINE('',#242,#243);
#166=POINT_STYLE(' ',#244,POSITIVE_LENGTH_MEASURE(1.0E-006),#245);
#167=CARTESIAN_POINT('',(-9.50000000000003,1.40220787149352E-014,5.99999999999997));
#168=CURVE_STYLE('',#246,POSITIVE_LENGTH_MEASURE(1.0E-006),#247);
#169=CIRCLE('',#248,22.5);
#170=POINT_STYLE(' ',#249,POSITIVE_LENGTH_MEASURE(1.0E-006),#250);
#171=CARTESIAN_POINT('',(-9.50000000000003,1.40220787149352E-014,-2.8421709430404E-014));
#172=POINT_STYLE(' ',#251,POSITIVE_LENGTH_MEASURE(1.0E-006),#252);
#173=CARTESIAN_POINT('',(9.49999999999997,1.55523847774686E-014,5.99999999999997));
#174=CURVE_STYLE('',#253,POSITIVE_LENGTH_MEASURE(1.0E-006),#254);
#175=LINE('',#255,#256);
#176=CURVE_STYLE('',#257,POSITIVE_LENGTH_MEASURE(1.0E-006),#258);
#177=LINE('',#259,#260);
#178=POINT_STYLE(' ',#261,POSITIVE_LENGTH_MEASURE(1.0E-006),#262);
#179=CARTESIAN_POINT('',(-22.5,1.19279756819947E-014,-2.8421709430404E-014));
#180=POINT_STYLE(' ',#263,POSITIVE_LENGTH_MEASURE(1.0E-006),#264);
#181=CARTESIAN_POINT('',(-22.5,1.19279756819947E-014,5.99999999999997));
#182=PRODUCT_CONTEXT('',#37,'mechanical');
#183=PRODUCT_DEFINITION_FORMATION_WITH_SPECIFIED_SOURCE(' ','NONE',#104,.NOT_KNOWN.);
#184=CARTESIAN_POINT('',(0.0,0.0,0.0));
#185=DIRECTION('',(0.0,0.0,1.0));
#186=DIRECTION('',(1.0,0.0,0.0));
#187= (NAMED_UNIT(#112)LENGTH_UNIT()SI_UNIT(.MILLI.,.METRE.));
#188=PRE_DEFINED_MARKER('');
#189=COLOUR_RGB('',0.509803950786591,0.509803950786591,0.588235318660736);
#190=PRE_DEFINED_MARKER('');
#191=COLOUR_RGB('',0.509803950786591,0.509803950786591,0.588235318660736);
#192=DRAUGHTING_PRE_DEFINED_CURVE_FONT('continuous');
#193=COLOUR_RGB('',0.509803950786591,0.509803950786591,0.588235318660736);
#194=AXIS2_PLACEMENT_3D('',#266,#267,#268);
#195=SURFACE_SIDE_STYLE('',(#269));
#196=PRE_DEFINED_MARKER('');
#197=COLOUR_RGB('',0.509803950786591,0.509803950786591,0.588235318660736);
#198=SURFACE_SIDE_STYLE('',(#270));
#199=EDGE_LOOP('',(#271,#272,#273,#274));
#200=AXIS2_PLACEMENT_3D('',#275,#276,#277);
#201=SURFACE_SIDE_STYLE('',(#278));
#202=EDGE_LOOP('',(#279,#280,#281,#282));
#203=AXIS2_PLACEMENT_3D('',#283,#284,#285);
#204=DRAUGHTING_PRE_DEFINED_CURVE_FONT('continuous');
#205=COLOUR_RGB('',0.509803950786591,0.509803950786591,0.588235318660736);
#206=AXIS2_PLACEMENT_3D('',#286,#287,#288);
#207=DRAUGHTING_PRE_DEFINED_CURVE_FONT('continuous');
#208=COLOUR_RGB('',0.509803950786591,0.509803950786591,0.588235318660736);
#209=AXIS2_PLACEMENT_3D('',#289,#290,#291);
#210=SURFACE_SIDE_STYLE('',(#292));
#211=EDGE_LOOP('',(#293,#294,#295,#296));
#212=AXIS2_PLACEMENT_3D('',#297,#298,#299);
#213=SURFACE_SIDE_STYLE('',(#300));
#214=EDGE_LOOP('',(#301,#302));
#215=EDGE_LOOP('',(#303,#304));
#216=AXIS2_PLACEMENT_3D('',#305,#306,#307);
#217=DRAUGHTING_PRE_DEFINED_CURVE_FONT('continuous');
#218=COLOUR_RGB('',0.509803950786591,0.509803950786591,0.588235318660736);
#219=AXIS2_PLACEMENT_3D('',#308,#309,#310);
#220=SURFACE_SIDE_STYLE('',(#311));
#221=EDGE_LOOP('',(#312,#313,#314,#315));
#222=AXIS2_PLACEMENT_3D('',#316,#317,#318);
#223=SURFACE_SIDE_STYLE('',(#319));
#224=EDGE_LOOP('',(#320,#321));
#225=EDGE_LOOP('',(#322,#323));
#226=AXIS2_PLACEMENT_3D('',#324,#325,#326);
#227=DRAUGHTING_PRE_DEFINED_CURVE_FONT('continuous');
#228=COLOUR_RGB('',0.509803950786591,0.509803950786591,0.588235318660736);
#229=AXIS2_PLACEMENT_3D('',#327,#328,#329);
#230=DRAUGHTING_PRE_DEFINED_CURVE_FONT('continuous');
#231=COLOUR_RGB('',0.509803950786591,0.509803950786591,0.588235318660736);
#232=AXIS2_PLACEMENT_3D('',#330,#331,#332);
#233=DRAUGHTING_PRE_DEFINED_CURVE_FONT('continuous');
#234=COLOUR_RGB('',0.509803950786591,0.509803950786591,0.588235318660736);
#235=CARTESIAN_POINT('',(9.49999999999997,1.7082690840002E-014,2.99999999999997));
#236=VECTOR('',#333,1.0);
#237=DRAUGHTING_PRE_DEFINED_CURVE_FONT('continuous');
#238=COLOUR_RGB('',0.509803950786591,0.509803950786591,0.588235318660736);
#239=AXIS2_PLACEMENT_3D('',#334,#335,#336);
#240=DRAUGHTING_PRE_DEFINED_CURVE_FONT('continuous');
#241=COLOUR_RGB('',0.509803950786591,0.509803950786591,0.588235318660736);
#242=CARTESIAN_POINT('',(-9.50000000000003,1.40220787149352E-014,2.99999999999997));
#243=VECTOR('',#337,1.0);
#244=PRE_DEFINED_MARKER('');
#245=COLOUR_RGB('',0.509803950786591,0.509803950786591,0.588235318660736);
#246=DRAUGHTING_PRE_DEFINED_CURVE_FONT('continuous');
#247=COLOUR_RGB('',0.509803950786591,0.509803950786591,0.588235318660736);
#248=AXIS2_PLACEMENT_3D('',#338,#339,#340);
#249=PRE_DEFINED_MARKER('');
#250=COLOUR_RGB('',0.509803950786591,0.509803950786591,0.588235318660736);
#251=PRE_DEFINED_MARKER('');
#252=COLOUR_RGB('',0.509803950786591,0.509803950786591,0.588235318660736);
#253=DRAUGHTING_PRE_DEFINED_CURVE_FONT('continuous');
#254=COLOUR_RGB('',0.509803950786591,0.509803950786591,0.588235318660736);
#255=CARTESIAN_POINT('',(22.5,1.91767938729425E-014,2.99999999999997));
#256=VECTOR('',#341,1.0);
#257=DRAUGHTING_PRE_DEFINED_CURVE_FONT('continuous');
#258=COLOUR_RGB('',0.509803950786591,0.509803950786591,0.588235318660736);
#259=CARTESIAN_POINT('',(-22.5,1.19279756819947E-014,2.99999999999997));
#260=VECTOR('',#342,1.0);
#261=PRE_DEFINED_MARKER('');
#262=COLOUR_RGB('',0.509803950786591,0.509803950786591,0.588235318660736);
#263=PRE_DEFINED_MARKER('');
#264=COLOUR_RGB('',0.509803950786591,0.509803950786591,0.588235318660736);
#266=CARTESIAN_POINT('',(-2.8421709430404E-014,1.55523847774686E-014,-2.8421709430404E-014));
#267=DIRECTION('',(0.0,0.0,-1.0));
#268=DIRECTION('',(1.0,3.86242133054897E-017,0.0));
#269=SURFACE_STYLE_FILL_AREA(#343);
#270=SURFACE_STYLE_FILL_AREA(#344);
#271=ORIENTED_EDGE('',*,*,#83,.F.);
#272=ORIENTED_EDGE('',*,*,#81,.F.);
#273=ORIENTED_EDGE('',*,*,#87,.F.);
#274=ORIENTED_EDGE('',*,*,#79,.T.);
#275=CARTESIAN_POINT('',(-2.8421709430404E-014,1.55523847774686E-014,2.99999999999997));
#276=DIRECTION('',(-0.0,-0.0,1.0));
#277=DIRECTION('',(1.0,3.86242133054897E-017,0.0));
#278=SURFACE_STYLE_FILL_AREA(#345);
#279=ORIENTED_EDGE('',*,*,#83,.T.);
#280=ORIENTED_EDGE('',*,*,#55,.T.);
#281=ORIENTED_EDGE('',*,*,#87,.T.);
#282=ORIENTED_EDGE('',*,*,#73,.F.);
#283=CARTESIAN_POINT('',(-2.8421709430404E-014,1.55523847774686E-014,2.99999999999997));
#284=DIRECTION('',(-0.0,-0.0,1.0));
#285=DIRECTION('',(1.0,3.86242133054897E-017,0.0));
#286=CARTESIAN_POINT('',(-2.8421709430404E-014,1.55523847774686E-014,5.99999999999997));
#287=DIRECTION('',(0.0,0.0,-1.0));
#288=DIRECTION('',(1.0,3.86242133054897E-017,0.0));
#289=CARTESIAN_POINT('',(-2.8421709430404E-014,1.55523847774686E-014,-2.8421709430404E-014));
#290=DIRECTION('',(0.0,0.0,-1.0));
#291=DIRECTION('',(1.0,3.86242133054897E-017,0.0));
#292=SURFACE_STYLE_FILL_AREA(#346);
#293=ORIENTED_EDGE('',*,*,#97,.F.);
#294=ORIENTED_EDGE('',*,*,#65,.T.);
#295=ORIENTED_EDGE('',*,*,#99,.F.);
#296=ORIENTED_EDGE('',*,*,#91,.F.);
#297=CARTESIAN_POINT('',(-2.8421709430404E-014,1.55523847774686E-014,2.99999999999997));
#298=DIRECTION('',(-0.0,-0.0,1.0));
#299=DIRECTION('',(1.0,3.86242133054897E-017,0.0));
#300=SURFACE_STYLE_FILL_AREA(#347);
#301=ORIENTED_EDGE('',*,*,#65,.F.);
#302=ORIENTED_EDGE('',*,*,#85,.F.);
#303=ORIENTED_EDGE('',*,*,#73,.T.);
#304=ORIENTED_EDGE('',*,*,#81,.T.);
#305=CARTESIAN_POINT('',(16.0,1.55523847774686E-014,5.99999999999997));
#306=DIRECTION('',(0.0,0.0,1.0));
#307=DIRECTION('',(1.0,0.0,0.0));
#308=CARTESIAN_POINT('',(-2.8421709430404E-014,1.55523847774686E-014,5.99999999999997));
#309=DIRECTION('',(0.0,0.0,-1.0));
#310=DIRECTION('',(1.0,3.86242133054897E-017,0.0));
#311=SURFACE_STYLE_FILL_AREA(#348);
#312=ORIENTED_EDGE('',*,*,#97,.T.);
#313=ORIENTED_EDGE('',*,*,#67,.F.);
#314=ORIENTED_EDGE('',*,*,#99,.T.);
#315=ORIENTED_EDGE('',*,*,#85,.T.);
#316=CARTESIAN_POINT('',(-2.8421709430404E-014,1.55523847774686E-014,2.99999999999997));
#317=DIRECTION('',(-0.0,-0.0,1.0));
#318=DIRECTION('',(1.0,3.86242133054897E-017,0.0));
#319=SURFACE_STYLE_FILL_AREA(#349);
#320=ORIENTED_EDGE('',*,*,#55,.F.);
#321=ORIENTED_EDGE('',*,*,#79,.F.);
#322=ORIENTED_EDGE('',*,*,#91,.T.);
#323=ORIENTED_EDGE('',*,*,#67,.T.);
#324=CARTESIAN_POINT('',(16.0,1.59197666836153E-014,-2.8421709430404E-014));
#325=DIRECTION('',(0.0,0.0,-1.0));
#326=DIRECTION('',(-1.0,0.0,0.0));
#327=CARTESIAN_POINT('',(-2.8421709430404E-014,1.55523847774686E-014,-2.8421709430404E-014));
#328=DIRECTION('',(0.0,0.0,-1.0));
#329=DIRECTION('',(1.0,3.86242133054897E-017,0.0));
#330=CARTESIAN_POINT('',(-2.8421709430404E-014,1.55523847774686E-014,5.99999999999997));
#331=DIRECTION('',(0.0,0.0,-1.0));
#332=DIRECTION('',(1.0,3.86242133054897E-017,0.0));
#333=DIRECTION('',(-0.0,-0.0,-1.0));
#334=CARTESIAN_POINT('',(-2.8421709430404E-014,1.55523847774686E-014,5.99999999999997));
#335=DIRECTION('',(0.0,0.0,-1.0));
#336=DIRECTION('',(1.0,3.86242133054897E-017,0.0));
#337=DIRECTION('',(-0.0,-0.0,1.0));
#338=CARTESIAN_POINT('',(-2.8421709430404E-014,1.55523847774686E-014,-2.8421709430404E-014));
#339=DIRECTION('',(0.0,0.0,-1.0));
#340=DIRECTION('',(1.0,3.86242133054897E-017,0.0));
#341=DIRECTION('',(0.0,0.0,-1.0));
#342=DIRECTION('',(-0.0,-0.0,1.0));
#343=FILL_AREA_STYLE('',(#350));
#344=FILL_AREA_STYLE('',(#351));
#345=FILL_AREA_STYLE('',(#352));
#346=FILL_AREA_STYLE('',(#353));
#347=FILL_AREA_STYLE('',(#354));
#348=FILL_AREA_STYLE('',(#355));
#349=FILL_AREA_STYLE('',(#356));
#350=FILL_AREA_STYLE_COLOUR('',#357);
#351=FILL_AREA_STYLE_COLOUR('',#358);
#352=FILL_AREA_STYLE_COLOUR('',#359);
#353=FILL_AREA_STYLE_COLOUR('',#360);
#354=FILL_AREA_STYLE_COLOUR('',#361);
#355=FILL_AREA_STYLE_COLOUR('',#362);
#356=FILL_AREA_STYLE_COLOUR('',#363);
#357=COLOUR_RGB('',0.509803950786591,0.509803950786591,0.588235318660736);
#358=COLOUR_RGB('',0.509803950786591,0.509803950786591,0.588235318660736);
#359=COLOUR_RGB('',0.509803950786591,0.509803950786591,0.588235318660736);
#360=COLOUR_RGB('',0.509803950786591,0.509803950786591,0.588235318660736);
#361=COLOUR_RGB('',0.509803950786591,0.509803950786591,0.588235318660736);
#362=COLOUR_RGB('',0.509803950786591,0.509803950786591,0.588235318660736);
#363=COLOUR_RGB('',0.509803950786591,0.509803950786591,0.588235318660736);
ENDSEC;
END-ISO-10303-21;
