ISO-10303-21;
HEADER;
FILE_DESCRIPTION(('STEP AP214'),'1');
FILE_NAME(' ','  ',('TraceParts'),('TraceParts S.A.'),'XStep 1.0',' ',' ');
FILE_SCHEMA(('automotive_design'));
ENDSEC;
DATA;
#1=MECHANICAL_DESIGN_GEOMETRIC_PRESENTATION_REPRESENTATION(' ',(#10,#11,#12,#13,#14,#15,#16,#17,#18,#19,#20,#21,#22,#23,#24,#25,#26,#27,#28,#29,#30,#31,#32,#33,#34,#35,#36),#6);
#2=PRODUCT_DEFINITION_CONTEXT('',#37,'design');
#3=APPLICATION_PROTOCOL_DEFINITION('INTERNATIONAL STANDARD','automotive_design',1994,#37);
#4=PRODUCT_CATEGORY_RELATIONSHIP('NONE','NONE',#38,#39);
#5=SHAPE_DEFINITION_REPRESENTATION(#40,#41);
#6= (GEOMETRIC_REPRESENTATION_CONTEXT(3)GLOBAL_UNCERTAINTY_ASSIGNED_CONTEXT((#44))GLOBAL_UNIT_ASSIGNED_CONTEXT((#46,#47,#48))REPRESENTATION_CONTEXT('NONE','WORKSPACE'));
#10=STYLED_ITEM('',(#50),#51);
#11=STYLED_ITEM('',(#52),#53);
#12=STYLED_ITEM('',(#54),#55);
#13=STYLED_ITEM('',(#56),#57);
#14=STYLED_ITEM('',(#58),#59);
#15=STYLED_ITEM('',(#60),#61);
#16=STYLED_ITEM('',(#62),#63);
#17=STYLED_ITEM('',(#64),#65);
#18=STYLED_ITEM('',(#66),#67);
#19=STYLED_ITEM('',(#68),#69);
#20=STYLED_ITEM('',(#70),#71);
#21=STYLED_ITEM('',(#72),#73);
#22=STYLED_ITEM('',(#74),#75);
#23=STYLED_ITEM('',(#76),#77);
#24=STYLED_ITEM('',(#78),#79);
#25=STYLED_ITEM('',(#80),#81);
#26=STYLED_ITEM('',(#82),#83);
#27=STYLED_ITEM('',(#84),#85);
#28=STYLED_ITEM('',(#86),#87);
#29=STYLED_ITEM('',(#88),#89);
#30=STYLED_ITEM('',(#90),#91);
#31=STYLED_ITEM('',(#92),#93);
#32=STYLED_ITEM('',(#94),#95);
#33=STYLED_ITEM('',(#96),#97);
#34=STYLED_ITEM('',(#98),#99);
#35=STYLED_ITEM('',(#100),#101);
#36=STYLED_ITEM('',(#102),#103);
#37=APPLICATION_CONTEXT(' ');
#38=PRODUCT_CATEGORY('part','NONE');
#39=PRODUCT_RELATED_PRODUCT_CATEGORY('detail',' ',(#104));
#40=PRODUCT_DEFINITION_SHAPE('NONE','NONE',#105);
#41=ADVANCED_BREP_SHAPE_REPRESENTATION('1',(#59,#106),#6);
#44=UNCERTAINTY_MEASURE_WITH_UNIT(LENGTH_MEASURE(1.0E-006),#46,'','');
#46= (CONVERSION_BASED_UNIT('MILLIMETRE',#109)LENGTH_UNIT()NAMED_UNIT(#112));
#47= (NAMED_UNIT(#114)PLANE_ANGLE_UNIT()SI_UNIT($,.RADIAN.));
#48= (NAMED_UNIT(#114)SOLID_ANGLE_UNIT()SI_UNIT($,.STERADIAN.));
#50=PRESENTATION_STYLE_ASSIGNMENT((#120));
#51=VERTEX_POINT('',#121);
#52=PRESENTATION_STYLE_ASSIGNMENT((#122));
#53=ADVANCED_FACE('',(#123,#124),#125,.T.);
#54=PRESENTATION_STYLE_ASSIGNMENT((#126));
#55=VERTEX_POINT('',#127);
#56=PRESENTATION_STYLE_ASSIGNMENT((#128));
#57=EDGE_CURVE('',#89,#55,#129,.T.);
#58=PRESENTATION_STYLE_ASSIGNMENT((#130));
#59=MANIFOLD_SOLID_BREP('1',#131);
#60=PRESENTATION_STYLE_ASSIGNMENT((#132));
#61=EDGE_CURVE('',#103,#93,#133,.T.);
#62=PRESENTATION_STYLE_ASSIGNMENT((#134));
#63=EDGE_CURVE('',#71,#89,#135,.T.);
#64=PRESENTATION_STYLE_ASSIGNMENT((#136));
#65=ADVANCED_FACE('',(#137),#138,.F.);
#66=PRESENTATION_STYLE_ASSIGNMENT((#139));
#67=EDGE_CURVE('',#101,#93,#140,.T.);
#68=PRESENTATION_STYLE_ASSIGNMENT((#141));
#69=ADVANCED_FACE('',(#142,#143),#144,.T.);
#70=PRESENTATION_STYLE_ASSIGNMENT((#145));
#71=VERTEX_POINT('',#146);
#72=PRESENTATION_STYLE_ASSIGNMENT((#147));
#73=ADVANCED_FACE('',(#148),#149,.T.);
#74=PRESENTATION_STYLE_ASSIGNMENT((#150));
#75=EDGE_CURVE('',#71,#51,#151,.T.);
#76=PRESENTATION_STYLE_ASSIGNMENT((#152));
#77=VERTEX_POINT('',#153);
#78=PRESENTATION_STYLE_ASSIGNMENT((#154));
#79=EDGE_CURVE('',#77,#101,#155,.T.);
#80=PRESENTATION_STYLE_ASSIGNMENT((#156));
#81=EDGE_CURVE('',#93,#103,#157,.T.);
#82=PRESENTATION_STYLE_ASSIGNMENT((#158));
#83=EDGE_CURVE('',#55,#89,#159,.T.);
#84=PRESENTATION_STYLE_ASSIGNMENT((#160));
#85=ADVANCED_FACE('',(#161),#162,.T.);
#86=PRESENTATION_STYLE_ASSIGNMENT((#163));
#87=EDGE_CURVE('',#101,#77,#164,.T.);
#88=PRESENTATION_STYLE_ASSIGNMENT((#165));
#89=VERTEX_POINT('',#166);
#90=PRESENTATION_STYLE_ASSIGNMENT((#167));
#91=EDGE_CURVE('',#55,#51,#168,.T.);
#92=PRESENTATION_STYLE_ASSIGNMENT((#169));
#93=VERTEX_POINT('',#170);
#94=PRESENTATION_STYLE_ASSIGNMENT((#171));
#95=EDGE_CURVE('',#103,#77,#172,.T.);
#96=PRESENTATION_STYLE_ASSIGNMENT((#173));
#97=ADVANCED_FACE('',(#174),#175,.F.);
#98=PRESENTATION_STYLE_ASSIGNMENT((#176));
#99=EDGE_CURVE('',#51,#71,#177,.T.);
#100=PRESENTATION_STYLE_ASSIGNMENT((#178));
#101=VERTEX_POINT('',#179);
#102=PRESENTATION_STYLE_ASSIGNMENT((#180));
#103=VERTEX_POINT('',#181);
#104=PRODUCT('1','1','PART-1-DESC',(#182));
#105=PRODUCT_DEFINITION('NONE','NONE',#183,#2);
#106=AXIS2_PLACEMENT_3D('',#184,#185,#186);
#109=LENGTH_MEASURE_WITH_UNIT(LENGTH_MEASURE(1.0),#187);
#112=DIMENSIONAL_EXPONENTS(1.0,0.0,0.0,0.0,0.0,0.0,0.0);
#114=DIMENSIONAL_EXPONENTS(0.0,0.0,0.0,0.0,0.0,0.0,0.0);
#120=POINT_STYLE(' ',#188,POSITIVE_LENGTH_MEASURE(1.0E-006),#189);
#121=CARTESIAN_POINT('',(-6.50000000000003,1.43281549901E-014,4.99999999999997));
#122=SURFACE_STYLE_USAGE(.BOTH.,#190);
#123=FACE_BOUND('',#191,.T.);
#124=FACE_OUTER_BOUND('',#192,.T.);
#125=PLANE('',#193);
#126=POINT_STYLE(' ',#194,POSITIVE_LENGTH_MEASURE(1.0E-006),#195);
#127=CARTESIAN_POINT('',(-6.50000000000003,1.43281549901E-014,-2.8421709430404E-014));
#128=CURVE_STYLE('',#196,POSITIVE_LENGTH_MEASURE(1.0E-006),#197);
#129=CIRCLE('',#198,6.5);
#130=SURFACE_STYLE_USAGE(.BOTH.,#199);
#131=CLOSED_SHELL('',(#97,#85,#69,#73,#53,#65));
#132=CURVE_STYLE('',#200,POSITIVE_LENGTH_MEASURE(1.0E-006),#201);
#133=CIRCLE('',#202,17.5);
#134=CURVE_STYLE('',#203,POSITIVE_LENGTH_MEASURE(1.0E-006),#204);
#135=LINE('',#205,#206);
#136=SURFACE_STYLE_USAGE(.BOTH.,#207);
#137=FACE_OUTER_BOUND('',#208,.T.);
#138=CYLINDRICAL_SURFACE('',#209,6.5);
#139=CURVE_STYLE('',#210,POSITIVE_LENGTH_MEASURE(1.0E-006),#211);
#140=LINE('',#212,#213);
#141=SURFACE_STYLE_USAGE(.BOTH.,#214);
#142=FACE_OUTER_BOUND('',#215,.T.);
#143=FACE_BOUND('',#216,.T.);
#144=PLANE('',#217);
#145=POINT_STYLE(' ',#218,POSITIVE_LENGTH_MEASURE(1.0E-006),#219);
#146=CARTESIAN_POINT('',(6.49999999999997,1.54299241420864E-014,4.99999999999997));
#147=SURFACE_STYLE_USAGE(.BOTH.,#220);
#148=FACE_OUTER_BOUND('',#221,.T.);
#149=CYLINDRICAL_SURFACE('',#222,17.5);
#150=CURVE_STYLE('',#223,POSITIVE_LENGTH_MEASURE(1.0E-006),#224);
#151=CIRCLE('',#225,6.5);
#152=POINT_STYLE(' ',#226,POSITIVE_LENGTH_MEASURE(1.0E-006),#227);
#153=CARTESIAN_POINT('',(-17.5,1.24636225790462E-014,4.99999999999997));
#154=CURVE_STYLE('',#228,POSITIVE_LENGTH_MEASURE(1.0E-006),#229);
#155=CIRCLE('',#230,17.5);
#156=CURVE_STYLE('',#231,POSITIVE_LENGTH_MEASURE(1.0E-006),#232);
#157=CIRCLE('',#233,17.5);
#158=CURVE_STYLE('',#234,POSITIVE_LENGTH_MEASURE(1.0E-006),#235);
#159=CIRCLE('',#236,6.5);
#160=SURFACE_STYLE_USAGE(.BOTH.,#237);
#161=FACE_OUTER_BOUND('',#238,.T.);
#162=CYLINDRICAL_SURFACE('',#239,17.5);
#163=CURVE_STYLE('',#240,POSITIVE_LENGTH_MEASURE(1.0E-006),#241);
#164=CIRCLE('',#242,17.5);
#165=POINT_STYLE(' ',#243,POSITIVE_LENGTH_MEASURE(1.0E-006),#244);
#166=CARTESIAN_POINT('',(6.49999999999997,1.5736075730542E-014,-2.8421709430404E-014));
#167=CURVE_STYLE('',#245,POSITIVE_LENGTH_MEASURE(1.0E-006),#246);
#168=LINE('',#247,#248);
#169=POINT_STYLE(' ',#249,POSITIVE_LENGTH_MEASURE(1.0E-006),#250);
#170=CARTESIAN_POINT('',(17.5,1.5736075730542E-014,-2.8421709430404E-014));
#171=CURVE_STYLE('',#251,POSITIVE_LENGTH_MEASURE(1.0E-006),#252);
#172=LINE('',#253,#254);
#173=SURFACE_STYLE_USAGE(.BOTH.,#255);
#174=FACE_OUTER_BOUND('',#256,.T.);
#175=CYLINDRICAL_SURFACE('',#257,6.5);
#176=CURVE_STYLE('',#258,POSITIVE_LENGTH_MEASURE(1.0E-006),#259);
#177=CIRCLE('',#260,6.5);
#178=POINT_STYLE(' ',#261,POSITIVE_LENGTH_MEASURE(1.0E-006),#262);
#179=CARTESIAN_POINT('',(17.5,1.54299241420864E-014,4.99999999999997));
#180=POINT_STYLE(' ',#263,POSITIVE_LENGTH_MEASURE(1.0E-006),#264);
#181=CARTESIAN_POINT('',(-17.5,1.24636225790462E-014,-2.8421709430404E-014));
#182=PRODUCT_CONTEXT('',#37,'mechanical');
#183=PRODUCT_DEFINITION_FORMATION_WITH_SPECIFIED_SOURCE(' ','NONE',#104,.NOT_KNOWN.);
#184=CARTESIAN_POINT('',(0.0,0.0,0.0));
#185=DIRECTION('',(0.0,0.0,1.0));
#186=DIRECTION('',(1.0,0.0,0.0));
#187= (NAMED_UNIT(#112)LENGTH_UNIT()SI_UNIT(.MILLI.,.METRE.));
#188=PRE_DEFINED_MARKER('');
#189=COLOUR_RGB('',0.509803950786591,0.509803950786591,0.588235318660736);
#190=SURFACE_SIDE_STYLE('',(#266));
#191=EDGE_LOOP('',(#267,#268));
#192=EDGE_LOOP('',(#269,#270));
#193=AXIS2_PLACEMENT_3D('',#271,#272,#273);
#194=PRE_DEFINED_MARKER('');
#195=COLOUR_RGB('',0.509803950786591,0.509803950786591,0.588235318660736);
#196=DRAUGHTING_PRE_DEFINED_CURVE_FONT('continuous');
#197=COLOUR_RGB('',0.509803950786591,0.509803950786591,0.588235318660736);
#198=AXIS2_PLACEMENT_3D('',#274,#275,#276);
#199=SURFACE_SIDE_STYLE('',(#277));
#200=DRAUGHTING_PRE_DEFINED_CURVE_FONT('continuous');
#201=COLOUR_RGB('',0.509803950786591,0.509803950786591,0.588235318660736);
#202=AXIS2_PLACEMENT_3D('',#278,#279,#280);
#203=DRAUGHTING_PRE_DEFINED_CURVE_FONT('continuous');
#204=COLOUR_RGB('',0.509803950786591,0.509803950786591,0.588235318660736);
#205=CARTESIAN_POINT('',(6.49999999999997,1.65316932940727E-014,2.49999999999997));
#206=VECTOR('',#281,1.0);
#207=SURFACE_SIDE_STYLE('',(#282));
#208=EDGE_LOOP('',(#283,#284,#285,#286));
#209=AXIS2_PLACEMENT_3D('',#287,#288,#289);
#210=DRAUGHTING_PRE_DEFINED_CURVE_FONT('continuous');
#211=COLOUR_RGB('',0.509803950786591,0.509803950786591,0.588235318660736);
#212=CARTESIAN_POINT('',(17.5,1.83962257051265E-014,2.49999999999997));
#213=VECTOR('',#290,1.0);
#214=SURFACE_SIDE_STYLE('',(#291));
#215=EDGE_LOOP('',(#292,#293));
#216=EDGE_LOOP('',(#294,#295));
#217=AXIS2_PLACEMENT_3D('',#296,#297,#298);
#218=PRE_DEFINED_MARKER('');
#219=COLOUR_RGB('',0.509803950786591,0.509803950786591,0.588235318660736);
#220=SURFACE_SIDE_STYLE('',(#299));
#221=EDGE_LOOP('',(#300,#301,#302,#303));
#222=AXIS2_PLACEMENT_3D('',#304,#305,#306);
#223=DRAUGHTING_PRE_DEFINED_CURVE_FONT('continuous');
#224=COLOUR_RGB('',0.509803950786591,0.509803950786591,0.588235318660736);
#225=AXIS2_PLACEMENT_3D('',#307,#308,#309);
#226=PRE_DEFINED_MARKER('');
#227=COLOUR_RGB('',0.509803950786591,0.509803950786591,0.588235318660736);
#228=DRAUGHTING_PRE_DEFINED_CURVE_FONT('continuous');
#229=COLOUR_RGB('',0.509803950786591,0.509803950786591,0.588235318660736);
#230=AXIS2_PLACEMENT_3D('',#310,#311,#312);
#231=DRAUGHTING_PRE_DEFINED_CURVE_FONT('continuous');
#232=COLOUR_RGB('',0.509803950786591,0.509803950786591,0.588235318660736);
#233=AXIS2_PLACEMENT_3D('',#313,#314,#315);
#234=DRAUGHTING_PRE_DEFINED_CURVE_FONT('continuous');
#235=COLOUR_RGB('',0.509803950786591,0.509803950786591,0.588235318660736);
#236=AXIS2_PLACEMENT_3D('',#316,#317,#318);
#237=SURFACE_SIDE_STYLE('',(#319));
#238=EDGE_LOOP('',(#320,#321,#322,#323));
#239=AXIS2_PLACEMENT_3D('',#324,#325,#326);
#240=DRAUGHTING_PRE_DEFINED_CURVE_FONT('continuous');
#241=COLOUR_RGB('',0.509803950786591,0.509803950786591,0.588235318660736);
#242=AXIS2_PLACEMENT_3D('',#327,#328,#329);
#243=PRE_DEFINED_MARKER('');
#244=COLOUR_RGB('',0.509803950786591,0.509803950786591,0.588235318660736);
#245=DRAUGHTING_PRE_DEFINED_CURVE_FONT('continuous');
#246=COLOUR_RGB('',0.509803950786591,0.509803950786591,0.588235318660736);
#247=CARTESIAN_POINT('',(-6.50000000000003,1.43281549901E-014,2.49999999999997));
#248=VECTOR('',#330,1.0);
#249=PRE_DEFINED_MARKER('');
#250=COLOUR_RGB('',0.509803950786591,0.509803950786591,0.588235318660736);
#251=DRAUGHTING_PRE_DEFINED_CURVE_FONT('continuous');
#252=COLOUR_RGB('',0.509803950786591,0.509803950786591,0.588235318660736);
#253=CARTESIAN_POINT('',(-17.5,1.24636225790462E-014,2.49999999999997));
#254=VECTOR('',#331,1.0);
#255=SURFACE_SIDE_STYLE('',(#332));
#256=EDGE_LOOP('',(#333,#334,#335,#336));
#257=AXIS2_PLACEMENT_3D('',#337,#338,#339);
#258=DRAUGHTING_PRE_DEFINED_CURVE_FONT('continuous');
#259=COLOUR_RGB('',0.509803950786591,0.509803950786591,0.588235318660736);
#260=AXIS2_PLACEMENT_3D('',#340,#341,#342);
#261=PRE_DEFINED_MARKER('');
#262=COLOUR_RGB('',0.509803950786591,0.509803950786591,0.588235318660736);
#263=PRE_DEFINED_MARKER('');
#264=COLOUR_RGB('',0.509803950786591,0.509803950786591,0.588235318660736);
#266=SURFACE_STYLE_FILL_AREA(#343);
#267=ORIENTED_EDGE('',*,*,#57,.F.);
#268=ORIENTED_EDGE('',*,*,#83,.F.);
#269=ORIENTED_EDGE('',*,*,#81,.T.);
#270=ORIENTED_EDGE('',*,*,#61,.T.);
#271=CARTESIAN_POINT('',(12.0,1.5736075730542E-014,-2.8421709430404E-014));
#272=DIRECTION('',(0.0,0.0,-1.0));
#273=DIRECTION('',(-1.0,0.0,0.0));
#274=CARTESIAN_POINT('',(-2.8421709430404E-014,1.54299241420864E-014,-2.8421709430404E-014));
#275=DIRECTION('',(0.0,0.0,-1.0));
#276=DIRECTION('',(1.0,4.70423110771989E-017,0.0));
#277=SURFACE_STYLE_FILL_AREA(#344);
#278=CARTESIAN_POINT('',(-2.8421709430404E-014,1.54299241420864E-014,-2.8421709430404E-014));
#279=DIRECTION('',(0.0,0.0,-1.0));
#280=DIRECTION('',(1.0,4.70423110771989E-017,0.0));
#281=DIRECTION('',(-0.0,-0.0,-1.0));
#282=SURFACE_STYLE_FILL_AREA(#345);
#283=ORIENTED_EDGE('',*,*,#63,.T.);
#284=ORIENTED_EDGE('',*,*,#57,.T.);
#285=ORIENTED_EDGE('',*,*,#91,.T.);
#286=ORIENTED_EDGE('',*,*,#75,.F.);
#287=CARTESIAN_POINT('',(-2.8421709430404E-014,1.54299241420864E-014,2.49999999999997));
#288=DIRECTION('',(-0.0,-0.0,1.0));
#289=DIRECTION('',(1.0,4.70423110771989E-017,0.0));
#290=DIRECTION('',(0.0,0.0,-1.0));
#291=SURFACE_STYLE_FILL_AREA(#346);
#292=ORIENTED_EDGE('',*,*,#87,.F.);
#293=ORIENTED_EDGE('',*,*,#79,.F.);
#294=ORIENTED_EDGE('',*,*,#75,.T.);
#295=ORIENTED_EDGE('',*,*,#99,.T.);
#296=CARTESIAN_POINT('',(12.0,1.54299241420864E-014,4.99999999999997));
#297=DIRECTION('',(0.0,0.0,1.0));
#298=DIRECTION('',(1.0,0.0,0.0));
#299=SURFACE_STYLE_FILL_AREA(#347);
#300=ORIENTED_EDGE('',*,*,#67,.T.);
#301=ORIENTED_EDGE('',*,*,#61,.F.);
#302=ORIENTED_EDGE('',*,*,#95,.T.);
#303=ORIENTED_EDGE('',*,*,#79,.T.);
#304=CARTESIAN_POINT('',(-2.8421709430404E-014,1.54299241420864E-014,2.49999999999997));
#305=DIRECTION('',(-0.0,-0.0,1.0));
#306=DIRECTION('',(1.0,4.70423110771989E-017,0.0));
#307=CARTESIAN_POINT('',(-2.8421709430404E-014,1.54299241420864E-014,4.99999999999997));
#308=DIRECTION('',(0.0,0.0,-1.0));
#309=DIRECTION('',(1.0,4.70423110771989E-017,0.0));
#310=CARTESIAN_POINT('',(-2.8421709430404E-014,1.54299241420864E-014,4.99999999999997));
#311=DIRECTION('',(0.0,0.0,-1.0));
#312=DIRECTION('',(1.0,4.70423110771989E-017,0.0));
#313=CARTESIAN_POINT('',(-2.8421709430404E-014,1.54299241420864E-014,-2.8421709430404E-014));
#314=DIRECTION('',(0.0,0.0,-1.0));
#315=DIRECTION('',(1.0,4.70423110771989E-017,0.0));
#316=CARTESIAN_POINT('',(-2.8421709430404E-014,1.54299241420864E-014,-2.8421709430404E-014));
#317=DIRECTION('',(0.0,0.0,-1.0));
#318=DIRECTION('',(1.0,4.70423110771989E-017,0.0));
#319=SURFACE_STYLE_FILL_AREA(#348);
#320=ORIENTED_EDGE('',*,*,#67,.F.);
#321=ORIENTED_EDGE('',*,*,#87,.T.);
#322=ORIENTED_EDGE('',*,*,#95,.F.);
#323=ORIENTED_EDGE('',*,*,#81,.F.);
#324=CARTESIAN_POINT('',(-2.8421709430404E-014,1.54299241420864E-014,2.49999999999997));
#325=DIRECTION('',(-0.0,-0.0,1.0));
#326=DIRECTION('',(1.0,4.70423110771989E-017,0.0));
#327=CARTESIAN_POINT('',(-2.8421709430404E-014,1.54299241420864E-014,4.99999999999997));
#328=DIRECTION('',(0.0,0.0,-1.0));
#329=DIRECTION('',(1.0,4.70423110771989E-017,0.0));
#330=DIRECTION('',(-0.0,-0.0,1.0));
#331=DIRECTION('',(-0.0,-0.0,1.0));
#332=SURFACE_STYLE_FILL_AREA(#349);
#333=ORIENTED_EDGE('',*,*,#63,.F.);
#334=ORIENTED_EDGE('',*,*,#99,.F.);
#335=ORIENTED_EDGE('',*,*,#91,.F.);
#336=ORIENTED_EDGE('',*,*,#83,.T.);
#337=CARTESIAN_POINT('',(-2.8421709430404E-014,1.54299241420864E-014,2.49999999999997));
#338=DIRECTION('',(-0.0,-0.0,1.0));
#339=DIRECTION('',(1.0,4.70423110771989E-017,0.0));
#340=CARTESIAN_POINT('',(-2.8421709430404E-014,1.54299241420864E-014,4.99999999999997));
#341=DIRECTION('',(0.0,0.0,-1.0));
#342=DIRECTION('',(1.0,4.70423110771989E-017,0.0));
#343=FILL_AREA_STYLE('',(#350));
#344=FILL_AREA_STYLE('',(#351));
#345=FILL_AREA_STYLE('',(#352));
#346=FILL_AREA_STYLE('',(#353));
#347=FILL_AREA_STYLE('',(#354));
#348=FILL_AREA_STYLE('',(#355));
#349=FILL_AREA_STYLE('',(#356));
#350=FILL_AREA_STYLE_COLOUR('',#357);
#351=FILL_AREA_STYLE_COLOUR('',#358);
#352=FILL_AREA_STYLE_COLOUR('',#359);
#353=FILL_AREA_STYLE_COLOUR('',#360);
#354=FILL_AREA_STYLE_COLOUR('',#361);
#355=FILL_AREA_STYLE_COLOUR('',#362);
#356=FILL_AREA_STYLE_COLOUR('',#363);
#357=COLOUR_RGB('',0.509803950786591,0.509803950786591,0.588235318660736);
#358=COLOUR_RGB('',0.509803950786591,0.509803950786591,0.588235318660736);
#359=COLOUR_RGB('',0.509803950786591,0.509803950786591,0.588235318660736);
#360=COLOUR_RGB('',0.509803950786591,0.509803950786591,0.588235318660736);
#361=COLOUR_RGB('',0.509803950786591,0.509803950786591,0.588235318660736);
#362=COLOUR_RGB('',0.509803950786591,0.509803950786591,0.588235318660736);
#363=COLOUR_RGB('',0.509803950786591,0.509803950786591,0.588235318660736);
ENDSEC;
END-ISO-10303-21;
