ISO-10303-21;
HEADER;
FILE_DESCRIPTION(('STEP AP214'),'1');
FILE_NAME(' ','  ',('TraceParts'),('TraceParts S.A.'),'XStep 1.0',' ',' ');
FILE_SCHEMA(('automotive_design'));
ENDSEC;
DATA;
#1=MECHANICAL_DESIGN_GEOMETRIC_PRESENTATION_REPRESENTATION(' ',(#10,#11,#12,#13,#14,#15,#16,#17,#18,#19,#20,#21,#22,#23,#24,#25,#26,#27,#28,#29,#30,#31,#32,#33,#34,#35,#36),#6);
#2=PRODUCT_DEFINITION_CONTEXT('',#37,'design');
#3=APPLICATION_PROTOCOL_DEFINITION('INTERNATIONAL STANDARD','automotive_design',1994,#37);
#4=PRODUCT_CATEGORY_RELATIONSHIP('NONE','NONE',#38,#39);
#5=SHAPE_DEFINITION_REPRESENTATION(#40,#41);
#6= (GEOMETRIC_REPRESENTATION_CONTEXT(3)GLOBAL_UNCERTAINTY_ASSIGNED_CONTEXT((#44))GLOBAL_UNIT_ASSIGNED_CONTEXT((#46,#47,#48))REPRESENTATION_CONTEXT('NONE','WORKSPACE'));
#10=STYLED_ITEM('',(#50),#51);
#11=STYLED_ITEM('',(#52),#53);
#12=STYLED_ITEM('',(#54),#55);
#13=STYLED_ITEM('',(#56),#57);
#14=STYLED_ITEM('',(#58),#59);
#15=STYLED_ITEM('',(#60),#61);
#16=STYLED_ITEM('',(#62),#63);
#17=STYLED_ITEM('',(#64),#65);
#18=STYLED_ITEM('',(#66),#67);
#19=STYLED_ITEM('',(#68),#69);
#20=STYLED_ITEM('',(#70),#71);
#21=STYLED_ITEM('',(#72),#73);
#22=STYLED_ITEM('',(#74),#75);
#23=STYLED_ITEM('',(#76),#77);
#24=STYLED_ITEM('',(#78),#79);
#25=STYLED_ITEM('',(#80),#81);
#26=STYLED_ITEM('',(#82),#83);
#27=STYLED_ITEM('',(#84),#85);
#28=STYLED_ITEM('',(#86),#87);
#29=STYLED_ITEM('',(#88),#89);
#30=STYLED_ITEM('',(#90),#91);
#31=STYLED_ITEM('',(#92),#93);
#32=STYLED_ITEM('',(#94),#95);
#33=STYLED_ITEM('',(#96),#97);
#34=STYLED_ITEM('',(#98),#99);
#35=STYLED_ITEM('',(#100),#101);
#36=STYLED_ITEM('',(#102),#103);
#37=APPLICATION_CONTEXT(' ');
#38=PRODUCT_CATEGORY('part','NONE');
#39=PRODUCT_RELATED_PRODUCT_CATEGORY('detail',' ',(#104));
#40=PRODUCT_DEFINITION_SHAPE('NONE','NONE',#105);
#41=ADVANCED_BREP_SHAPE_REPRESENTATION('1',(#59,#106),#6);
#44=UNCERTAINTY_MEASURE_WITH_UNIT(LENGTH_MEASURE(1.0E-006),#46,'','');
#46= (CONVERSION_BASED_UNIT('MILLIMETRE',#109)LENGTH_UNIT()NAMED_UNIT(#112));
#47= (NAMED_UNIT(#114)PLANE_ANGLE_UNIT()SI_UNIT($,.RADIAN.));
#48= (NAMED_UNIT(#114)SOLID_ANGLE_UNIT()SI_UNIT($,.STERADIAN.));
#50=PRESENTATION_STYLE_ASSIGNMENT((#120));
#51=EDGE_CURVE('',#53,#93,#121,.T.);
#52=PRESENTATION_STYLE_ASSIGNMENT((#122));
#53=VERTEX_POINT('',#123);
#54=PRESENTATION_STYLE_ASSIGNMENT((#124));
#55=ADVANCED_FACE('',(#125),#126,.F.);
#56=PRESENTATION_STYLE_ASSIGNMENT((#127));
#57=EDGE_CURVE('',#81,#91,#128,.T.);
#58=PRESENTATION_STYLE_ASSIGNMENT((#129));
#59=MANIFOLD_SOLID_BREP('1',#130);
#60=PRESENTATION_STYLE_ASSIGNMENT((#131));
#61=ADVANCED_FACE('',(#132,#133),#134,.T.);
#62=PRESENTATION_STYLE_ASSIGNMENT((#135));
#63=EDGE_CURVE('',#91,#81,#136,.T.);
#64=PRESENTATION_STYLE_ASSIGNMENT((#137));
#65=VERTEX_POINT('',#138);
#66=PRESENTATION_STYLE_ASSIGNMENT((#139));
#67=EDGE_CURVE('',#103,#101,#140,.T.);
#68=PRESENTATION_STYLE_ASSIGNMENT((#141));
#69=EDGE_CURVE('',#79,#81,#142,.T.);
#70=PRESENTATION_STYLE_ASSIGNMENT((#143));
#71=EDGE_CURVE('',#65,#79,#144,.T.);
#72=PRESENTATION_STYLE_ASSIGNMENT((#145));
#73=ADVANCED_FACE('',(#146),#147,.F.);
#74=PRESENTATION_STYLE_ASSIGNMENT((#148));
#75=EDGE_CURVE('',#91,#65,#149,.T.);
#76=PRESENTATION_STYLE_ASSIGNMENT((#150));
#77=ADVANCED_FACE('',(#151,#152),#153,.T.);
#78=PRESENTATION_STYLE_ASSIGNMENT((#154));
#79=VERTEX_POINT('',#155);
#80=PRESENTATION_STYLE_ASSIGNMENT((#156));
#81=VERTEX_POINT('',#157);
#82=PRESENTATION_STYLE_ASSIGNMENT((#158));
#83=EDGE_CURVE('',#79,#65,#159,.T.);
#84=PRESENTATION_STYLE_ASSIGNMENT((#160));
#85=EDGE_CURVE('',#93,#53,#161,.T.);
#86=PRESENTATION_STYLE_ASSIGNMENT((#162));
#87=EDGE_CURVE('',#53,#101,#163,.T.);
#88=PRESENTATION_STYLE_ASSIGNMENT((#164));
#89=ADVANCED_FACE('',(#165),#166,.T.);
#90=PRESENTATION_STYLE_ASSIGNMENT((#167));
#91=VERTEX_POINT('',#168);
#92=PRESENTATION_STYLE_ASSIGNMENT((#169));
#93=VERTEX_POINT('',#170);
#94=PRESENTATION_STYLE_ASSIGNMENT((#171));
#95=EDGE_CURVE('',#101,#103,#172,.T.);
#96=PRESENTATION_STYLE_ASSIGNMENT((#173));
#97=EDGE_CURVE('',#103,#93,#174,.T.);
#98=PRESENTATION_STYLE_ASSIGNMENT((#175));
#99=ADVANCED_FACE('',(#176),#177,.T.);
#100=PRESENTATION_STYLE_ASSIGNMENT((#178));
#101=VERTEX_POINT('',#179);
#102=PRESENTATION_STYLE_ASSIGNMENT((#180));
#103=VERTEX_POINT('',#181);
#104=PRODUCT('1','1','PART-1-DESC',(#182));
#105=PRODUCT_DEFINITION('NONE','NONE',#183,#2);
#106=AXIS2_PLACEMENT_3D('',#184,#185,#186);
#109=LENGTH_MEASURE_WITH_UNIT(LENGTH_MEASURE(1.0),#187);
#112=DIMENSIONAL_EXPONENTS(1.0,0.0,0.0,0.0,0.0,0.0,0.0);
#114=DIMENSIONAL_EXPONENTS(0.0,0.0,0.0,0.0,0.0,0.0,0.0);
#120=CURVE_STYLE('',#188,POSITIVE_LENGTH_MEASURE(1.0E-006),#189);
#121=CIRCLE('',#190,14.0);
#122=POINT_STYLE(' ',#191,POSITIVE_LENGTH_MEASURE(1.0E-006),#192);
#123=CARTESIAN_POINT('',(14.0,1.53074635067041E-014,3.99999999999997));
#124=SURFACE_STYLE_USAGE(.BOTH.,#193);
#125=FACE_OUTER_BOUND('',#194,.T.);
#126=CYLINDRICAL_SURFACE('',#195,5.25);
#127=CURVE_STYLE('',#196,POSITIVE_LENGTH_MEASURE(1.0E-006),#197);
#128=CIRCLE('',#198,5.25);
#129=SURFACE_STYLE_USAGE(.BOTH.,#199);
#130=CLOSED_SHELL('',(#55,#89,#61,#99,#77,#73));
#131=SURFACE_STYLE_USAGE(.BOTH.,#200);
#132=FACE_OUTER_BOUND('',#201,.T.);
#133=FACE_BOUND('',#202,.T.);
#134=PLANE('',#203);
#135=CURVE_STYLE('',#204,POSITIVE_LENGTH_MEASURE(1.0E-006),#205);
#136=CIRCLE('',#206,5.25);
#137=POINT_STYLE(' ',#207,POSITIVE_LENGTH_MEASURE(1.0E-006),#208);
#138=CARTESIAN_POINT('',(-5.25000000000003,1.44199251533459E-014,3.99999999999997));
#139=CURVE_STYLE('',#209,POSITIVE_LENGTH_MEASURE(1.0E-006),#210);
#140=CIRCLE('',#211,14.0);
#141=CURVE_STYLE('',#212,POSITIVE_LENGTH_MEASURE(1.0E-006),#213);
#142=LINE('',#214,#215);
#143=CURVE_STYLE('',#216,POSITIVE_LENGTH_MEASURE(1.0E-006),#217);
#144=CIRCLE('',#218,5.25);
#145=SURFACE_STYLE_USAGE(.BOTH.,#219);
#146=FACE_OUTER_BOUND('',#220,.T.);
#147=CYLINDRICAL_SURFACE('',#221,5.25);
#148=CURVE_STYLE('',#222,POSITIVE_LENGTH_MEASURE(1.0E-006),#223);
#149=LINE('',#224,#225);
#150=SURFACE_STYLE_USAGE(.BOTH.,#226);
#151=FACE_BOUND('',#227,.T.);
#152=FACE_OUTER_BOUND('',#228,.T.);
#153=PLANE('',#229);
#154=POINT_STYLE(' ',#230,POSITIVE_LENGTH_MEASURE(1.0E-006),#231);
#155=CARTESIAN_POINT('',(5.24999999999997,1.53074635067041E-014,3.99999999999997));
#156=POINT_STYLE(' ',#232,POSITIVE_LENGTH_MEASURE(1.0E-006),#233);
#157=CARTESIAN_POINT('',(5.24999999999997,1.55523847774686E-014,-2.8421709430404E-014));
#158=CURVE_STYLE('',#234,POSITIVE_LENGTH_MEASURE(1.0E-006),#235);
#159=CIRCLE('',#236,5.25);
#160=CURVE_STYLE('',#237,POSITIVE_LENGTH_MEASURE(1.0E-006),#238);
#161=CIRCLE('',#239,14.0);
#162=CURVE_STYLE('',#240,POSITIVE_LENGTH_MEASURE(1.0E-006),#241);
#163=LINE('',#242,#243);
#164=SURFACE_STYLE_USAGE(.BOTH.,#244);
#165=FACE_OUTER_BOUND('',#245,.T.);
#166=CYLINDRICAL_SURFACE('',#246,14.0);
#167=POINT_STYLE(' ',#247,POSITIVE_LENGTH_MEASURE(1.0E-006),#248);
#168=CARTESIAN_POINT('',(-5.25000000000003,1.44199251533459E-014,-2.8421709430404E-014));
#169=POINT_STYLE(' ',#249,POSITIVE_LENGTH_MEASURE(1.0E-006),#250);
#170=CARTESIAN_POINT('',(-14.0,1.29406945644156E-014,3.99999999999997));
#171=CURVE_STYLE('',#251,POSITIVE_LENGTH_MEASURE(1.0E-006),#252);
#172=CIRCLE('',#253,14.0);
#173=CURVE_STYLE('',#254,POSITIVE_LENGTH_MEASURE(1.0E-006),#255);
#174=LINE('',#256,#257);
#175=SURFACE_STYLE_USAGE(.BOTH.,#258);
#176=FACE_OUTER_BOUND('',#259,.T.);
#177=CYLINDRICAL_SURFACE('',#260,14.0);
#178=POINT_STYLE(' ',#261,POSITIVE_LENGTH_MEASURE(1.0E-006),#262);
#179=CARTESIAN_POINT('',(14.0,1.55523847774686E-014,-2.8421709430404E-014));
#180=POINT_STYLE(' ',#263,POSITIVE_LENGTH_MEASURE(1.0E-006),#264);
#181=CARTESIAN_POINT('',(-14.0,1.29406945644156E-014,-2.8421709430404E-014));
#182=PRODUCT_CONTEXT('',#37,'mechanical');
#183=PRODUCT_DEFINITION_FORMATION_WITH_SPECIFIED_SOURCE(' ','NONE',#104,.NOT_KNOWN.);
#184=CARTESIAN_POINT('',(0.0,0.0,0.0));
#185=DIRECTION('',(0.0,0.0,1.0));
#186=DIRECTION('',(1.0,0.0,0.0));
#187= (NAMED_UNIT(#112)LENGTH_UNIT()SI_UNIT(.MILLI.,.METRE.));
#188=DRAUGHTING_PRE_DEFINED_CURVE_FONT('continuous');
#189=COLOUR_RGB('',0.509803950786591,0.509803950786591,0.588235318660736);
#190=AXIS2_PLACEMENT_3D('',#266,#267,#268);
#191=PRE_DEFINED_MARKER('');
#192=COLOUR_RGB('',0.509803950786591,0.509803950786591,0.588235318660736);
#193=SURFACE_SIDE_STYLE('',(#269));
#194=EDGE_LOOP('',(#270,#271,#272,#273));
#195=AXIS2_PLACEMENT_3D('',#274,#275,#276);
#196=DRAUGHTING_PRE_DEFINED_CURVE_FONT('continuous');
#197=COLOUR_RGB('',0.509803950786591,0.509803950786591,0.588235318660736);
#198=AXIS2_PLACEMENT_3D('',#277,#278,#279);
#199=SURFACE_SIDE_STYLE('',(#280));
#200=SURFACE_SIDE_STYLE('',(#281));
#201=EDGE_LOOP('',(#282,#283));
#202=EDGE_LOOP('',(#284,#285));
#203=AXIS2_PLACEMENT_3D('',#286,#287,#288);
#204=DRAUGHTING_PRE_DEFINED_CURVE_FONT('continuous');
#205=COLOUR_RGB('',0.509803950786591,0.509803950786591,0.588235318660736);
#206=AXIS2_PLACEMENT_3D('',#289,#290,#291);
#207=PRE_DEFINED_MARKER('');
#208=COLOUR_RGB('',0.509803950786591,0.509803950786591,0.588235318660736);
#209=DRAUGHTING_PRE_DEFINED_CURVE_FONT('continuous');
#210=COLOUR_RGB('',0.509803950786591,0.509803950786591,0.588235318660736);
#211=AXIS2_PLACEMENT_3D('',#292,#293,#294);
#212=DRAUGHTING_PRE_DEFINED_CURVE_FONT('continuous');
#213=COLOUR_RGB('',0.509803950786591,0.509803950786591,0.588235318660736);
#214=CARTESIAN_POINT('',(5.24999999999997,1.61950018600623E-014,1.99999999999997));
#215=VECTOR('',#295,1.0);
#216=DRAUGHTING_PRE_DEFINED_CURVE_FONT('continuous');
#217=COLOUR_RGB('',0.509803950786591,0.509803950786591,0.588235318660736);
#218=AXIS2_PLACEMENT_3D('',#296,#297,#298);
#219=SURFACE_SIDE_STYLE('',(#299));
#220=EDGE_LOOP('',(#300,#301,#302,#303));
#221=AXIS2_PLACEMENT_3D('',#304,#305,#306);
#222=DRAUGHTING_PRE_DEFINED_CURVE_FONT('continuous');
#223=COLOUR_RGB('',0.509803950786591,0.509803950786591,0.588235318660736);
#224=CARTESIAN_POINT('',(-5.25000000000003,1.44199251533459E-014,1.99999999999997));
#225=VECTOR('',#307,1.0);
#226=SURFACE_SIDE_STYLE('',(#308));
#227=EDGE_LOOP('',(#309,#310));
#228=EDGE_LOOP('',(#311,#312));
#229=AXIS2_PLACEMENT_3D('',#313,#314,#315);
#230=PRE_DEFINED_MARKER('');
#231=COLOUR_RGB('',0.509803950786591,0.509803950786591,0.588235318660736);
#232=PRE_DEFINED_MARKER('');
#233=COLOUR_RGB('',0.509803950786591,0.509803950786591,0.588235318660736);
#234=DRAUGHTING_PRE_DEFINED_CURVE_FONT('continuous');
#235=COLOUR_RGB('',0.509803950786591,0.509803950786591,0.588235318660736);
#236=AXIS2_PLACEMENT_3D('',#316,#317,#318);
#237=DRAUGHTING_PRE_DEFINED_CURVE_FONT('continuous');
#238=COLOUR_RGB('',0.509803950786591,0.509803950786591,0.588235318660736);
#239=AXIS2_PLACEMENT_3D('',#319,#320,#321);
#240=DRAUGHTING_PRE_DEFINED_CURVE_FONT('continuous');
#241=COLOUR_RGB('',0.509803950786591,0.509803950786591,0.588235318660736);
#242=CARTESIAN_POINT('',(14.0,1.76742324489926E-014,1.99999999999997));
#243=VECTOR('',#322,1.0);
#244=SURFACE_SIDE_STYLE('',(#323));
#245=EDGE_LOOP('',(#324,#325,#326,#327));
#246=AXIS2_PLACEMENT_3D('',#328,#329,#330);
#247=PRE_DEFINED_MARKER('');
#248=COLOUR_RGB('',0.509803950786591,0.509803950786591,0.588235318660736);
#249=PRE_DEFINED_MARKER('');
#250=COLOUR_RGB('',0.509803950786591,0.509803950786591,0.588235318660736);
#251=DRAUGHTING_PRE_DEFINED_CURVE_FONT('continuous');
#252=COLOUR_RGB('',0.509803950786591,0.509803950786591,0.588235318660736);
#253=AXIS2_PLACEMENT_3D('',#331,#332,#333);
#254=DRAUGHTING_PRE_DEFINED_CURVE_FONT('continuous');
#255=COLOUR_RGB('',0.509803950786591,0.509803950786591,0.588235318660736);
#256=CARTESIAN_POINT('',(-14.0,1.29406945644156E-014,1.99999999999997));
#257=VECTOR('',#334,1.0);
#258=SURFACE_SIDE_STYLE('',(#335));
#259=EDGE_LOOP('',(#336,#337,#338,#339));
#260=AXIS2_PLACEMENT_3D('',#340,#341,#342);
#261=PRE_DEFINED_MARKER('');
#262=COLOUR_RGB('',0.509803950786591,0.509803950786591,0.588235318660736);
#263=PRE_DEFINED_MARKER('');
#264=COLOUR_RGB('',0.509803950786591,0.509803950786591,0.588235318660736);
#266=CARTESIAN_POINT('',(-2.8421709430404E-014,1.53074635067041E-014,3.99999999999997));
#267=DIRECTION('',(0.0,0.0,-1.0));
#268=DIRECTION('',(1.0,4.65942890669399E-017,0.0));
#269=SURFACE_STYLE_FILL_AREA(#343);
#270=ORIENTED_EDGE('',*,*,#69,.F.);
#271=ORIENTED_EDGE('',*,*,#71,.F.);
#272=ORIENTED_EDGE('',*,*,#75,.F.);
#273=ORIENTED_EDGE('',*,*,#63,.T.);
#274=CARTESIAN_POINT('',(-2.8421709430404E-014,1.53074635067041E-014,1.99999999999997));
#275=DIRECTION('',(-0.0,-0.0,1.0));
#276=DIRECTION('',(1.0,4.65942890669399E-017,0.0));
#277=CARTESIAN_POINT('',(-2.8421709430404E-014,1.53074635067041E-014,-2.8421709430404E-014));
#278=DIRECTION('',(0.0,0.0,-1.0));
#279=DIRECTION('',(1.0,4.65942890669399E-017,0.0));
#280=SURFACE_STYLE_FILL_AREA(#344);
#281=SURFACE_STYLE_FILL_AREA(#345);
#282=ORIENTED_EDGE('',*,*,#51,.F.);
#283=ORIENTED_EDGE('',*,*,#85,.F.);
#284=ORIENTED_EDGE('',*,*,#83,.T.);
#285=ORIENTED_EDGE('',*,*,#71,.T.);
#286=CARTESIAN_POINT('',(9.62499999999997,1.53074635067041E-014,3.99999999999997));
#287=DIRECTION('',(0.0,0.0,1.0));
#288=DIRECTION('',(1.0,0.0,0.0));
#289=CARTESIAN_POINT('',(-2.8421709430404E-014,1.53074635067041E-014,-2.8421709430404E-014));
#290=DIRECTION('',(0.0,0.0,-1.0));
#291=DIRECTION('',(1.0,4.65942890669399E-017,0.0));
#292=CARTESIAN_POINT('',(-2.8421709430404E-014,1.53074635067041E-014,-2.8421709430404E-014));
#293=DIRECTION('',(0.0,0.0,-1.0));
#294=DIRECTION('',(1.0,4.65942890669399E-017,0.0));
#295=DIRECTION('',(-0.0,-0.0,-1.0));
#296=CARTESIAN_POINT('',(-2.8421709430404E-014,1.53074635067041E-014,3.99999999999997));
#297=DIRECTION('',(0.0,0.0,-1.0));
#298=DIRECTION('',(1.0,4.65942890669399E-017,0.0));
#299=SURFACE_STYLE_FILL_AREA(#346);
#300=ORIENTED_EDGE('',*,*,#69,.T.);
#301=ORIENTED_EDGE('',*,*,#57,.T.);
#302=ORIENTED_EDGE('',*,*,#75,.T.);
#303=ORIENTED_EDGE('',*,*,#83,.F.);
#304=CARTESIAN_POINT('',(-2.8421709430404E-014,1.53074635067041E-014,1.99999999999997));
#305=DIRECTION('',(-0.0,-0.0,1.0));
#306=DIRECTION('',(1.0,4.65942890669399E-017,0.0));
#307=DIRECTION('',(-0.0,-0.0,1.0));
#308=SURFACE_STYLE_FILL_AREA(#347);
#309=ORIENTED_EDGE('',*,*,#57,.F.);
#310=ORIENTED_EDGE('',*,*,#63,.F.);
#311=ORIENTED_EDGE('',*,*,#95,.T.);
#312=ORIENTED_EDGE('',*,*,#67,.T.);
#313=CARTESIAN_POINT('',(9.62499999999997,1.55523847774686E-014,-2.8421709430404E-014));
#314=DIRECTION('',(0.0,0.0,-1.0));
#315=DIRECTION('',(-1.0,0.0,0.0));
#316=CARTESIAN_POINT('',(-2.8421709430404E-014,1.53074635067041E-014,3.99999999999997));
#317=DIRECTION('',(0.0,0.0,-1.0));
#318=DIRECTION('',(1.0,4.65942890669399E-017,0.0));
#319=CARTESIAN_POINT('',(-2.8421709430404E-014,1.53074635067041E-014,3.99999999999997));
#320=DIRECTION('',(0.0,0.0,-1.0));
#321=DIRECTION('',(1.0,4.65942890669399E-017,0.0));
#322=DIRECTION('',(0.0,0.0,-1.0));
#323=SURFACE_STYLE_FILL_AREA(#348);
#324=ORIENTED_EDGE('',*,*,#87,.F.);
#325=ORIENTED_EDGE('',*,*,#51,.T.);
#326=ORIENTED_EDGE('',*,*,#97,.F.);
#327=ORIENTED_EDGE('',*,*,#95,.F.);
#328=CARTESIAN_POINT('',(-2.8421709430404E-014,1.53074635067041E-014,1.99999999999997));
#329=DIRECTION('',(-0.0,-0.0,1.0));
#330=DIRECTION('',(1.0,4.65942890669399E-017,0.0));
#331=CARTESIAN_POINT('',(-2.8421709430404E-014,1.53074635067041E-014,-2.8421709430404E-014));
#332=DIRECTION('',(0.0,0.0,-1.0));
#333=DIRECTION('',(1.0,4.65942890669399E-017,0.0));
#334=DIRECTION('',(-0.0,-0.0,1.0));
#335=SURFACE_STYLE_FILL_AREA(#349);
#336=ORIENTED_EDGE('',*,*,#87,.T.);
#337=ORIENTED_EDGE('',*,*,#67,.F.);
#338=ORIENTED_EDGE('',*,*,#97,.T.);
#339=ORIENTED_EDGE('',*,*,#85,.T.);
#340=CARTESIAN_POINT('',(-2.8421709430404E-014,1.53074635067041E-014,1.99999999999997));
#341=DIRECTION('',(-0.0,-0.0,1.0));
#342=DIRECTION('',(1.0,4.65942890669399E-017,0.0));
#343=FILL_AREA_STYLE('',(#350));
#344=FILL_AREA_STYLE('',(#351));
#345=FILL_AREA_STYLE('',(#352));
#346=FILL_AREA_STYLE('',(#353));
#347=FILL_AREA_STYLE('',(#354));
#348=FILL_AREA_STYLE('',(#355));
#349=FILL_AREA_STYLE('',(#356));
#350=FILL_AREA_STYLE_COLOUR('',#357);
#351=FILL_AREA_STYLE_COLOUR('',#358);
#352=FILL_AREA_STYLE_COLOUR('',#359);
#353=FILL_AREA_STYLE_COLOUR('',#360);
#354=FILL_AREA_STYLE_COLOUR('',#361);
#355=FILL_AREA_STYLE_COLOUR('',#362);
#356=FILL_AREA_STYLE_COLOUR('',#363);
#357=COLOUR_RGB('',0.509803950786591,0.509803950786591,0.588235318660736);
#358=COLOUR_RGB('',0.509803950786591,0.509803950786591,0.588235318660736);
#359=COLOUR_RGB('',0.509803950786591,0.509803950786591,0.588235318660736);
#360=COLOUR_RGB('',0.509803950786591,0.509803950786591,0.588235318660736);
#361=COLOUR_RGB('',0.509803950786591,0.509803950786591,0.588235318660736);
#362=COLOUR_RGB('',0.509803950786591,0.509803950786591,0.588235318660736);
#363=COLOUR_RGB('',0.509803950786591,0.509803950786591,0.588235318660736);
ENDSEC;
END-ISO-10303-21;
