ISO-10303-21;
HEADER;
FILE_DESCRIPTION(('STEP AP214'),'1');
FILE_NAME(' ','  ',('TraceParts'),('TraceParts S.A.'),'XStep 1.0',' ',' ');
FILE_SCHEMA(('automotive_design'));
ENDSEC;
DATA;
#1=MECHANICAL_DESIGN_GEOMETRIC_PRESENTATION_REPRESENTATION(' ',(#10,#11,#12,#13,#14,#15,#16,#17,#18,#19,#20,#21,#22,#23,#24,#25,#26,#27,#28,#29,#30,#31,#32,#33,#34,#35,#36),#6);
#2=PRODUCT_DEFINITION_CONTEXT('',#37,'design');
#3=APPLICATION_PROTOCOL_DEFINITION('INTERNATIONAL STANDARD','automotive_design',1994,#37);
#4=PRODUCT_CATEGORY_RELATIONSHIP('NONE','NONE',#38,#39);
#5=SHAPE_DEFINITION_REPRESENTATION(#40,#41);
#6= (GEOMETRIC_REPRESENTATION_CONTEXT(3)GLOBAL_UNCERTAINTY_ASSIGNED_CONTEXT((#44))GLOBAL_UNIT_ASSIGNED_CONTEXT((#46,#47,#48))REPRESENTATION_CONTEXT('NONE','WORKSPACE'));
#10=STYLED_ITEM('',(#50),#51);
#11=STYLED_ITEM('',(#52),#53);
#12=STYLED_ITEM('',(#54),#55);
#13=STYLED_ITEM('',(#56),#57);
#14=STYLED_ITEM('',(#58),#59);
#15=STYLED_ITEM('',(#60),#61);
#16=STYLED_ITEM('',(#62),#63);
#17=STYLED_ITEM('',(#64),#65);
#18=STYLED_ITEM('',(#66),#67);
#19=STYLED_ITEM('',(#68),#69);
#20=STYLED_ITEM('',(#70),#71);
#21=STYLED_ITEM('',(#72),#73);
#22=STYLED_ITEM('',(#74),#75);
#23=STYLED_ITEM('',(#76),#77);
#24=STYLED_ITEM('',(#78),#79);
#25=STYLED_ITEM('',(#80),#81);
#26=STYLED_ITEM('',(#82),#83);
#27=STYLED_ITEM('',(#84),#85);
#28=STYLED_ITEM('',(#86),#87);
#29=STYLED_ITEM('',(#88),#89);
#30=STYLED_ITEM('',(#90),#91);
#31=STYLED_ITEM('',(#92),#93);
#32=STYLED_ITEM('',(#94),#95);
#33=STYLED_ITEM('',(#96),#97);
#34=STYLED_ITEM('',(#98),#99);
#35=STYLED_ITEM('',(#100),#101);
#36=STYLED_ITEM('',(#102),#103);
#37=APPLICATION_CONTEXT(' ');
#38=PRODUCT_CATEGORY('part','NONE');
#39=PRODUCT_RELATED_PRODUCT_CATEGORY('detail',' ',(#104));
#40=PRODUCT_DEFINITION_SHAPE('NONE','NONE',#105);
#41=ADVANCED_BREP_SHAPE_REPRESENTATION('1',(#67,#106),#6);
#44=UNCERTAINTY_MEASURE_WITH_UNIT(LENGTH_MEASURE(1.0E-006),#46,'','');
#46= (CONVERSION_BASED_UNIT('MILLIMETRE',#109)LENGTH_UNIT()NAMED_UNIT(#112));
#47= (NAMED_UNIT(#114)PLANE_ANGLE_UNIT()SI_UNIT($,.RADIAN.));
#48= (NAMED_UNIT(#114)SOLID_ANGLE_UNIT()SI_UNIT($,.STERADIAN.));
#50=PRESENTATION_STYLE_ASSIGNMENT((#120));
#51=EDGE_CURVE('',#89,#63,#121,.T.);
#52=PRESENTATION_STYLE_ASSIGNMENT((#122));
#53=EDGE_CURVE('',#77,#69,#123,.T.);
#54=PRESENTATION_STYLE_ASSIGNMENT((#124));
#55=ADVANCED_FACE('',(#125),#126,.T.);
#56=PRESENTATION_STYLE_ASSIGNMENT((#127));
#57=ADVANCED_FACE('',(#128,#129),#130,.T.);
#58=PRESENTATION_STYLE_ASSIGNMENT((#131));
#59=VERTEX_POINT('',#132);
#60=PRESENTATION_STYLE_ASSIGNMENT((#133));
#61=EDGE_CURVE('',#69,#77,#134,.T.);
#62=PRESENTATION_STYLE_ASSIGNMENT((#135));
#63=VERTEX_POINT('',#136);
#64=PRESENTATION_STYLE_ASSIGNMENT((#137));
#65=EDGE_CURVE('',#59,#93,#138,.T.);
#66=PRESENTATION_STYLE_ASSIGNMENT((#139));
#67=MANIFOLD_SOLID_BREP('1',#140);
#68=PRESENTATION_STYLE_ASSIGNMENT((#141));
#69=VERTEX_POINT('',#142);
#70=PRESENTATION_STYLE_ASSIGNMENT((#143));
#71=EDGE_CURVE('',#93,#59,#144,.T.);
#72=PRESENTATION_STYLE_ASSIGNMENT((#145));
#73=EDGE_CURVE('',#85,#91,#146,.T.);
#74=PRESENTATION_STYLE_ASSIGNMENT((#147));
#75=ADVANCED_FACE('',(#148),#149,.F.);
#76=PRESENTATION_STYLE_ASSIGNMENT((#150));
#77=VERTEX_POINT('',#151);
#78=PRESENTATION_STYLE_ASSIGNMENT((#152));
#79=ADVANCED_FACE('',(#153),#154,.T.);
#80=PRESENTATION_STYLE_ASSIGNMENT((#155));
#81=ADVANCED_FACE('',(#156),#157,.F.);
#82=PRESENTATION_STYLE_ASSIGNMENT((#158));
#83=EDGE_CURVE('',#93,#63,#159,.T.);
#84=PRESENTATION_STYLE_ASSIGNMENT((#160));
#85=VERTEX_POINT('',#161);
#86=PRESENTATION_STYLE_ASSIGNMENT((#162));
#87=EDGE_CURVE('',#89,#59,#163,.T.);
#88=PRESENTATION_STYLE_ASSIGNMENT((#164));
#89=VERTEX_POINT('',#165);
#90=PRESENTATION_STYLE_ASSIGNMENT((#166));
#91=VERTEX_POINT('',#167);
#92=PRESENTATION_STYLE_ASSIGNMENT((#168));
#93=VERTEX_POINT('',#169);
#94=PRESENTATION_STYLE_ASSIGNMENT((#170));
#95=EDGE_CURVE('',#77,#85,#171,.T.);
#96=PRESENTATION_STYLE_ASSIGNMENT((#172));
#97=EDGE_CURVE('',#91,#85,#173,.T.);
#98=PRESENTATION_STYLE_ASSIGNMENT((#174));
#99=ADVANCED_FACE('',(#175,#176),#177,.T.);
#100=PRESENTATION_STYLE_ASSIGNMENT((#178));
#101=EDGE_CURVE('',#91,#69,#179,.T.);
#102=PRESENTATION_STYLE_ASSIGNMENT((#180));
#103=EDGE_CURVE('',#63,#89,#181,.T.);
#104=PRODUCT('1','1','PART-1-DESC',(#182));
#105=PRODUCT_DEFINITION('NONE','NONE',#183,#2);
#106=AXIS2_PLACEMENT_3D('',#184,#185,#186);
#109=LENGTH_MEASURE_WITH_UNIT(LENGTH_MEASURE(1.0),#187);
#112=DIMENSIONAL_EXPONENTS(1.0,0.0,0.0,0.0,0.0,0.0,0.0);
#114=DIMENSIONAL_EXPONENTS(0.0,0.0,0.0,0.0,0.0,0.0,0.0);
#120=CURVE_STYLE('',#188,POSITIVE_LENGTH_MEASURE(1.0E-006),#189);
#121=CIRCLE('',#190,8.50000000000003);
#122=CURVE_STYLE('',#191,POSITIVE_LENGTH_MEASURE(1.0E-006),#192);
#123=CIRCLE('',#193,3.19999999999999);
#124=SURFACE_STYLE_USAGE(.BOTH.,#194);
#125=FACE_OUTER_BOUND('',#195,.T.);
#126=CYLINDRICAL_SURFACE('',#196,8.50000000000003);
#127=SURFACE_STYLE_USAGE(.BOTH.,#197);
#128=FACE_BOUND('',#198,.T.);
#129=FACE_OUTER_BOUND('',#199,.T.);
#130=PLANE('',#200);
#131=POINT_STYLE(' ',#201,POSITIVE_LENGTH_MEASURE(1.0E-006),#202);
#132=CARTESIAN_POINT('',(8.5,1.53686938243952E-014,-2.8421709430404E-014));
#133=CURVE_STYLE('',#203,POSITIVE_LENGTH_MEASURE(1.0E-006),#204);
#134=CIRCLE('',#205,3.19999999999999);
#135=POINT_STYLE(' ',#206,POSITIVE_LENGTH_MEASURE(1.0E-006),#207);
#136=CARTESIAN_POINT('',(-8.50000000000006,1.36567585292575E-014,2.99999999999997));
#137=CURVE_STYLE('',#208,POSITIVE_LENGTH_MEASURE(1.0E-006),#209);
#138=CIRCLE('',#210,8.50000000000003);
#139=SURFACE_STYLE_USAGE(.BOTH.,#211);
#140=CLOSED_SHELL('',(#81,#55,#99,#79,#57,#75));
#141=POINT_STYLE(' ',#212,POSITIVE_LENGTH_MEASURE(1.0E-006),#213);
#142=CARTESIAN_POINT('',(3.19999999999996,1.53686938243952E-014,-2.8421709430404E-014));
#143=CURVE_STYLE('',#214,POSITIVE_LENGTH_MEASURE(1.0E-006),#215);
#144=CIRCLE('',#216,8.50000000000003);
#145=CURVE_STYLE('',#217,POSITIVE_LENGTH_MEASURE(1.0E-006),#218);
#146=CIRCLE('',#219,3.19999999999999);
#147=SURFACE_STYLE_USAGE(.BOTH.,#220);
#148=FACE_OUTER_BOUND('',#221,.T.);
#149=CYLINDRICAL_SURFACE('',#222,3.19999999999999);
#150=POINT_STYLE(' ',#223,POSITIVE_LENGTH_MEASURE(1.0E-006),#224);
#151=CARTESIAN_POINT('',(-3.20000000000002,1.46096638248977E-014,-2.8421709430404E-014));
#152=SURFACE_STYLE_USAGE(.BOTH.,#225);
#153=FACE_OUTER_BOUND('',#226,.T.);
#154=CYLINDRICAL_SURFACE('',#227,8.50000000000003);
#155=SURFACE_STYLE_USAGE(.BOTH.,#228);
#156=FACE_OUTER_BOUND('',#229,.T.);
#157=CYLINDRICAL_SURFACE('',#230,3.19999999999999);
#158=CURVE_STYLE('',#231,POSITIVE_LENGTH_MEASURE(1.0E-006),#232);
#159=LINE('',#233,#234);
#160=POINT_STYLE(' ',#235,POSITIVE_LENGTH_MEASURE(1.0E-006),#236);
#161=CARTESIAN_POINT('',(-3.20000000000002,1.46096638248977E-014,2.99999999999997));
#162=CURVE_STYLE('',#237,POSITIVE_LENGTH_MEASURE(1.0E-006),#238);
#163=LINE('',#239,#240);
#164=POINT_STYLE(' ',#241,POSITIVE_LENGTH_MEASURE(1.0E-006),#242);
#165=CARTESIAN_POINT('',(8.5,1.51850028713219E-014,2.99999999999997));
#166=POINT_STYLE(' ',#243,POSITIVE_LENGTH_MEASURE(1.0E-006),#244);
#167=CARTESIAN_POINT('',(3.19999999999996,1.51850028713219E-014,2.99999999999997));
#168=POINT_STYLE(' ',#245,POSITIVE_LENGTH_MEASURE(1.0E-006),#246);
#169=CARTESIAN_POINT('',(-8.50000000000006,1.36567585292575E-014,-2.8421709430404E-014));
#170=CURVE_STYLE('',#247,POSITIVE_LENGTH_MEASURE(1.0E-006),#248);
#171=LINE('',#249,#250);
#172=CURVE_STYLE('',#251,POSITIVE_LENGTH_MEASURE(1.0E-006),#252);
#173=CIRCLE('',#253,3.19999999999999);
#174=SURFACE_STYLE_USAGE(.BOTH.,#254);
#175=FACE_OUTER_BOUND('',#255,.T.);
#176=FACE_BOUND('',#256,.T.);
#177=PLANE('',#257);
#178=CURVE_STYLE('',#258,POSITIVE_LENGTH_MEASURE(1.0E-006),#259);
#179=LINE('',#260,#261);
#180=CURVE_STYLE('',#262,POSITIVE_LENGTH_MEASURE(1.0E-006),#263);
#181=CIRCLE('',#264,8.50000000000003);
#182=PRODUCT_CONTEXT('',#37,'mechanical');
#183=PRODUCT_DEFINITION_FORMATION_WITH_SPECIFIED_SOURCE(' ','NONE',#104,.NOT_KNOWN.);
#184=CARTESIAN_POINT('',(0.0,0.0,0.0));
#185=DIRECTION('',(0.0,0.0,1.0));
#186=DIRECTION('',(1.0,0.0,0.0));
#187= (NAMED_UNIT(#112)LENGTH_UNIT()SI_UNIT(.MILLI.,.METRE.));
#188=DRAUGHTING_PRE_DEFINED_CURVE_FONT('continuous');
#189=COLOUR_RGB('',0.509803950786591,0.509803950786591,0.588235318660736);
#190=AXIS2_PLACEMENT_3D('',#266,#267,#268);
#191=DRAUGHTING_PRE_DEFINED_CURVE_FONT('continuous');
#192=COLOUR_RGB('',0.509803950786591,0.509803950786591,0.588235318660736);
#193=AXIS2_PLACEMENT_3D('',#269,#270,#271);
#194=SURFACE_SIDE_STYLE('',(#272));
#195=EDGE_LOOP('',(#273,#274,#275,#276));
#196=AXIS2_PLACEMENT_3D('',#277,#278,#279);
#197=SURFACE_SIDE_STYLE('',(#280));
#198=EDGE_LOOP('',(#281,#282));
#199=EDGE_LOOP('',(#283,#284));
#200=AXIS2_PLACEMENT_3D('',#285,#286,#287);
#201=PRE_DEFINED_MARKER('');
#202=COLOUR_RGB('',0.509803950786591,0.509803950786591,0.588235318660736);
#203=DRAUGHTING_PRE_DEFINED_CURVE_FONT('continuous');
#204=COLOUR_RGB('',0.509803950786591,0.509803950786591,0.588235318660736);
#205=AXIS2_PLACEMENT_3D('',#288,#289,#290);
#206=PRE_DEFINED_MARKER('');
#207=COLOUR_RGB('',0.509803950786591,0.509803950786591,0.588235318660736);
#208=DRAUGHTING_PRE_DEFINED_CURVE_FONT('continuous');
#209=COLOUR_RGB('',0.509803950786591,0.509803950786591,0.588235318660736);
#210=AXIS2_PLACEMENT_3D('',#291,#292,#293);
#211=SURFACE_SIDE_STYLE('',(#294));
#212=PRE_DEFINED_MARKER('');
#213=COLOUR_RGB('',0.509803950786591,0.509803950786591,0.588235318660736);
#214=DRAUGHTING_PRE_DEFINED_CURVE_FONT('continuous');
#215=COLOUR_RGB('',0.509803950786591,0.509803950786591,0.588235318660736);
#216=AXIS2_PLACEMENT_3D('',#295,#296,#297);
#217=DRAUGHTING_PRE_DEFINED_CURVE_FONT('continuous');
#218=COLOUR_RGB('',0.509803950786591,0.509803950786591,0.588235318660736);
#219=AXIS2_PLACEMENT_3D('',#298,#299,#300);
#220=SURFACE_SIDE_STYLE('',(#301));
#221=EDGE_LOOP('',(#302,#303,#304,#305));
#222=AXIS2_PLACEMENT_3D('',#306,#307,#308);
#223=PRE_DEFINED_MARKER('');
#224=COLOUR_RGB('',0.509803950786591,0.509803950786591,0.588235318660736);
#225=SURFACE_SIDE_STYLE('',(#309));
#226=EDGE_LOOP('',(#310,#311,#312,#313));
#227=AXIS2_PLACEMENT_3D('',#314,#315,#316);
#228=SURFACE_SIDE_STYLE('',(#317));
#229=EDGE_LOOP('',(#318,#319,#320,#321));
#230=AXIS2_PLACEMENT_3D('',#322,#323,#324);
#231=DRAUGHTING_PRE_DEFINED_CURVE_FONT('continuous');
#232=COLOUR_RGB('',0.509803950786591,0.509803950786591,0.588235318660736);
#233=CARTESIAN_POINT('',(-8.50000000000006,1.36567585292575E-014,1.49999999999997));
#234=VECTOR('',#325,1.0);
#235=PRE_DEFINED_MARKER('');
#236=COLOUR_RGB('',0.509803950786591,0.509803950786591,0.588235318660736);
#237=DRAUGHTING_PRE_DEFINED_CURVE_FONT('continuous');
#238=COLOUR_RGB('',0.509803950786591,0.509803950786591,0.588235318660736);
#239=CARTESIAN_POINT('',(8.5,1.67132472133863E-014,1.49999999999997));
#240=VECTOR('',#326,1.0);
#241=PRE_DEFINED_MARKER('');
#242=COLOUR_RGB('',0.509803950786591,0.509803950786591,0.588235318660736);
#243=PRE_DEFINED_MARKER('');
#244=COLOUR_RGB('',0.509803950786591,0.509803950786591,0.588235318660736);
#245=PRE_DEFINED_MARKER('');
#246=COLOUR_RGB('',0.509803950786591,0.509803950786591,0.588235318660736);
#247=DRAUGHTING_PRE_DEFINED_CURVE_FONT('continuous');
#248=COLOUR_RGB('',0.509803950786591,0.509803950786591,0.588235318660736);
#249=CARTESIAN_POINT('',(-3.20000000000002,1.46096638248977E-014,1.49999999999997));
#250=VECTOR('',#327,1.0);
#251=DRAUGHTING_PRE_DEFINED_CURVE_FONT('continuous');
#252=COLOUR_RGB('',0.509803950786591,0.509803950786591,0.588235318660736);
#253=AXIS2_PLACEMENT_3D('',#328,#329,#330);
#254=SURFACE_SIDE_STYLE('',(#331));
#255=EDGE_LOOP('',(#332,#333));
#256=EDGE_LOOP('',(#334,#335));
#257=AXIS2_PLACEMENT_3D('',#336,#337,#338);
#258=DRAUGHTING_PRE_DEFINED_CURVE_FONT('continuous');
#259=COLOUR_RGB('',0.509803950786591,0.509803950786591,0.588235318660736);
#260=CARTESIAN_POINT('',(3.19999999999996,1.57603419177461E-014,1.49999999999997));
#261=VECTOR('',#339,1.0);
#262=DRAUGHTING_PRE_DEFINED_CURVE_FONT('continuous');
#263=COLOUR_RGB('',0.509803950786591,0.509803950786591,0.588235318660736);
#264=AXIS2_PLACEMENT_3D('',#340,#341,#342);
#266=CARTESIAN_POINT('',(-2.8421709430404E-014,1.51850028713219E-014,2.99999999999997));
#267=DIRECTION('',(0.0,0.0,-1.0));
#268=DIRECTION('',(1.0,5.73328166253363E-017,0.0));
#269=CARTESIAN_POINT('',(-2.8421709430404E-014,1.51850028713219E-014,-2.8421709430404E-014));
#270=DIRECTION('',(0.0,0.0,-1.0));
#271=DIRECTION('',(1.0,5.73328166253363E-017,0.0));
#272=SURFACE_STYLE_FILL_AREA(#343);
#273=ORIENTED_EDGE('',*,*,#87,.F.);
#274=ORIENTED_EDGE('',*,*,#51,.T.);
#275=ORIENTED_EDGE('',*,*,#83,.F.);
#276=ORIENTED_EDGE('',*,*,#65,.F.);
#277=CARTESIAN_POINT('',(-2.8421709430404E-014,1.51850028713219E-014,1.49999999999997));
#278=DIRECTION('',(-0.0,-0.0,1.0));
#279=DIRECTION('',(1.0,5.73328166253363E-017,0.0));
#280=SURFACE_STYLE_FILL_AREA(#344);
#281=ORIENTED_EDGE('',*,*,#61,.F.);
#282=ORIENTED_EDGE('',*,*,#53,.F.);
#283=ORIENTED_EDGE('',*,*,#65,.T.);
#284=ORIENTED_EDGE('',*,*,#71,.T.);
#285=CARTESIAN_POINT('',(5.84999999999998,1.53686938243952E-014,-2.8421709430404E-014));
#286=DIRECTION('',(0.0,0.0,-1.0));
#287=DIRECTION('',(-1.0,0.0,0.0));
#288=CARTESIAN_POINT('',(-2.8421709430404E-014,1.51850028713219E-014,-2.8421709430404E-014));
#289=DIRECTION('',(0.0,0.0,-1.0));
#290=DIRECTION('',(1.0,5.73328166253363E-017,0.0));
#291=CARTESIAN_POINT('',(-2.8421709430404E-014,1.51850028713219E-014,-2.8421709430404E-014));
#292=DIRECTION('',(0.0,0.0,-1.0));
#293=DIRECTION('',(1.0,5.73328166253363E-017,0.0));
#294=SURFACE_STYLE_FILL_AREA(#345);
#295=CARTESIAN_POINT('',(-2.8421709430404E-014,1.51850028713219E-014,-2.8421709430404E-014));
#296=DIRECTION('',(0.0,0.0,-1.0));
#297=DIRECTION('',(1.0,5.73328166253363E-017,0.0));
#298=CARTESIAN_POINT('',(-2.8421709430404E-014,1.51850028713219E-014,2.99999999999997));
#299=DIRECTION('',(0.0,0.0,-1.0));
#300=DIRECTION('',(1.0,5.73328166253363E-017,0.0));
#301=SURFACE_STYLE_FILL_AREA(#346);
#302=ORIENTED_EDGE('',*,*,#101,.T.);
#303=ORIENTED_EDGE('',*,*,#61,.T.);
#304=ORIENTED_EDGE('',*,*,#95,.T.);
#305=ORIENTED_EDGE('',*,*,#97,.F.);
#306=CARTESIAN_POINT('',(-2.8421709430404E-014,1.51850028713219E-014,1.49999999999997));
#307=DIRECTION('',(-0.0,-0.0,1.0));
#308=DIRECTION('',(1.0,5.73328166253363E-017,0.0));
#309=SURFACE_STYLE_FILL_AREA(#347);
#310=ORIENTED_EDGE('',*,*,#87,.T.);
#311=ORIENTED_EDGE('',*,*,#71,.F.);
#312=ORIENTED_EDGE('',*,*,#83,.T.);
#313=ORIENTED_EDGE('',*,*,#103,.T.);
#314=CARTESIAN_POINT('',(-2.8421709430404E-014,1.51850028713219E-014,1.49999999999997));
#315=DIRECTION('',(-0.0,-0.0,1.0));
#316=DIRECTION('',(1.0,5.73328166253363E-017,0.0));
#317=SURFACE_STYLE_FILL_AREA(#348);
#318=ORIENTED_EDGE('',*,*,#101,.F.);
#319=ORIENTED_EDGE('',*,*,#73,.F.);
#320=ORIENTED_EDGE('',*,*,#95,.F.);
#321=ORIENTED_EDGE('',*,*,#53,.T.);
#322=CARTESIAN_POINT('',(-2.8421709430404E-014,1.51850028713219E-014,1.49999999999997));
#323=DIRECTION('',(-0.0,-0.0,1.0));
#324=DIRECTION('',(1.0,5.73328166253363E-017,0.0));
#325=DIRECTION('',(-0.0,-0.0,1.0));
#326=DIRECTION('',(0.0,0.0,-1.0));
#327=DIRECTION('',(-0.0,-0.0,1.0));
#328=CARTESIAN_POINT('',(-2.8421709430404E-014,1.51850028713219E-014,2.99999999999997));
#329=DIRECTION('',(0.0,0.0,-1.0));
#330=DIRECTION('',(1.0,5.73328166253363E-017,0.0));
#331=SURFACE_STYLE_FILL_AREA(#349);
#332=ORIENTED_EDGE('',*,*,#51,.F.);
#333=ORIENTED_EDGE('',*,*,#103,.F.);
#334=ORIENTED_EDGE('',*,*,#97,.T.);
#335=ORIENTED_EDGE('',*,*,#73,.T.);
#336=CARTESIAN_POINT('',(5.84999999999998,1.51850028713219E-014,2.99999999999997));
#337=DIRECTION('',(0.0,0.0,1.0));
#338=DIRECTION('',(1.0,0.0,0.0));
#339=DIRECTION('',(-0.0,-0.0,-1.0));
#340=CARTESIAN_POINT('',(-2.8421709430404E-014,1.51850028713219E-014,2.99999999999997));
#341=DIRECTION('',(0.0,0.0,-1.0));
#342=DIRECTION('',(1.0,5.73328166253363E-017,0.0));
#343=FILL_AREA_STYLE('',(#350));
#344=FILL_AREA_STYLE('',(#351));
#345=FILL_AREA_STYLE('',(#352));
#346=FILL_AREA_STYLE('',(#353));
#347=FILL_AREA_STYLE('',(#354));
#348=FILL_AREA_STYLE('',(#355));
#349=FILL_AREA_STYLE('',(#356));
#350=FILL_AREA_STYLE_COLOUR('',#357);
#351=FILL_AREA_STYLE_COLOUR('',#358);
#352=FILL_AREA_STYLE_COLOUR('',#359);
#353=FILL_AREA_STYLE_COLOUR('',#360);
#354=FILL_AREA_STYLE_COLOUR('',#361);
#355=FILL_AREA_STYLE_COLOUR('',#362);
#356=FILL_AREA_STYLE_COLOUR('',#363);
#357=COLOUR_RGB('',0.509803950786591,0.509803950786591,0.588235318660736);
#358=COLOUR_RGB('',0.509803950786591,0.509803950786591,0.588235318660736);
#359=COLOUR_RGB('',0.509803950786591,0.509803950786591,0.588235318660736);
#360=COLOUR_RGB('',0.509803950786591,0.509803950786591,0.588235318660736);
#361=COLOUR_RGB('',0.509803950786591,0.509803950786591,0.588235318660736);
#362=COLOUR_RGB('',0.509803950786591,0.509803950786591,0.588235318660736);
#363=COLOUR_RGB('',0.509803950786591,0.509803950786591,0.588235318660736);
ENDSEC;
END-ISO-10303-21;
