ISO-10303-21;
HEADER;
FILE_DESCRIPTION(('STEP AP214'),'1');
FILE_NAME(' ','  ',('TraceParts'),('TraceParts S.A.'),'XStep 1.0',' ',' ');
FILE_SCHEMA(('automotive_design'));
ENDSEC;
DATA;
#1=MECHANICAL_DESIGN_GEOMETRIC_PRESENTATION_REPRESENTATION(' ',(#10,#11,#12,#13,#14,#15,#16,#17,#18,#19,#20,#21,#22,#23,#24,#25,#26,#27,#28,#29,#30,#31,#32,#33,#34,#35,#36,#37,#38,#39,#40,#41,#42,#43,#44),#6);
#2=PRODUCT_DEFINITION_CONTEXT('',#45,'design');
#3=APPLICATION_PROTOCOL_DEFINITION('INTERNATIONAL STANDARD','automotive_design',1994,#45);
#4=PRODUCT_CATEGORY_RELATIONSHIP('NONE','NONE',#46,#47);
#5=SHAPE_DEFINITION_REPRESENTATION(#48,#49);
#6= (GEOMETRIC_REPRESENTATION_CONTEXT(3)GLOBAL_UNCERTAINTY_ASSIGNED_CONTEXT((#52))GLOBAL_UNIT_ASSIGNED_CONTEXT((#54,#55,#56))REPRESENTATION_CONTEXT('NONE','WORKSPACE'));
#10=STYLED_ITEM('',(#58),#59);
#11=STYLED_ITEM('',(#60),#61);
#12=STYLED_ITEM('',(#62),#63);
#13=STYLED_ITEM('',(#64),#65);
#14=STYLED_ITEM('',(#66),#67);
#15=STYLED_ITEM('',(#68),#69);
#16=STYLED_ITEM('',(#70),#71);
#17=STYLED_ITEM('',(#72),#73);
#18=STYLED_ITEM('',(#74),#75);
#19=STYLED_ITEM('',(#76),#77);
#20=STYLED_ITEM('',(#78),#79);
#21=STYLED_ITEM('',(#80),#81);
#22=STYLED_ITEM('',(#82),#83);
#23=STYLED_ITEM('',(#84),#85);
#24=STYLED_ITEM('',(#86),#87);
#25=STYLED_ITEM('',(#88),#89);
#26=STYLED_ITEM('',(#90),#91);
#27=STYLED_ITEM('',(#92),#93);
#28=STYLED_ITEM('',(#94),#95);
#29=STYLED_ITEM('',(#96),#97);
#30=STYLED_ITEM('',(#98),#99);
#31=STYLED_ITEM('',(#100),#101);
#32=STYLED_ITEM('',(#102),#103);
#33=STYLED_ITEM('',(#104),#105);
#34=STYLED_ITEM('',(#106),#107);
#35=STYLED_ITEM('',(#108),#109);
#36=STYLED_ITEM('',(#110),#111);
#37=STYLED_ITEM('',(#112),#113);
#38=STYLED_ITEM('',(#114),#115);
#39=STYLED_ITEM('',(#116),#117);
#40=STYLED_ITEM('',(#118),#119);
#41=STYLED_ITEM('',(#120),#121);
#42=STYLED_ITEM('',(#122),#123);
#43=STYLED_ITEM('',(#124),#125);
#44=STYLED_ITEM('',(#126),#127);
#45=APPLICATION_CONTEXT(' ');
#46=PRODUCT_CATEGORY('part','NONE');
#47=PRODUCT_RELATED_PRODUCT_CATEGORY('detail',' ',(#128));
#48=PRODUCT_DEFINITION_SHAPE('NONE','NONE',#129);
#49=ADVANCED_BREP_SHAPE_REPRESENTATION('1',(#105,#130),#6);
#52=UNCERTAINTY_MEASURE_WITH_UNIT(LENGTH_MEASURE(1.0E-006),#54,'','');
#54= (CONVERSION_BASED_UNIT('MILLIMETRE',#133)LENGTH_UNIT()NAMED_UNIT(#136));
#55= (NAMED_UNIT(#138)PLANE_ANGLE_UNIT()SI_UNIT($,.RADIAN.));
#56= (NAMED_UNIT(#138)SOLID_ANGLE_UNIT()SI_UNIT($,.STERADIAN.));
#58=PRESENTATION_STYLE_ASSIGNMENT((#144));
#59=ADVANCED_FACE('',(#145,#146),#147,.T.);
#60=PRESENTATION_STYLE_ASSIGNMENT((#148));
#61=VERTEX_POINT('',#149);
#62=PRESENTATION_STYLE_ASSIGNMENT((#150));
#63=VERTEX_POINT('',#151);
#64=PRESENTATION_STYLE_ASSIGNMENT((#152));
#65=ADVANCED_FACE('',(#153,#154),#155,.T.);
#66=PRESENTATION_STYLE_ASSIGNMENT((#156));
#67=EDGE_CURVE('',#113,#119,#157,.T.);
#68=PRESENTATION_STYLE_ASSIGNMENT((#158));
#69=ADVANCED_FACE('',(#159),#160,.F.);
#70=PRESENTATION_STYLE_ASSIGNMENT((#161));
#71=ADVANCED_FACE('',(#162),#163,.T.);
#72=PRESENTATION_STYLE_ASSIGNMENT((#164));
#73=EDGE_CURVE('',#89,#107,#165,.T.);
#74=PRESENTATION_STYLE_ASSIGNMENT((#166));
#75=ADVANCED_FACE('',(#167),#168,.F.);
#76=PRESENTATION_STYLE_ASSIGNMENT((#169));
#77=ADVANCED_FACE('',(#170),#171,.T.);
#78=PRESENTATION_STYLE_ASSIGNMENT((#172));
#79=EDGE_CURVE('',#63,#101,#173,.T.);
#80=PRESENTATION_STYLE_ASSIGNMENT((#174));
#81=VERTEX_POINT('',#175);
#82=PRESENTATION_STYLE_ASSIGNMENT((#176));
#83=EDGE_CURVE('',#63,#61,#177,.T.);
#84=PRESENTATION_STYLE_ASSIGNMENT((#178));
#85=EDGE_CURVE('',#127,#109,#179,.T.);
#86=PRESENTATION_STYLE_ASSIGNMENT((#180));
#87=EDGE_CURVE('',#113,#89,#181,.T.);
#88=PRESENTATION_STYLE_ASSIGNMENT((#182));
#89=VERTEX_POINT('',#183);
#90=PRESENTATION_STYLE_ASSIGNMENT((#184));
#91=EDGE_CURVE('',#81,#101,#185,.T.);
#92=PRESENTATION_STYLE_ASSIGNMENT((#186));
#93=EDGE_CURVE('',#101,#109,#187,.T.);
#94=PRESENTATION_STYLE_ASSIGNMENT((#188));
#95=ADVANCED_FACE('',(#189),#190,.F.);
#96=PRESENTATION_STYLE_ASSIGNMENT((#191));
#97=ADVANCED_FACE('',(#192),#193,.F.);
#98=PRESENTATION_STYLE_ASSIGNMENT((#194));
#99=EDGE_CURVE('',#107,#89,#195,.T.);
#100=PRESENTATION_STYLE_ASSIGNMENT((#196));
#101=VERTEX_POINT('',#197);
#102=PRESENTATION_STYLE_ASSIGNMENT((#198));
#103=EDGE_CURVE('',#109,#127,#199,.T.);
#104=PRESENTATION_STYLE_ASSIGNMENT((#200));
#105=MANIFOLD_SOLID_BREP('1',#201);
#106=PRESENTATION_STYLE_ASSIGNMENT((#202));
#107=VERTEX_POINT('',#203);
#108=PRESENTATION_STYLE_ASSIGNMENT((#204));
#109=VERTEX_POINT('',#205);
#110=PRESENTATION_STYLE_ASSIGNMENT((#206));
#111=EDGE_CURVE('',#101,#81,#207,.T.);
#112=PRESENTATION_STYLE_ASSIGNMENT((#208));
#113=VERTEX_POINT('',#209);
#114=PRESENTATION_STYLE_ASSIGNMENT((#210));
#115=EDGE_CURVE('',#127,#81,#211,.T.);
#116=PRESENTATION_STYLE_ASSIGNMENT((#212));
#117=EDGE_CURVE('',#81,#61,#213,.T.);
#118=PRESENTATION_STYLE_ASSIGNMENT((#214));
#119=VERTEX_POINT('',#215);
#120=PRESENTATION_STYLE_ASSIGNMENT((#216));
#121=EDGE_CURVE('',#107,#119,#217,.T.);
#122=PRESENTATION_STYLE_ASSIGNMENT((#218));
#123=EDGE_CURVE('',#61,#63,#219,.T.);
#124=PRESENTATION_STYLE_ASSIGNMENT((#220));
#125=EDGE_CURVE('',#119,#113,#221,.T.);
#126=PRESENTATION_STYLE_ASSIGNMENT((#222));
#127=VERTEX_POINT('',#223);
#128=PRODUCT('1','1','PART-1-DESC',(#224));
#129=PRODUCT_DEFINITION('NONE','NONE',#225,#2);
#130=AXIS2_PLACEMENT_3D('',#226,#227,#228);
#133=LENGTH_MEASURE_WITH_UNIT(LENGTH_MEASURE(1.0),#229);
#136=DIMENSIONAL_EXPONENTS(1.0,0.0,0.0,0.0,0.0,0.0,0.0);
#138=DIMENSIONAL_EXPONENTS(0.0,0.0,0.0,0.0,0.0,0.0,0.0);
#144=SURFACE_STYLE_USAGE(.BOTH.,#230);
#145=FACE_BOUND('',#231,.T.);
#146=FACE_OUTER_BOUND('',#232,.T.);
#147=PLANE('',#233);
#148=POINT_STYLE(' ',#234,POSITIVE_LENGTH_MEASURE(1.0E-006),#235);
#149=CARTESIAN_POINT('',(-14.0,1.01666076325085E-014,-2.8421709430404E-014));
#150=POINT_STYLE(' ',#236,POSITIVE_LENGTH_MEASURE(1.0E-006),#237);
#151=CARTESIAN_POINT('',(14.0,1.65340032091464E-014,-2.8421709430404E-014));
#152=SURFACE_STYLE_USAGE(.BOTH.,#238);
#153=FACE_OUTER_BOUND('',#239,.T.);
#154=FACE_BOUND('',#240,.T.);
#155=PLANE('',#241);
#156=CURVE_STYLE('',#242,POSITIVE_LENGTH_MEASURE(1.0E-006),#243);
#157=CIRCLE('',#244,30.0000000000001);
#158=SURFACE_STYLE_USAGE(.BOTH.,#245);
#159=FACE_OUTER_BOUND('',#246,.T.);
#160=CYLINDRICAL_SURFACE('',#247,14.0);
#161=SURFACE_STYLE_USAGE(.BOTH.,#248);
#162=FACE_OUTER_BOUND('',#249,.T.);
#163=CYLINDRICAL_SURFACE('',#250,30.0000000000001);
#164=CURVE_STYLE('',#251,POSITIVE_LENGTH_MEASURE(1.0E-006),#252);
#165=CIRCLE('',#253,30.0000000000001);
#166=SURFACE_STYLE_USAGE(.BOTH.,#254);
#167=FACE_OUTER_BOUND('',#255,.T.);
#168=CONICAL_SURFACE('',#256,16.25,1.0471975511966);
#169=SURFACE_STYLE_USAGE(.BOTH.,#257);
#170=FACE_OUTER_BOUND('',#258,.T.);
#171=CYLINDRICAL_SURFACE('',#259,30.0000000000001);
#172=CURVE_STYLE('',#260,POSITIVE_LENGTH_MEASURE(1.0E-006),#261);
#173=LINE('',#262,#263);
#174=POINT_STYLE(' ',#264,POSITIVE_LENGTH_MEASURE(1.0E-006),#265);
#175=CARTESIAN_POINT('',(-14.0,1.06198297776128E-014,7.40192378864666));
#176=CURVE_STYLE('',#266,POSITIVE_LENGTH_MEASURE(1.0E-006),#267);
#177=CIRCLE('',#268,14.0);
#178=CURVE_STYLE('',#269,POSITIVE_LENGTH_MEASURE(1.0E-006),#270);
#179=CIRCLE('',#271,18.5000000000001);
#180=CURVE_STYLE('',#272,POSITIVE_LENGTH_MEASURE(1.0E-006),#273);
#181=LINE('',#274,#275);
#182=POINT_STYLE(' ',#276,POSITIVE_LENGTH_MEASURE(1.0E-006),#277);
#183=CARTESIAN_POINT('',(30.0000000000001,2.11518814998611E-014,9.99999999999997));
#184=CURVE_STYLE('',#278,POSITIVE_LENGTH_MEASURE(1.0E-006),#279);
#185=CIRCLE('',#280,14.0);
#186=CURVE_STYLE('',#281,POSITIVE_LENGTH_MEASURE(1.0E-006),#282);
#187=LINE('',#283,#284);
#188=SURFACE_STYLE_USAGE(.BOTH.,#285);
#189=FACE_OUTER_BOUND('',#286,.T.);
#190=CONICAL_SURFACE('',#287,16.25,1.0471975511966);
#191=SURFACE_STYLE_USAGE(.BOTH.,#288);
#192=FACE_OUTER_BOUND('',#289,.T.);
#193=CYLINDRICAL_SURFACE('',#290,14.0);
#194=CURVE_STYLE('',#291,POSITIVE_LENGTH_MEASURE(1.0E-006),#292);
#195=CIRCLE('',#293,30.0000000000001);
#196=POINT_STYLE(' ',#294,POSITIVE_LENGTH_MEASURE(1.0E-006),#295);
#197=CARTESIAN_POINT('',(14.0,1.65340032091464E-014,7.40192378864666));
#198=CURVE_STYLE('',#296,POSITIVE_LENGTH_MEASURE(1.0E-006),#297);
#199=CIRCLE('',#298,18.5000000000001);
#200=SURFACE_STYLE_USAGE(.BOTH.,#299);
#201=CLOSED_SHELL('',(#69,#77,#95,#75,#65,#71,#59,#97));
#202=POINT_STYLE(' ',#300,POSITIVE_LENGTH_MEASURE(1.0E-006),#301);
#203=CARTESIAN_POINT('',(-30.0000000000001,8.81954064330389E-015,9.99999999999997));
#204=POINT_STYLE(' ',#302,POSITIVE_LENGTH_MEASURE(1.0E-006),#303);
#205=CARTESIAN_POINT('',(18.5000000000001,1.78327814784099E-014,9.99999999999997));
#206=CURVE_STYLE('',#304,POSITIVE_LENGTH_MEASURE(1.0E-006),#305);
#207=CIRCLE('',#306,14.0);
#208=POINT_STYLE(' ',#307,POSITIVE_LENGTH_MEASURE(1.0E-006),#308);
#209=CARTESIAN_POINT('',(30.0000000000001,2.11518814998611E-014,-2.8421709430404E-014));
#210=CURVE_STYLE('',#309,POSITIVE_LENGTH_MEASURE(1.0E-006),#310);
#211=LINE('',#311,#312);
#212=CURVE_STYLE('',#313,POSITIVE_LENGTH_MEASURE(1.0E-006),#314);
#213=LINE('',#315,#316);
#214=POINT_STYLE(' ',#317,POSITIVE_LENGTH_MEASURE(1.0E-006),#318);
#215=CARTESIAN_POINT('',(-30.0000000000001,8.2072374663927E-015,-2.8421709430404E-014));
#216=CURVE_STYLE('',#319,POSITIVE_LENGTH_MEASURE(1.0E-006),#320);
#217=LINE('',#321,#322);
#218=CURVE_STYLE('',#323,POSITIVE_LENGTH_MEASURE(1.0E-006),#324);
#219=CIRCLE('',#325,14.0);
#220=CURVE_STYLE('',#326,POSITIVE_LENGTH_MEASURE(1.0E-006),#327);
#221=CIRCLE('',#328,30.0000000000001);
#222=POINT_STYLE(' ',#329,POSITIVE_LENGTH_MEASURE(1.0E-006),#330);
#223=CARTESIAN_POINT('',(-18.5000000000001,1.02278379501996E-014,9.99999999999997));
#224=PRODUCT_CONTEXT('',#45,'mechanical');
#225=PRODUCT_DEFINITION_FORMATION_WITH_SPECIFIED_SOURCE(' ','NONE',#128,.NOT_KNOWN.);
#226=CARTESIAN_POINT('',(0.0,0.0,0.0));
#227=DIRECTION('',(0.0,0.0,1.0));
#228=DIRECTION('',(1.0,0.0,0.0));
#229= (NAMED_UNIT(#136)LENGTH_UNIT()SI_UNIT(.MILLI.,.METRE.));
#230=SURFACE_SIDE_STYLE('',(#332));
#231=EDGE_LOOP('',(#333,#334));
#232=EDGE_LOOP('',(#335,#336));
#233=AXIS2_PLACEMENT_3D('',#337,#338,#339);
#234=PRE_DEFINED_MARKER('');
#235=COLOUR_RGB('',0.509803950786591,0.509803950786591,0.588235318660736);
#236=PRE_DEFINED_MARKER('');
#237=COLOUR_RGB('',0.509803950786591,0.509803950786591,0.588235318660736);
#238=SURFACE_SIDE_STYLE('',(#340));
#239=EDGE_LOOP('',(#341,#342));
#240=EDGE_LOOP('',(#343,#344));
#241=AXIS2_PLACEMENT_3D('',#345,#346,#347);
#242=DRAUGHTING_PRE_DEFINED_CURVE_FONT('continuous');
#243=COLOUR_RGB('',0.509803950786591,0.509803950786591,0.588235318660736);
#244=AXIS2_PLACEMENT_3D('',#348,#349,#350);
#245=SURFACE_SIDE_STYLE('',(#351));
#246=EDGE_LOOP('',(#352,#353,#354,#355));
#247=AXIS2_PLACEMENT_3D('',#356,#357,#358);
#248=SURFACE_SIDE_STYLE('',(#359));
#249=EDGE_LOOP('',(#360,#361,#362,#363));
#250=AXIS2_PLACEMENT_3D('',#364,#365,#366);
#251=DRAUGHTING_PRE_DEFINED_CURVE_FONT('continuous');
#252=COLOUR_RGB('',0.509803950786591,0.509803950786591,0.588235318660736);
#253=AXIS2_PLACEMENT_3D('',#367,#368,#369);
#254=SURFACE_SIDE_STYLE('',(#370));
#255=EDGE_LOOP('',(#371,#372,#373,#374));
#256=AXIS2_PLACEMENT_3D('',#375,#376,#377);
#257=SURFACE_SIDE_STYLE('',(#378));
#258=EDGE_LOOP('',(#379,#380,#381,#382));
#259=AXIS2_PLACEMENT_3D('',#383,#384,#385);
#260=DRAUGHTING_PRE_DEFINED_CURVE_FONT('continuous');
#261=COLOUR_RGB('',0.509803950786591,0.509803950786591,0.588235318660736);
#262=CARTESIAN_POINT('',(14.0,1.65340032091464E-014,3.70096189432331));
#263=VECTOR('',#386,1.0);
#264=PRE_DEFINED_MARKER('');
#265=COLOUR_RGB('',0.509803950786591,0.509803950786591,0.588235318660736);
#266=DRAUGHTING_PRE_DEFINED_CURVE_FONT('continuous');
#267=COLOUR_RGB('',0.509803950786591,0.509803950786591,0.588235318660736);
#268=AXIS2_PLACEMENT_3D('',#387,#388,#389);
#269=DRAUGHTING_PRE_DEFINED_CURVE_FONT('continuous');
#270=COLOUR_RGB('',0.509803950786591,0.509803950786591,0.588235318660736);
#271=AXIS2_PLACEMENT_3D('',#390,#391,#392);
#272=DRAUGHTING_PRE_DEFINED_CURVE_FONT('continuous');
#273=COLOUR_RGB('',0.509803950786591,0.509803950786591,0.588235318660736);
#274=CARTESIAN_POINT('',(30.0000000000001,2.11518814998611E-014,4.99999999999997));
#275=VECTOR('',#393,1.0);
#276=PRE_DEFINED_MARKER('');
#277=COLOUR_RGB('',0.509803950786591,0.509803950786591,0.588235318660736);
#278=DRAUGHTING_PRE_DEFINED_CURVE_FONT('continuous');
#279=COLOUR_RGB('',0.509803950786591,0.509803950786591,0.588235318660736);
#280=AXIS2_PLACEMENT_3D('',#394,#395,#396);
#281=DRAUGHTING_PRE_DEFINED_CURVE_FONT('continuous');
#282=COLOUR_RGB('',0.509803950786591,0.509803950786591,0.588235318660736);
#283=CARTESIAN_POINT('',(16.25,1.71833923437782E-014,8.70096189432331));
#284=VECTOR('',#397,1.0);
#285=SURFACE_SIDE_STYLE('',(#398));
#286=EDGE_LOOP('',(#399,#400,#401,#402));
#287=AXIS2_PLACEMENT_3D('',#403,#404,#405);
#288=SURFACE_SIDE_STYLE('',(#406));
#289=EDGE_LOOP('',(#407,#408,#409,#410));
#290=AXIS2_PLACEMENT_3D('',#411,#412,#413);
#291=DRAUGHTING_PRE_DEFINED_CURVE_FONT('continuous');
#292=COLOUR_RGB('',0.509803950786591,0.509803950786591,0.588235318660736);
#293=AXIS2_PLACEMENT_3D('',#414,#415,#416);
#294=PRE_DEFINED_MARKER('');
#295=COLOUR_RGB('',0.509803950786591,0.509803950786591,0.588235318660736);
#296=DRAUGHTING_PRE_DEFINED_CURVE_FONT('continuous');
#297=COLOUR_RGB('',0.509803950786591,0.509803950786591,0.588235318660736);
#298=AXIS2_PLACEMENT_3D('',#417,#418,#419);
#299=SURFACE_SIDE_STYLE('',(#420));
#300=PRE_DEFINED_MARKER('');
#301=COLOUR_RGB('',0.509803950786591,0.509803950786591,0.588235318660736);
#302=PRE_DEFINED_MARKER('');
#303=COLOUR_RGB('',0.509803950786591,0.509803950786591,0.588235318660736);
#304=DRAUGHTING_PRE_DEFINED_CURVE_FONT('continuous');
#305=COLOUR_RGB('',0.509803950786591,0.509803950786591,0.588235318660736);
#306=AXIS2_PLACEMENT_3D('',#421,#422,#423);
#307=PRE_DEFINED_MARKER('');
#308=COLOUR_RGB('',0.509803950786591,0.509803950786591,0.588235318660736);
#309=DRAUGHTING_PRE_DEFINED_CURVE_FONT('continuous');
#310=COLOUR_RGB('',0.509803950786591,0.509803950786591,0.588235318660736);
#311=CARTESIAN_POINT('',(-16.25,7.80332706576389E-015,8.70096189432331));
#312=VECTOR('',#424,1.0);
#313=DRAUGHTING_PRE_DEFINED_CURVE_FONT('continuous');
#314=COLOUR_RGB('',0.509803950786591,0.509803950786591,0.588235318660736);
#315=CARTESIAN_POINT('',(-14.0,8.45271620039566E-015,3.70096189432331));
#316=VECTOR('',#425,1.0);
#317=PRE_DEFINED_MARKER('');
#318=COLOUR_RGB('',0.509803950786591,0.509803950786591,0.588235318660736);
#319=DRAUGHTING_PRE_DEFINED_CURVE_FONT('continuous');
#320=COLOUR_RGB('',0.509803950786591,0.509803950786591,0.588235318660736);
#321=CARTESIAN_POINT('',(-30.0000000000001,3.83483790968094E-015,4.99999999999997));
#322=VECTOR('',#426,1.0);
#323=DRAUGHTING_PRE_DEFINED_CURVE_FONT('continuous');
#324=COLOUR_RGB('',0.509803950786591,0.509803950786591,0.588235318660736);
#325=AXIS2_PLACEMENT_3D('',#427,#428,#429);
#326=DRAUGHTING_PRE_DEFINED_CURVE_FONT('continuous');
#327=COLOUR_RGB('',0.509803950786591,0.509803950786591,0.588235318660736);
#328=AXIS2_PLACEMENT_3D('',#430,#431,#432);
#329=PRE_DEFINED_MARKER('');
#330=COLOUR_RGB('',0.509803950786591,0.509803950786591,0.588235318660736);
#332=SURFACE_STYLE_FILL_AREA(#433);
#333=ORIENTED_EDGE('',*,*,#123,.F.);
#334=ORIENTED_EDGE('',*,*,#83,.F.);
#335=ORIENTED_EDGE('',*,*,#125,.T.);
#336=ORIENTED_EDGE('',*,*,#67,.T.);
#337=CARTESIAN_POINT('',(-22.0,9.1869225494506E-015,-2.8421709430404E-014));
#338=DIRECTION('',(0.0,0.0,-1.0));
#339=DIRECTION('',(1.0,1.22460635382238E-016,0.0));
#340=SURFACE_STYLE_FILL_AREA(#434);
#341=ORIENTED_EDGE('',*,*,#99,.F.);
#342=ORIENTED_EDGE('',*,*,#73,.F.);
#343=ORIENTED_EDGE('',*,*,#85,.T.);
#344=ORIENTED_EDGE('',*,*,#103,.T.);
#345=CARTESIAN_POINT('',(-24.2500000000001,9.52368929675175E-015,9.99999999999997));
#346=DIRECTION('',(0.0,0.0,1.0));
#347=DIRECTION('',(-1.0,-1.22460635382238E-016,0.0));
#348=CARTESIAN_POINT('',(0.0,1.2493359704771E-014,-2.8421709430404E-014));
#349=DIRECTION('',(-0.0,0.0,-1.0));
#350=DIRECTION('',(-1.0,-1.66156757787431E-016,0.0));
#351=SURFACE_STYLE_FILL_AREA(#435);
#352=ORIENTED_EDGE('',*,*,#117,.F.);
#353=ORIENTED_EDGE('',*,*,#111,.F.);
#354=ORIENTED_EDGE('',*,*,#79,.F.);
#355=ORIENTED_EDGE('',*,*,#83,.T.);
#356=CARTESIAN_POINT('',(0.0,1.2493359704771E-014,3.70096189432331));
#357=DIRECTION('',(0.0,-0.0,1.0));
#358=DIRECTION('',(-1.0,-1.66156757787431E-016,0.0));
#359=SURFACE_STYLE_FILL_AREA(#436);
#360=ORIENTED_EDGE('',*,*,#121,.T.);
#361=ORIENTED_EDGE('',*,*,#67,.F.);
#362=ORIENTED_EDGE('',*,*,#87,.T.);
#363=ORIENTED_EDGE('',*,*,#73,.T.);
#364=CARTESIAN_POINT('',(0.0,1.2493359704771E-014,4.99999999999997));
#365=DIRECTION('',(0.0,-0.0,1.0));
#366=DIRECTION('',(-1.0,-1.66156757787431E-016,0.0));
#367=CARTESIAN_POINT('',(0.0,1.2493359704771E-014,9.99999999999997));
#368=DIRECTION('',(-0.0,0.0,-1.0));
#369=DIRECTION('',(-1.0,-1.66156757787431E-016,0.0));
#370=SURFACE_STYLE_FILL_AREA(#437);
#371=ORIENTED_EDGE('',*,*,#115,.T.);
#372=ORIENTED_EDGE('',*,*,#91,.T.);
#373=ORIENTED_EDGE('',*,*,#93,.T.);
#374=ORIENTED_EDGE('',*,*,#85,.F.);
#375=CARTESIAN_POINT('',(0.0,1.2493359704771E-014,8.70096189432331));
#376=DIRECTION('',(0.0,-0.0,1.0));
#377=DIRECTION('',(-1.0,-1.66156757787431E-016,0.0));
#378=SURFACE_STYLE_FILL_AREA(#438);
#379=ORIENTED_EDGE('',*,*,#121,.F.);
#380=ORIENTED_EDGE('',*,*,#99,.T.);
#381=ORIENTED_EDGE('',*,*,#87,.F.);
#382=ORIENTED_EDGE('',*,*,#125,.F.);
#383=CARTESIAN_POINT('',(0.0,1.2493359704771E-014,4.99999999999997));
#384=DIRECTION('',(0.0,-0.0,1.0));
#385=DIRECTION('',(-1.0,-1.66156757787431E-016,0.0));
#386=DIRECTION('',(0.0,0.0,1.0));
#387=CARTESIAN_POINT('',(0.0,1.2493359704771E-014,-2.8421709430404E-014));
#388=DIRECTION('',(-0.0,0.0,-1.0));
#389=DIRECTION('',(-1.0,-1.66156757787431E-016,0.0));
#390=CARTESIAN_POINT('',(0.0,1.2493359704771E-014,9.99999999999997));
#391=DIRECTION('',(-0.0,0.0,-1.0));
#392=DIRECTION('',(-1.0,-1.66156757787431E-016,0.0));
#393=DIRECTION('',(-0.0,-0.0,1.0));
#394=CARTESIAN_POINT('',(0.0,1.2493359704771E-014,7.40192378864666));
#395=DIRECTION('',(-0.0,0.0,-1.0));
#396=DIRECTION('',(-1.0,-1.66156757787431E-016,0.0));
#397=DIRECTION('',(0.866025403784441,2.49949994458976E-016,0.499999999999995));
#398=SURFACE_STYLE_FILL_AREA(#439);
#399=ORIENTED_EDGE('',*,*,#115,.F.);
#400=ORIENTED_EDGE('',*,*,#103,.F.);
#401=ORIENTED_EDGE('',*,*,#93,.F.);
#402=ORIENTED_EDGE('',*,*,#111,.T.);
#403=CARTESIAN_POINT('',(0.0,1.2493359704771E-014,8.70096189432331));
#404=DIRECTION('',(0.0,-0.0,1.0));
#405=DIRECTION('',(-1.0,-1.66156757787431E-016,0.0));
#406=SURFACE_STYLE_FILL_AREA(#440);
#407=ORIENTED_EDGE('',*,*,#117,.T.);
#408=ORIENTED_EDGE('',*,*,#123,.T.);
#409=ORIENTED_EDGE('',*,*,#79,.T.);
#410=ORIENTED_EDGE('',*,*,#91,.F.);
#411=CARTESIAN_POINT('',(0.0,1.2493359704771E-014,3.70096189432331));
#412=DIRECTION('',(0.0,-0.0,1.0));
#413=DIRECTION('',(-1.0,-1.66156757787431E-016,0.0));
#414=CARTESIAN_POINT('',(0.0,1.2493359704771E-014,9.99999999999997));
#415=DIRECTION('',(-0.0,0.0,-1.0));
#416=DIRECTION('',(-1.0,-1.66156757787431E-016,0.0));
#417=CARTESIAN_POINT('',(0.0,1.2493359704771E-014,9.99999999999997));
#418=DIRECTION('',(-0.0,0.0,-1.0));
#419=DIRECTION('',(-1.0,-1.66156757787431E-016,0.0));
#420=SURFACE_STYLE_FILL_AREA(#441);
#421=CARTESIAN_POINT('',(0.0,1.2493359704771E-014,7.40192378864666));
#422=DIRECTION('',(-0.0,0.0,-1.0));
#423=DIRECTION('',(-1.0,-1.66156757787431E-016,0.0));
#424=DIRECTION('',(0.866025403784441,2.49949994458976E-016,-0.499999999999995));
#425=DIRECTION('',(0.0,0.0,-1.0));
#426=DIRECTION('',(0.0,0.0,-1.0));
#427=CARTESIAN_POINT('',(0.0,1.2493359704771E-014,-2.8421709430404E-014));
#428=DIRECTION('',(-0.0,0.0,-1.0));
#429=DIRECTION('',(-1.0,-1.66156757787431E-016,0.0));
#430=CARTESIAN_POINT('',(0.0,1.2493359704771E-014,-2.8421709430404E-014));
#431=DIRECTION('',(-0.0,0.0,-1.0));
#432=DIRECTION('',(-1.0,-1.66156757787431E-016,0.0));
#433=FILL_AREA_STYLE('',(#442));
#434=FILL_AREA_STYLE('',(#443));
#435=FILL_AREA_STYLE('',(#444));
#436=FILL_AREA_STYLE('',(#445));
#437=FILL_AREA_STYLE('',(#446));
#438=FILL_AREA_STYLE('',(#447));
#439=FILL_AREA_STYLE('',(#448));
#440=FILL_AREA_STYLE('',(#449));
#441=FILL_AREA_STYLE('',(#450));
#442=FILL_AREA_STYLE_COLOUR('',#451);
#443=FILL_AREA_STYLE_COLOUR('',#452);
#444=FILL_AREA_STYLE_COLOUR('',#453);
#445=FILL_AREA_STYLE_COLOUR('',#454);
#446=FILL_AREA_STYLE_COLOUR('',#455);
#447=FILL_AREA_STYLE_COLOUR('',#456);
#448=FILL_AREA_STYLE_COLOUR('',#457);
#449=FILL_AREA_STYLE_COLOUR('',#458);
#450=FILL_AREA_STYLE_COLOUR('',#459);
#451=COLOUR_RGB('',0.509803950786591,0.509803950786591,0.588235318660736);
#452=COLOUR_RGB('',0.509803950786591,0.509803950786591,0.588235318660736);
#453=COLOUR_RGB('',0.509803950786591,0.509803950786591,0.588235318660736);
#454=COLOUR_RGB('',0.509803950786591,0.509803950786591,0.588235318660736);
#455=COLOUR_RGB('',0.509803950786591,0.509803950786591,0.588235318660736);
#456=COLOUR_RGB('',0.509803950786591,0.509803950786591,0.588235318660736);
#457=COLOUR_RGB('',0.509803950786591,0.509803950786591,0.588235318660736);
#458=COLOUR_RGB('',0.509803950786591,0.509803950786591,0.588235318660736);
#459=COLOUR_RGB('',0.509803950786591,0.509803950786591,0.588235318660736);
ENDSEC;
END-ISO-10303-21;
