ISO-10303-21;
HEADER;
FILE_DESCRIPTION(('STEP AP214'),'1');
FILE_NAME(' ','  ',('TraceParts'),('TraceParts S.A.'),'XStep 1.0',' ',' ');
FILE_SCHEMA(('automotive_design'));
ENDSEC;
DATA;
#1=MECHANICAL_DESIGN_GEOMETRIC_PRESENTATION_REPRESENTATION(' ',(#10,#11,#12,#13,#14,#15,#16,#17,#18,#19,#20,#21,#22,#23,#24,#25,#26,#27,#28,#29,#30,#31,#32,#33,#34,#35,#36,#37,#38,#39,#40,#41,#42,#43,#44),#6);
#2=PRODUCT_DEFINITION_CONTEXT('',#45,'design');
#3=APPLICATION_PROTOCOL_DEFINITION('INTERNATIONAL STANDARD','automotive_design',1994,#45);
#4=PRODUCT_CATEGORY_RELATIONSHIP('NONE','NONE',#46,#47);
#5=SHAPE_DEFINITION_REPRESENTATION(#48,#49);
#6= (GEOMETRIC_REPRESENTATION_CONTEXT(3)GLOBAL_UNCERTAINTY_ASSIGNED_CONTEXT((#52))GLOBAL_UNIT_ASSIGNED_CONTEXT((#54,#55,#56))REPRESENTATION_CONTEXT('NONE','WORKSPACE'));
#10=STYLED_ITEM('',(#58),#59);
#11=STYLED_ITEM('',(#60),#61);
#12=STYLED_ITEM('',(#62),#63);
#13=STYLED_ITEM('',(#64),#65);
#14=STYLED_ITEM('',(#66),#67);
#15=STYLED_ITEM('',(#68),#69);
#16=STYLED_ITEM('',(#70),#71);
#17=STYLED_ITEM('',(#72),#73);
#18=STYLED_ITEM('',(#74),#75);
#19=STYLED_ITEM('',(#76),#77);
#20=STYLED_ITEM('',(#78),#79);
#21=STYLED_ITEM('',(#80),#81);
#22=STYLED_ITEM('',(#82),#83);
#23=STYLED_ITEM('',(#84),#85);
#24=STYLED_ITEM('',(#86),#87);
#25=STYLED_ITEM('',(#88),#89);
#26=STYLED_ITEM('',(#90),#91);
#27=STYLED_ITEM('',(#92),#93);
#28=STYLED_ITEM('',(#94),#95);
#29=STYLED_ITEM('',(#96),#97);
#30=STYLED_ITEM('',(#98),#99);
#31=STYLED_ITEM('',(#100),#101);
#32=STYLED_ITEM('',(#102),#103);
#33=STYLED_ITEM('',(#104),#105);
#34=STYLED_ITEM('',(#106),#107);
#35=STYLED_ITEM('',(#108),#109);
#36=STYLED_ITEM('',(#110),#111);
#37=STYLED_ITEM('',(#112),#113);
#38=STYLED_ITEM('',(#114),#115);
#39=STYLED_ITEM('',(#116),#117);
#40=STYLED_ITEM('',(#118),#119);
#41=STYLED_ITEM('',(#120),#121);
#42=STYLED_ITEM('',(#122),#123);
#43=STYLED_ITEM('',(#124),#125);
#44=STYLED_ITEM('',(#126),#127);
#45=APPLICATION_CONTEXT(' ');
#46=PRODUCT_CATEGORY('part','NONE');
#47=PRODUCT_RELATED_PRODUCT_CATEGORY('detail',' ',(#128));
#48=PRODUCT_DEFINITION_SHAPE('NONE','NONE',#129);
#49=ADVANCED_BREP_SHAPE_REPRESENTATION('1',(#63,#130),#6);
#52=UNCERTAINTY_MEASURE_WITH_UNIT(LENGTH_MEASURE(1.0E-006),#54,'','');
#54= (CONVERSION_BASED_UNIT('MILLIMETRE',#133)LENGTH_UNIT()NAMED_UNIT(#136));
#55= (NAMED_UNIT(#138)PLANE_ANGLE_UNIT()SI_UNIT($,.RADIAN.));
#56= (NAMED_UNIT(#138)SOLID_ANGLE_UNIT()SI_UNIT($,.STERADIAN.));
#58=PRESENTATION_STYLE_ASSIGNMENT((#144));
#59=EDGE_CURVE('',#75,#115,#145,.T.);
#60=PRESENTATION_STYLE_ASSIGNMENT((#146));
#61=ADVANCED_FACE('',(#147),#148,.F.);
#62=PRESENTATION_STYLE_ASSIGNMENT((#149));
#63=MANIFOLD_SOLID_BREP('1',#150);
#64=PRESENTATION_STYLE_ASSIGNMENT((#151));
#65=EDGE_CURVE('',#89,#83,#152,.T.);
#66=PRESENTATION_STYLE_ASSIGNMENT((#153));
#67=VERTEX_POINT('',#154);
#68=PRESENTATION_STYLE_ASSIGNMENT((#155));
#69=ADVANCED_FACE('',(#156),#157,.F.);
#70=PRESENTATION_STYLE_ASSIGNMENT((#158));
#71=EDGE_CURVE('',#67,#83,#159,.T.);
#72=PRESENTATION_STYLE_ASSIGNMENT((#160));
#73=ADVANCED_FACE('',(#161,#162),#163,.T.);
#74=PRESENTATION_STYLE_ASSIGNMENT((#164));
#75=VERTEX_POINT('',#165);
#76=PRESENTATION_STYLE_ASSIGNMENT((#166));
#77=ADVANCED_FACE('',(#167),#168,.T.);
#78=PRESENTATION_STYLE_ASSIGNMENT((#169));
#79=ADVANCED_FACE('',(#170),#171,.T.);
#80=PRESENTATION_STYLE_ASSIGNMENT((#172));
#81=VERTEX_POINT('',#173);
#82=PRESENTATION_STYLE_ASSIGNMENT((#174));
#83=VERTEX_POINT('',#175);
#84=PRESENTATION_STYLE_ASSIGNMENT((#176));
#85=ADVANCED_FACE('',(#177),#178,.F.);
#86=PRESENTATION_STYLE_ASSIGNMENT((#179));
#87=VERTEX_POINT('',#180);
#88=PRESENTATION_STYLE_ASSIGNMENT((#181));
#89=VERTEX_POINT('',#182);
#90=PRESENTATION_STYLE_ASSIGNMENT((#183));
#91=EDGE_CURVE('',#111,#89,#184,.T.);
#92=PRESENTATION_STYLE_ASSIGNMENT((#185));
#93=EDGE_CURVE('',#105,#113,#186,.T.);
#94=PRESENTATION_STYLE_ASSIGNMENT((#187));
#95=EDGE_CURVE('',#115,#75,#188,.T.);
#96=PRESENTATION_STYLE_ASSIGNMENT((#189));
#97=EDGE_CURVE('',#89,#111,#190,.T.);
#98=PRESENTATION_STYLE_ASSIGNMENT((#191));
#99=ADVANCED_FACE('',(#192),#193,.F.);
#100=PRESENTATION_STYLE_ASSIGNMENT((#194));
#101=EDGE_CURVE('',#81,#75,#195,.T.);
#102=PRESENTATION_STYLE_ASSIGNMENT((#196));
#103=EDGE_CURVE('',#81,#87,#197,.T.);
#104=PRESENTATION_STYLE_ASSIGNMENT((#198));
#105=VERTEX_POINT('',#199);
#106=PRESENTATION_STYLE_ASSIGNMENT((#200));
#107=EDGE_CURVE('',#87,#113,#201,.T.);
#108=PRESENTATION_STYLE_ASSIGNMENT((#202));
#109=EDGE_CURVE('',#113,#105,#203,.T.);
#110=PRESENTATION_STYLE_ASSIGNMENT((#204));
#111=VERTEX_POINT('',#205);
#112=PRESENTATION_STYLE_ASSIGNMENT((#206));
#113=VERTEX_POINT('',#207);
#114=PRESENTATION_STYLE_ASSIGNMENT((#208));
#115=VERTEX_POINT('',#209);
#116=PRESENTATION_STYLE_ASSIGNMENT((#210));
#117=EDGE_CURVE('',#105,#81,#211,.T.);
#118=PRESENTATION_STYLE_ASSIGNMENT((#212));
#119=EDGE_CURVE('',#83,#67,#213,.T.);
#120=PRESENTATION_STYLE_ASSIGNMENT((#214));
#121=ADVANCED_FACE('',(#215,#216),#217,.T.);
#122=PRESENTATION_STYLE_ASSIGNMENT((#218));
#123=EDGE_CURVE('',#67,#111,#219,.T.);
#124=PRESENTATION_STYLE_ASSIGNMENT((#220));
#125=EDGE_CURVE('',#87,#81,#221,.T.);
#126=PRESENTATION_STYLE_ASSIGNMENT((#222));
#127=EDGE_CURVE('',#115,#87,#223,.T.);
#128=PRODUCT('1','1','PART-1-DESC',(#224));
#129=PRODUCT_DEFINITION('NONE','NONE',#225,#2);
#130=AXIS2_PLACEMENT_3D('',#226,#227,#228);
#133=LENGTH_MEASURE_WITH_UNIT(LENGTH_MEASURE(1.0),#229);
#136=DIMENSIONAL_EXPONENTS(1.0,0.0,0.0,0.0,0.0,0.0,0.0);
#138=DIMENSIONAL_EXPONENTS(0.0,0.0,0.0,0.0,0.0,0.0,0.0);
#144=CURVE_STYLE('',#230,POSITIVE_LENGTH_MEASURE(1.0E-006),#231);
#145=CIRCLE('',#232,9.5);
#146=SURFACE_STYLE_USAGE(.BOTH.,#233);
#147=FACE_OUTER_BOUND('',#234,.T.);
#148=CONICAL_SURFACE('',#235,11.25,1.0471975511966);
#149=SURFACE_STYLE_USAGE(.BOTH.,#236);
#150=CLOSED_SHELL('',(#69,#79,#61,#99,#73,#77,#121,#85));
#151=CURVE_STYLE('',#237,POSITIVE_LENGTH_MEASURE(1.0E-006),#238);
#152=LINE('',#239,#240);
#153=POINT_STYLE(' ',#241,POSITIVE_LENGTH_MEASURE(1.0E-006),#242);
#154=CARTESIAN_POINT('',(21.9999999999999,1.86896439509482E-014,-2.8421709430404E-014));
#155=SURFACE_STYLE_USAGE(.BOTH.,#243);
#156=FACE_OUTER_BOUND('',#244,.T.);
#157=CYLINDRICAL_SURFACE('',#245,9.5);
#158=CURVE_STYLE('',#246,POSITIVE_LENGTH_MEASURE(1.0E-006),#247);
#159=CIRCLE('',#248,21.9999999999999);
#160=SURFACE_STYLE_USAGE(.BOTH.,#249);
#161=FACE_OUTER_BOUND('',#250,.T.);
#162=FACE_BOUND('',#251,.T.);
#163=PLANE('',#252);
#164=POINT_STYLE(' ',#253,POSITIVE_LENGTH_MEASURE(1.0E-006),#254);
#165=CARTESIAN_POINT('',(-9.5,1.07176804917286E-014,-2.8421709430404E-014));
#166=SURFACE_STYLE_USAGE(.BOTH.,#255);
#167=FACE_OUTER_BOUND('',#256,.T.);
#168=CYLINDRICAL_SURFACE('',#257,21.9999999999999);
#169=SURFACE_STYLE_USAGE(.BOTH.,#258);
#170=FACE_OUTER_BOUND('',#259,.T.);
#171=CYLINDRICAL_SURFACE('',#260,21.9999999999999);
#172=POINT_STYLE(' ',#261,POSITIVE_LENGTH_MEASURE(1.0E-006),#262);
#173=CARTESIAN_POINT('',(-9.5,1.1022563024161E-014,4.97927405783628));
#174=POINT_STYLE(' ',#263,POSITIVE_LENGTH_MEASURE(1.0E-006),#264);
#175=CARTESIAN_POINT('',(-21.9999999999999,9.18692254945061E-015,-2.8421709430404E-014));
#176=SURFACE_STYLE_USAGE(.BOTH.,#265);
#177=FACE_OUTER_BOUND('',#266,.T.);
#178=CYLINDRICAL_SURFACE('',#267,9.5);
#179=POINT_STYLE(' ',#268,POSITIVE_LENGTH_MEASURE(1.0E-006),#269);
#180=CARTESIAN_POINT('',(9.5,1.50646580422831E-014,4.97927405783628));
#181=POINT_STYLE(' ',#270,POSITIVE_LENGTH_MEASURE(1.0E-006),#271);
#182=CARTESIAN_POINT('',(-21.9999999999999,9.61553477328844E-015,6.99999999999997));
#183=CURVE_STYLE('',#272,POSITIVE_LENGTH_MEASURE(1.0E-006),#273);
#184=CIRCLE('',#274,21.9999999999999);
#185=CURVE_STYLE('',#275,POSITIVE_LENGTH_MEASURE(1.0E-006),#276);
#186=CIRCLE('',#277,13.0000000000001);
#187=CURVE_STYLE('',#278,POSITIVE_LENGTH_MEASURE(1.0E-006),#279);
#188=CIRCLE('',#280,9.5);
#189=CURVE_STYLE('',#281,POSITIVE_LENGTH_MEASURE(1.0E-006),#282);
#190=CIRCLE('',#283,21.9999999999999);
#191=SURFACE_STYLE_USAGE(.BOTH.,#284);
#192=FACE_OUTER_BOUND('',#285,.T.);
#193=CONICAL_SURFACE('',#286,11.25,1.0471975511966);
#194=CURVE_STYLE('',#287,POSITIVE_LENGTH_MEASURE(1.0E-006),#288);
#195=LINE('',#289,#290);
#196=CURVE_STYLE('',#291,POSITIVE_LENGTH_MEASURE(1.0E-006),#292);
#197=CIRCLE('',#293,9.5);
#198=POINT_STYLE(' ',#294,POSITIVE_LENGTH_MEASURE(1.0E-006),#295);
#199=CARTESIAN_POINT('',(-13.0000000000001,1.07176804917286E-014,6.99999999999997));
#200=CURVE_STYLE('',#296,POSITIVE_LENGTH_MEASURE(1.0E-006),#297);
#201=LINE('',#298,#299);
#202=CURVE_STYLE('',#300,POSITIVE_LENGTH_MEASURE(1.0E-006),#301);
#203=CIRCLE('',#302,13.0000000000001);
#204=POINT_STYLE(' ',#303,POSITIVE_LENGTH_MEASURE(1.0E-006),#304);
#205=CARTESIAN_POINT('',(21.9999999999999,1.86896439509482E-014,6.99999999999997));
#206=POINT_STYLE(' ',#305,POSITIVE_LENGTH_MEASURE(1.0E-006),#306);
#207=CARTESIAN_POINT('',(13.0000000000001,1.60796540967094E-014,6.99999999999997));
#208=POINT_STYLE(' ',#307,POSITIVE_LENGTH_MEASURE(1.0E-006),#308);
#209=CARTESIAN_POINT('',(9.5,1.50646580422831E-014,-2.8421709430404E-014));
#210=CURVE_STYLE('',#309,POSITIVE_LENGTH_MEASURE(1.0E-006),#310);
#211=LINE('',#311,#312);
#212=CURVE_STYLE('',#313,POSITIVE_LENGTH_MEASURE(1.0E-006),#314);
#213=CIRCLE('',#315,21.9999999999999);
#214=SURFACE_STYLE_USAGE(.BOTH.,#316);
#215=FACE_BOUND('',#317,.T.);
#216=FACE_OUTER_BOUND('',#318,.T.);
#217=PLANE('',#319);
#218=CURVE_STYLE('',#320,POSITIVE_LENGTH_MEASURE(1.0E-006),#321);
#219=LINE('',#322,#323);
#220=CURVE_STYLE('',#324,POSITIVE_LENGTH_MEASURE(1.0E-006),#325);
#221=CIRCLE('',#326,9.5);
#222=CURVE_STYLE('',#327,POSITIVE_LENGTH_MEASURE(1.0E-006),#328);
#223=LINE('',#329,#330);
#224=PRODUCT_CONTEXT('',#45,'mechanical');
#225=PRODUCT_DEFINITION_FORMATION_WITH_SPECIFIED_SOURCE(' ','NONE',#128,.NOT_KNOWN.);
#226=CARTESIAN_POINT('',(0.0,0.0,0.0));
#227=DIRECTION('',(0.0,0.0,1.0));
#228=DIRECTION('',(1.0,0.0,0.0));
#229= (NAMED_UNIT(#136)LENGTH_UNIT()SI_UNIT(.MILLI.,.METRE.));
#230=DRAUGHTING_PRE_DEFINED_CURVE_FONT('continuous');
#231=COLOUR_RGB('',0.509803950786591,0.509803950786591,0.588235318660736);
#232=AXIS2_PLACEMENT_3D('',#332,#333,#334);
#233=SURFACE_SIDE_STYLE('',(#335));
#234=EDGE_LOOP('',(#336,#337,#338,#339));
#235=AXIS2_PLACEMENT_3D('',#340,#341,#342);
#236=SURFACE_SIDE_STYLE('',(#343));
#237=DRAUGHTING_PRE_DEFINED_CURVE_FONT('continuous');
#238=COLOUR_RGB('',0.509803950786591,0.509803950786591,0.588235318660736);
#239=CARTESIAN_POINT('',(-21.9999999999999,5.92969355244715E-015,3.49999999999997));
#240=VECTOR('',#344,1.0);
#241=PRE_DEFINED_MARKER('');
#242=COLOUR_RGB('',0.509803950786591,0.509803950786591,0.588235318660736);
#243=SURFACE_SIDE_STYLE('',(#345));
#244=EDGE_LOOP('',(#346,#347,#348,#349));
#245=AXIS2_PLACEMENT_3D('',#350,#351,#352);
#246=DRAUGHTING_PRE_DEFINED_CURVE_FONT('continuous');
#247=COLOUR_RGB('',0.509803950786591,0.509803950786591,0.588235318660736);
#248=AXIS2_PLACEMENT_3D('',#353,#354,#355);
#249=SURFACE_SIDE_STYLE('',(#356));
#250=EDGE_LOOP('',(#357,#358));
#251=EDGE_LOOP('',(#359,#360));
#252=AXIS2_PLACEMENT_3D('',#361,#362,#363);
#253=PRE_DEFINED_MARKER('');
#254=COLOUR_RGB('',0.509803950786591,0.509803950786591,0.588235318660736);
#255=SURFACE_SIDE_STYLE('',(#364));
#256=EDGE_LOOP('',(#365,#366,#367,#368));
#257=AXIS2_PLACEMENT_3D('',#369,#370,#371);
#258=SURFACE_SIDE_STYLE('',(#372));
#259=EDGE_LOOP('',(#373,#374,#375,#376));
#260=AXIS2_PLACEMENT_3D('',#377,#378,#379);
#261=PRE_DEFINED_MARKER('');
#262=COLOUR_RGB('',0.509803950786591,0.509803950786591,0.588235318660736);
#263=PRE_DEFINED_MARKER('');
#264=COLOUR_RGB('',0.509803950786591,0.509803950786591,0.588235318660736);
#265=SURFACE_SIDE_STYLE('',(#380));
#266=EDGE_LOOP('',(#381,#382,#383,#384));
#267=AXIS2_PLACEMENT_3D('',#385,#386,#387);
#268=PRE_DEFINED_MARKER('');
#269=COLOUR_RGB('',0.509803950786591,0.509803950786591,0.588235318660736);
#270=PRE_DEFINED_MARKER('');
#271=COLOUR_RGB('',0.509803950786591,0.509803950786591,0.588235318660736);
#272=DRAUGHTING_PRE_DEFINED_CURVE_FONT('continuous');
#273=COLOUR_RGB('',0.509803950786591,0.509803950786591,0.588235318660736);
#274=AXIS2_PLACEMENT_3D('',#388,#389,#390);
#275=DRAUGHTING_PRE_DEFINED_CURVE_FONT('continuous');
#276=COLOUR_RGB('',0.509803950786591,0.509803950786591,0.588235318660736);
#277=AXIS2_PLACEMENT_3D('',#391,#392,#393);
#278=DRAUGHTING_PRE_DEFINED_CURVE_FONT('continuous');
#279=COLOUR_RGB('',0.509803950786591,0.509803950786591,0.588235318660736);
#280=AXIS2_PLACEMENT_3D('',#394,#395,#396);
#281=DRAUGHTING_PRE_DEFINED_CURVE_FONT('continuous');
#282=COLOUR_RGB('',0.509803950786591,0.509803950786591,0.588235318660736);
#283=AXIS2_PLACEMENT_3D('',#397,#398,#399);
#284=SURFACE_SIDE_STYLE('',(#400));
#285=EDGE_LOOP('',(#401,#402,#403,#404));
#286=AXIS2_PLACEMENT_3D('',#405,#406,#407);
#287=DRAUGHTING_PRE_DEFINED_CURVE_FONT('continuous');
#288=COLOUR_RGB('',0.509803950786591,0.509803950786591,0.588235318660736);
#289=CARTESIAN_POINT('',(-9.5,9.55467946111221E-015,2.48963702891812));
#290=VECTOR('',#408,1.0);
#291=DRAUGHTING_PRE_DEFINED_CURVE_FONT('continuous');
#292=COLOUR_RGB('',0.509803950786591,0.509803950786591,0.588235318660736);
#293=AXIS2_PLACEMENT_3D('',#409,#410,#411);
#294=PRE_DEFINED_MARKER('');
#295=COLOUR_RGB('',0.509803950786591,0.509803950786591,0.588235318660736);
#296=DRAUGHTING_PRE_DEFINED_CURVE_FONT('continuous');
#297=COLOUR_RGB('',0.509803950786591,0.509803950786591,0.588235318660736);
#298=CARTESIAN_POINT('',(11.25,1.55721560694962E-014,5.98963702891812));
#299=VECTOR('',#412,1.0);
#300=DRAUGHTING_PRE_DEFINED_CURVE_FONT('continuous');
#301=COLOUR_RGB('',0.509803950786591,0.509803950786591,0.588235318660736);
#302=AXIS2_PLACEMENT_3D('',#413,#414,#415);
#303=PRE_DEFINED_MARKER('');
#304=COLOUR_RGB('',0.509803950786591,0.509803950786591,0.588235318660736);
#305=PRE_DEFINED_MARKER('');
#306=COLOUR_RGB('',0.509803950786591,0.509803950786591,0.588235318660736);
#307=PRE_DEFINED_MARKER('');
#308=COLOUR_RGB('',0.509803950786591,0.509803950786591,0.588235318660736);
#309=DRAUGHTING_PRE_DEFINED_CURVE_FONT('continuous');
#310=COLOUR_RGB('',0.509803950786591,0.509803950786591,0.588235318660736);
#311=CARTESIAN_POINT('',(-11.25,9.04718143389909E-015,5.98963702891812));
#312=VECTOR('',#416,1.0);
#313=DRAUGHTING_PRE_DEFINED_CURVE_FONT('continuous');
#314=COLOUR_RGB('',0.509803950786591,0.509803950786591,0.588235318660736);
#315=AXIS2_PLACEMENT_3D('',#417,#418,#419);
#316=SURFACE_SIDE_STYLE('',(#420));
#317=EDGE_LOOP('',(#421,#422));
#318=EDGE_LOOP('',(#423,#424));
#319=AXIS2_PLACEMENT_3D('',#425,#426,#427);
#320=DRAUGHTING_PRE_DEFINED_CURVE_FONT('continuous');
#321=COLOUR_RGB('',0.509803950786591,0.509803950786591,0.588235318660736);
#322=CARTESIAN_POINT('',(21.9999999999999,1.86896439509482E-014,3.49999999999997));
#323=VECTOR('',#428,1.0);
#324=DRAUGHTING_PRE_DEFINED_CURVE_FONT('continuous');
#325=COLOUR_RGB('',0.509803950786591,0.509803950786591,0.588235318660736);
#326=AXIS2_PLACEMENT_3D('',#429,#430,#431);
#327=DRAUGHTING_PRE_DEFINED_CURVE_FONT('continuous');
#328=COLOUR_RGB('',0.509803950786591,0.509803950786591,0.588235318660736);
#329=CARTESIAN_POINT('',(9.5,1.50646580422831E-014,2.48963702891812));
#330=VECTOR('',#432,1.0);
#332=CARTESIAN_POINT('',(0.0,1.23096687516977E-014,-2.8421709430404E-014));
#333=DIRECTION('',(-0.0,0.0,-1.0));
#334=DIRECTION('',(-1.0,-1.67538237310968E-016,0.0));
#335=SURFACE_STYLE_FILL_AREA(#433);
#336=ORIENTED_EDGE('',*,*,#117,.F.);
#337=ORIENTED_EDGE('',*,*,#109,.F.);
#338=ORIENTED_EDGE('',*,*,#107,.F.);
#339=ORIENTED_EDGE('',*,*,#125,.T.);
#340=CARTESIAN_POINT('',(0.0,1.23096687516977E-014,5.98963702891812));
#341=DIRECTION('',(0.0,-0.0,1.0));
#342=DIRECTION('',(-1.0,-1.67538237310968E-016,0.0));
#343=SURFACE_STYLE_FILL_AREA(#434);
#344=DIRECTION('',(0.0,0.0,-1.0));
#345=SURFACE_STYLE_FILL_AREA(#435);
#346=ORIENTED_EDGE('',*,*,#101,.F.);
#347=ORIENTED_EDGE('',*,*,#125,.F.);
#348=ORIENTED_EDGE('',*,*,#127,.F.);
#349=ORIENTED_EDGE('',*,*,#95,.T.);
#350=CARTESIAN_POINT('',(0.0,1.23096687516977E-014,2.48963702891812));
#351=DIRECTION('',(0.0,-0.0,1.0));
#352=DIRECTION('',(-1.0,-1.67538237310968E-016,0.0));
#353=CARTESIAN_POINT('',(0.0,1.23096687516977E-014,-2.8421709430404E-014));
#354=DIRECTION('',(-0.0,0.0,-1.0));
#355=DIRECTION('',(-1.0,-1.67538237310968E-016,0.0));
#356=SURFACE_STYLE_FILL_AREA(#436);
#357=ORIENTED_EDGE('',*,*,#97,.F.);
#358=ORIENTED_EDGE('',*,*,#91,.F.);
#359=ORIENTED_EDGE('',*,*,#93,.T.);
#360=ORIENTED_EDGE('',*,*,#109,.T.);
#361=CARTESIAN_POINT('',(-17.5,1.01666076325085E-014,6.99999999999997));
#362=DIRECTION('',(0.0,0.0,1.0));
#363=DIRECTION('',(-1.0,-1.22460635382238E-016,0.0));
#364=SURFACE_STYLE_FILL_AREA(#437);
#365=ORIENTED_EDGE('',*,*,#65,.T.);
#366=ORIENTED_EDGE('',*,*,#71,.F.);
#367=ORIENTED_EDGE('',*,*,#123,.T.);
#368=ORIENTED_EDGE('',*,*,#91,.T.);
#369=CARTESIAN_POINT('',(0.0,1.23096687516977E-014,3.49999999999997));
#370=DIRECTION('',(0.0,-0.0,1.0));
#371=DIRECTION('',(-1.0,-1.67538237310968E-016,0.0));
#372=SURFACE_STYLE_FILL_AREA(#438);
#373=ORIENTED_EDGE('',*,*,#65,.F.);
#374=ORIENTED_EDGE('',*,*,#97,.T.);
#375=ORIENTED_EDGE('',*,*,#123,.F.);
#376=ORIENTED_EDGE('',*,*,#119,.F.);
#377=CARTESIAN_POINT('',(0.0,1.23096687516977E-014,3.49999999999997));
#378=DIRECTION('',(0.0,-0.0,1.0));
#379=DIRECTION('',(-1.0,-1.67538237310968E-016,0.0));
#380=SURFACE_STYLE_FILL_AREA(#439);
#381=ORIENTED_EDGE('',*,*,#101,.T.);
#382=ORIENTED_EDGE('',*,*,#59,.T.);
#383=ORIENTED_EDGE('',*,*,#127,.T.);
#384=ORIENTED_EDGE('',*,*,#103,.F.);
#385=CARTESIAN_POINT('',(0.0,1.23096687516977E-014,2.48963702891812));
#386=DIRECTION('',(0.0,-0.0,1.0));
#387=DIRECTION('',(-1.0,-1.67538237310968E-016,0.0));
#388=CARTESIAN_POINT('',(0.0,1.23096687516977E-014,6.99999999999997));
#389=DIRECTION('',(-0.0,0.0,-1.0));
#390=DIRECTION('',(-1.0,-1.67538237310968E-016,0.0));
#391=CARTESIAN_POINT('',(0.0,1.23096687516977E-014,6.99999999999997));
#392=DIRECTION('',(-0.0,0.0,-1.0));
#393=DIRECTION('',(-1.0,-1.67538237310968E-016,0.0));
#394=CARTESIAN_POINT('',(0.0,1.23096687516977E-014,-2.8421709430404E-014));
#395=DIRECTION('',(-0.0,0.0,-1.0));
#396=DIRECTION('',(-1.0,-1.67538237310968E-016,0.0));
#397=CARTESIAN_POINT('',(0.0,1.23096687516977E-014,6.99999999999997));
#398=DIRECTION('',(-0.0,0.0,-1.0));
#399=DIRECTION('',(-1.0,-1.67538237310968E-016,0.0));
#400=SURFACE_STYLE_FILL_AREA(#440);
#401=ORIENTED_EDGE('',*,*,#117,.T.);
#402=ORIENTED_EDGE('',*,*,#103,.T.);
#403=ORIENTED_EDGE('',*,*,#107,.T.);
#404=ORIENTED_EDGE('',*,*,#93,.F.);
#405=CARTESIAN_POINT('',(0.0,1.23096687516977E-014,5.98963702891812));
#406=DIRECTION('',(0.0,-0.0,1.0));
#407=DIRECTION('',(-1.0,-1.67538237310968E-016,0.0));
#408=DIRECTION('',(0.0,0.0,-1.0));
#409=CARTESIAN_POINT('',(0.0,1.23096687516977E-014,4.97927405783628));
#410=DIRECTION('',(-0.0,0.0,-1.0));
#411=DIRECTION('',(-1.0,-1.67538237310968E-016,0.0));
#412=DIRECTION('',(0.866025403784442,2.51146390821167E-016,0.499999999999995));
#413=CARTESIAN_POINT('',(0.0,1.23096687516977E-014,6.99999999999997));
#414=DIRECTION('',(-0.0,0.0,-1.0));
#415=DIRECTION('',(-1.0,-1.67538237310968E-016,0.0));
#416=DIRECTION('',(0.866025403784442,2.51146390821167E-016,-0.499999999999995));
#417=CARTESIAN_POINT('',(0.0,1.23096687516977E-014,-2.8421709430404E-014));
#418=DIRECTION('',(-0.0,0.0,-1.0));
#419=DIRECTION('',(-1.0,-1.67538237310968E-016,0.0));
#420=SURFACE_STYLE_FILL_AREA(#441);
#421=ORIENTED_EDGE('',*,*,#59,.F.);
#422=ORIENTED_EDGE('',*,*,#95,.F.);
#423=ORIENTED_EDGE('',*,*,#119,.T.);
#424=ORIENTED_EDGE('',*,*,#71,.T.);
#425=CARTESIAN_POINT('',(-15.75,9.95230152058959E-015,-2.8421709430404E-014));
#426=DIRECTION('',(0.0,0.0,-1.0));
#427=DIRECTION('',(1.0,1.22460635382238E-016,0.0));
#428=DIRECTION('',(-0.0,-0.0,1.0));
#429=CARTESIAN_POINT('',(0.0,1.23096687516977E-014,4.97927405783628));
#430=DIRECTION('',(-0.0,0.0,-1.0));
#431=DIRECTION('',(-1.0,-1.67538237310968E-016,0.0));
#432=DIRECTION('',(0.0,0.0,1.0));
#433=FILL_AREA_STYLE('',(#442));
#434=FILL_AREA_STYLE('',(#443));
#435=FILL_AREA_STYLE('',(#444));
#436=FILL_AREA_STYLE('',(#445));
#437=FILL_AREA_STYLE('',(#446));
#438=FILL_AREA_STYLE('',(#447));
#439=FILL_AREA_STYLE('',(#448));
#440=FILL_AREA_STYLE('',(#449));
#441=FILL_AREA_STYLE('',(#450));
#442=FILL_AREA_STYLE_COLOUR('',#451);
#443=FILL_AREA_STYLE_COLOUR('',#452);
#444=FILL_AREA_STYLE_COLOUR('',#453);
#445=FILL_AREA_STYLE_COLOUR('',#454);
#446=FILL_AREA_STYLE_COLOUR('',#455);
#447=FILL_AREA_STYLE_COLOUR('',#456);
#448=FILL_AREA_STYLE_COLOUR('',#457);
#449=FILL_AREA_STYLE_COLOUR('',#458);
#450=FILL_AREA_STYLE_COLOUR('',#459);
#451=COLOUR_RGB('',0.509803950786591,0.509803950786591,0.588235318660736);
#452=COLOUR_RGB('',0.509803950786591,0.509803950786591,0.588235318660736);
#453=COLOUR_RGB('',0.509803950786591,0.509803950786591,0.588235318660736);
#454=COLOUR_RGB('',0.509803950786591,0.509803950786591,0.588235318660736);
#455=COLOUR_RGB('',0.509803950786591,0.509803950786591,0.588235318660736);
#456=COLOUR_RGB('',0.509803950786591,0.509803950786591,0.588235318660736);
#457=COLOUR_RGB('',0.509803950786591,0.509803950786591,0.588235318660736);
#458=COLOUR_RGB('',0.509803950786591,0.509803950786591,0.588235318660736);
#459=COLOUR_RGB('',0.509803950786591,0.509803950786591,0.588235318660736);
ENDSEC;
END-ISO-10303-21;
