ISO-10303-21;
HEADER;
FILE_DESCRIPTION(('STEP AP214'),'1');
FILE_NAME(' ','  ',('TraceParts'),('TraceParts S.A.'),'XStep 1.0',' ',' ');
FILE_SCHEMA(('automotive_design'));
ENDSEC;
DATA;
#1=MECHANICAL_DESIGN_GEOMETRIC_PRESENTATION_REPRESENTATION(' ',(#10,#11,#12,#13,#14,#15,#16,#17,#18,#19,#20,#21,#22,#23,#24,#25,#26,#27,#28,#29,#30,#31,#32,#33,#34,#35,#36,#37,#38,#39,#40,#41,#42,#43,#44),#6);
#2=PRODUCT_DEFINITION_CONTEXT('',#45,'design');
#3=APPLICATION_PROTOCOL_DEFINITION('INTERNATIONAL STANDARD','automotive_design',1994,#45);
#4=PRODUCT_CATEGORY_RELATIONSHIP('NONE','NONE',#46,#47);
#5=SHAPE_DEFINITION_REPRESENTATION(#48,#49);
#6= (GEOMETRIC_REPRESENTATION_CONTEXT(3)GLOBAL_UNCERTAINTY_ASSIGNED_CONTEXT((#52))GLOBAL_UNIT_ASSIGNED_CONTEXT((#54,#55,#56))REPRESENTATION_CONTEXT('NONE','WORKSPACE'));
#10=STYLED_ITEM('',(#58),#59);
#11=STYLED_ITEM('',(#60),#61);
#12=STYLED_ITEM('',(#62),#63);
#13=STYLED_ITEM('',(#64),#65);
#14=STYLED_ITEM('',(#66),#67);
#15=STYLED_ITEM('',(#68),#69);
#16=STYLED_ITEM('',(#70),#71);
#17=STYLED_ITEM('',(#72),#73);
#18=STYLED_ITEM('',(#74),#75);
#19=STYLED_ITEM('',(#76),#77);
#20=STYLED_ITEM('',(#78),#79);
#21=STYLED_ITEM('',(#80),#81);
#22=STYLED_ITEM('',(#82),#83);
#23=STYLED_ITEM('',(#84),#85);
#24=STYLED_ITEM('',(#86),#87);
#25=STYLED_ITEM('',(#88),#89);
#26=STYLED_ITEM('',(#90),#91);
#27=STYLED_ITEM('',(#92),#93);
#28=STYLED_ITEM('',(#94),#95);
#29=STYLED_ITEM('',(#96),#97);
#30=STYLED_ITEM('',(#98),#99);
#31=STYLED_ITEM('',(#100),#101);
#32=STYLED_ITEM('',(#102),#103);
#33=STYLED_ITEM('',(#104),#105);
#34=STYLED_ITEM('',(#106),#107);
#35=STYLED_ITEM('',(#108),#109);
#36=STYLED_ITEM('',(#110),#111);
#37=STYLED_ITEM('',(#112),#113);
#38=STYLED_ITEM('',(#114),#115);
#39=STYLED_ITEM('',(#116),#117);
#40=STYLED_ITEM('',(#118),#119);
#41=STYLED_ITEM('',(#120),#121);
#42=STYLED_ITEM('',(#122),#123);
#43=STYLED_ITEM('',(#124),#125);
#44=STYLED_ITEM('',(#126),#127);
#45=APPLICATION_CONTEXT(' ');
#46=PRODUCT_CATEGORY('part','NONE');
#47=PRODUCT_RELATED_PRODUCT_CATEGORY('detail',' ',(#128));
#48=PRODUCT_DEFINITION_SHAPE('NONE','NONE',#129);
#49=ADVANCED_BREP_SHAPE_REPRESENTATION('1',(#125,#130),#6);
#52=UNCERTAINTY_MEASURE_WITH_UNIT(LENGTH_MEASURE(1.0E-006),#54,'','');
#54= (CONVERSION_BASED_UNIT('MILLIMETRE',#133)LENGTH_UNIT()NAMED_UNIT(#136));
#55= (NAMED_UNIT(#138)PLANE_ANGLE_UNIT()SI_UNIT($,.RADIAN.));
#56= (NAMED_UNIT(#138)SOLID_ANGLE_UNIT()SI_UNIT($,.STERADIAN.));
#58=PRESENTATION_STYLE_ASSIGNMENT((#144));
#59=ADVANCED_FACE('',(#145),#146,.F.);
#60=PRESENTATION_STYLE_ASSIGNMENT((#147));
#61=EDGE_CURVE('',#77,#69,#148,.T.);
#62=PRESENTATION_STYLE_ASSIGNMENT((#149));
#63=EDGE_CURVE('',#111,#85,#150,.T.);
#64=PRESENTATION_STYLE_ASSIGNMENT((#151));
#65=EDGE_CURVE('',#69,#77,#152,.T.);
#66=PRESENTATION_STYLE_ASSIGNMENT((#153));
#67=EDGE_CURVE('',#115,#85,#154,.T.);
#68=PRESENTATION_STYLE_ASSIGNMENT((#155));
#69=VERTEX_POINT('',#156);
#70=PRESENTATION_STYLE_ASSIGNMENT((#157));
#71=EDGE_CURVE('',#113,#111,#158,.T.);
#72=PRESENTATION_STYLE_ASSIGNMENT((#159));
#73=EDGE_CURVE('',#85,#115,#160,.T.);
#74=PRESENTATION_STYLE_ASSIGNMENT((#161));
#75=ADVANCED_FACE('',(#162),#163,.T.);
#76=PRESENTATION_STYLE_ASSIGNMENT((#164));
#77=VERTEX_POINT('',#165);
#78=PRESENTATION_STYLE_ASSIGNMENT((#166));
#79=EDGE_CURVE('',#127,#121,#167,.T.);
#80=PRESENTATION_STYLE_ASSIGNMENT((#168));
#81=EDGE_CURVE('',#115,#113,#169,.T.);
#82=PRESENTATION_STYLE_ASSIGNMENT((#170));
#83=EDGE_CURVE('',#69,#105,#171,.T.);
#84=PRESENTATION_STYLE_ASSIGNMENT((#172));
#85=VERTEX_POINT('',#173);
#86=PRESENTATION_STYLE_ASSIGNMENT((#174));
#87=ADVANCED_FACE('',(#175,#176),#177,.T.);
#88=PRESENTATION_STYLE_ASSIGNMENT((#178));
#89=EDGE_CURVE('',#105,#121,#179,.T.);
#90=PRESENTATION_STYLE_ASSIGNMENT((#180));
#91=EDGE_CURVE('',#117,#105,#181,.T.);
#92=PRESENTATION_STYLE_ASSIGNMENT((#182));
#93=ADVANCED_FACE('',(#183),#184,.T.);
#94=PRESENTATION_STYLE_ASSIGNMENT((#185));
#95=EDGE_CURVE('',#121,#127,#186,.T.);
#96=PRESENTATION_STYLE_ASSIGNMENT((#187));
#97=EDGE_CURVE('',#105,#117,#188,.T.);
#98=PRESENTATION_STYLE_ASSIGNMENT((#189));
#99=ADVANCED_FACE('',(#190),#191,.F.);
#100=PRESENTATION_STYLE_ASSIGNMENT((#192));
#101=ADVANCED_FACE('',(#193,#194),#195,.T.);
#102=PRESENTATION_STYLE_ASSIGNMENT((#196));
#103=EDGE_CURVE('',#117,#77,#197,.T.);
#104=PRESENTATION_STYLE_ASSIGNMENT((#198));
#105=VERTEX_POINT('',#199);
#106=PRESENTATION_STYLE_ASSIGNMENT((#200));
#107=ADVANCED_FACE('',(#201),#202,.F.);
#108=PRESENTATION_STYLE_ASSIGNMENT((#203));
#109=EDGE_CURVE('',#111,#113,#204,.T.);
#110=PRESENTATION_STYLE_ASSIGNMENT((#205));
#111=VERTEX_POINT('',#206);
#112=PRESENTATION_STYLE_ASSIGNMENT((#207));
#113=VERTEX_POINT('',#208);
#114=PRESENTATION_STYLE_ASSIGNMENT((#209));
#115=VERTEX_POINT('',#210);
#116=PRESENTATION_STYLE_ASSIGNMENT((#211));
#117=VERTEX_POINT('',#212);
#118=PRESENTATION_STYLE_ASSIGNMENT((#213));
#119=ADVANCED_FACE('',(#214),#215,.F.);
#120=PRESENTATION_STYLE_ASSIGNMENT((#216));
#121=VERTEX_POINT('',#217);
#122=PRESENTATION_STYLE_ASSIGNMENT((#218));
#123=EDGE_CURVE('',#127,#117,#219,.T.);
#124=PRESENTATION_STYLE_ASSIGNMENT((#220));
#125=MANIFOLD_SOLID_BREP('1',#221);
#126=PRESENTATION_STYLE_ASSIGNMENT((#222));
#127=VERTEX_POINT('',#223);
#128=PRODUCT('1','1','PART-1-DESC',(#224));
#129=PRODUCT_DEFINITION('NONE','NONE',#225,#2);
#130=AXIS2_PLACEMENT_3D('',#226,#227,#228);
#133=LENGTH_MEASURE_WITH_UNIT(LENGTH_MEASURE(1.0),#229);
#136=DIMENSIONAL_EXPONENTS(1.0,0.0,0.0,0.0,0.0,0.0,0.0);
#138=DIMENSIONAL_EXPONENTS(0.0,0.0,0.0,0.0,0.0,0.0,0.0);
#144=SURFACE_STYLE_USAGE(.BOTH.,#230);
#145=FACE_OUTER_BOUND('',#231,.T.);
#146=CYLINDRICAL_SURFACE('',#232,7.10000000000008);
#147=CURVE_STYLE('',#233,POSITIVE_LENGTH_MEASURE(1.0E-006),#234);
#148=CIRCLE('',#235,7.10000000000008);
#149=CURVE_STYLE('',#236,POSITIVE_LENGTH_MEASURE(1.0E-006),#237);
#150=LINE('',#238,#239);
#151=CURVE_STYLE('',#240,POSITIVE_LENGTH_MEASURE(1.0E-006),#241);
#152=CIRCLE('',#242,7.10000000000008);
#153=CURVE_STYLE('',#243,POSITIVE_LENGTH_MEASURE(1.0E-006),#244);
#154=CIRCLE('',#245,18.0);
#155=POINT_STYLE(' ',#246,POSITIVE_LENGTH_MEASURE(1.0E-006),#247);
#156=CARTESIAN_POINT('',(7.10000000000014,1.42442210092237E-014,-2.8421709430404E-014));
#157=CURVE_STYLE('',#248,POSITIVE_LENGTH_MEASURE(1.0E-006),#249);
#158=CIRCLE('',#250,18.0);
#159=CURVE_STYLE('',#251,POSITIVE_LENGTH_MEASURE(1.0E-006),#252);
#160=CIRCLE('',#253,18.0);
#161=SURFACE_STYLE_USAGE(.BOTH.,#254);
#162=FACE_OUTER_BOUND('',#255,.T.);
#163=CYLINDRICAL_SURFACE('',#256,18.0);
#164=POINT_STYLE(' ',#257,POSITIVE_LENGTH_MEASURE(1.0E-006),#258);
#165=CARTESIAN_POINT('',(-7.10000000000002,1.09013714448019E-014,-2.8421709430404E-014));
#166=CURVE_STYLE('',#259,POSITIVE_LENGTH_MEASURE(1.0E-006),#260);
#167=CIRCLE('',#261,10.0);
#168=CURVE_STYLE('',#262,POSITIVE_LENGTH_MEASURE(1.0E-006),#263);
#169=LINE('',#264,#265);
#170=CURVE_STYLE('',#266,POSITIVE_LENGTH_MEASURE(1.0E-006),#267);
#171=LINE('',#268,#269);
#172=POINT_STYLE(' ',#270,POSITIVE_LENGTH_MEASURE(1.0E-006),#271);
#173=CARTESIAN_POINT('',(-17.9999999999999,9.56655051913555E-015,-2.8421709430404E-014));
#174=SURFACE_STYLE_USAGE(.BOTH.,#272);
#175=FACE_BOUND('',#273,.T.);
#176=FACE_OUTER_BOUND('',#274,.T.);
#177=PLANE('',#275);
#178=CURVE_STYLE('',#276,POSITIVE_LENGTH_MEASURE(1.0E-006),#277);
#179=LINE('',#278,#279);
#180=CURVE_STYLE('',#280,POSITIVE_LENGTH_MEASURE(1.0E-006),#281);
#181=CIRCLE('',#282,7.10000000000008);
#182=SURFACE_STYLE_USAGE(.BOTH.,#283);
#183=FACE_OUTER_BOUND('',#284,.T.);
#184=CYLINDRICAL_SURFACE('',#285,18.0);
#185=CURVE_STYLE('',#286,POSITIVE_LENGTH_MEASURE(1.0E-006),#287);
#186=CIRCLE('',#288,10.0);
#187=CURVE_STYLE('',#289,POSITIVE_LENGTH_MEASURE(1.0E-006),#290);
#188=CIRCLE('',#291,7.10000000000008);
#189=SURFACE_STYLE_USAGE(.BOTH.,#292);
#190=FACE_OUTER_BOUND('',#293,.T.);
#191=CYLINDRICAL_SURFACE('',#294,7.10000000000008);
#192=SURFACE_STYLE_USAGE(.BOTH.,#295);
#193=FACE_OUTER_BOUND('',#296,.T.);
#194=FACE_BOUND('',#297,.T.);
#195=PLANE('',#298);
#196=CURVE_STYLE('',#299,POSITIVE_LENGTH_MEASURE(1.0E-006),#300);
#197=LINE('',#301,#302);
#198=POINT_STYLE(' ',#303,POSITIVE_LENGTH_MEASURE(1.0E-006),#304);
#199=CARTESIAN_POINT('',(7.10000000000014,1.42442210092237E-014,4.32568421935008));
#200=SURFACE_STYLE_USAGE(.BOTH.,#305);
#201=FACE_OUTER_BOUND('',#306,.T.);
#202=CONICAL_SURFACE('',#307,8.55000000000004,1.04719755119659);
#203=CURVE_STYLE('',#308,POSITIVE_LENGTH_MEASURE(1.0E-006),#309);
#204=CIRCLE('',#310,18.0);
#205=POINT_STYLE(' ',#311,POSITIVE_LENGTH_MEASURE(1.0E-006),#312);
#206=CARTESIAN_POINT('',(-17.9999999999999,9.93393242528226E-015,5.99999999999997));
#207=POINT_STYLE(' ',#313,POSITIVE_LENGTH_MEASURE(1.0E-006),#314);
#208=CARTESIAN_POINT('',(18.0000000000001,1.74773715589373E-014,5.99999999999997));
#209=POINT_STYLE(' ',#315,POSITIVE_LENGTH_MEASURE(1.0E-006),#316);
#210=CARTESIAN_POINT('',(18.0000000000001,1.74773715589373E-014,-2.8421709430404E-014));
#211=POINT_STYLE(' ',#317,POSITIVE_LENGTH_MEASURE(1.0E-006),#318);
#212=CARTESIAN_POINT('',(-7.10000000000002,1.11662344637842E-014,4.32568421935008));
#213=SURFACE_STYLE_USAGE(.BOTH.,#319);
#214=FACE_OUTER_BOUND('',#320,.T.);
#215=CONICAL_SURFACE('',#321,8.55000000000004,1.04719755119659);
#216=POINT_STYLE(' ',#322,POSITIVE_LENGTH_MEASURE(1.0E-006),#323);
#217=CARTESIAN_POINT('',(10.0000000000001,1.51044170270374E-014,5.99999999999997));
#218=CURVE_STYLE('',#324,POSITIVE_LENGTH_MEASURE(1.0E-006),#325);
#219=LINE('',#326,#327);
#220=SURFACE_STYLE_USAGE(.BOTH.,#328);
#221=CLOSED_SHELL('',(#59,#75,#119,#107,#101,#93,#87,#99));
#222=POINT_STYLE(' ',#329,POSITIVE_LENGTH_MEASURE(1.0E-006),#330);
#223=CARTESIAN_POINT('',(-9.99999999999994,1.09136175083402E-014,5.99999999999997));
#224=PRODUCT_CONTEXT('',#45,'mechanical');
#225=PRODUCT_DEFINITION_FORMATION_WITH_SPECIFIED_SOURCE(' ','NONE',#128,.NOT_KNOWN.);
#226=CARTESIAN_POINT('',(0.0,0.0,0.0));
#227=DIRECTION('',(0.0,0.0,1.0));
#228=DIRECTION('',(1.0,0.0,0.0));
#229= (NAMED_UNIT(#136)LENGTH_UNIT()SI_UNIT(.MILLI.,.METRE.));
#230=SURFACE_SIDE_STYLE('',(#332));
#231=EDGE_LOOP('',(#333,#334,#335,#336));
#232=AXIS2_PLACEMENT_3D('',#337,#338,#339);
#233=DRAUGHTING_PRE_DEFINED_CURVE_FONT('continuous');
#234=COLOUR_RGB('',0.509803950786591,0.509803950786591,0.588235318660736);
#235=AXIS2_PLACEMENT_3D('',#340,#341,#342);
#236=DRAUGHTING_PRE_DEFINED_CURVE_FONT('continuous');
#237=COLOUR_RGB('',0.509803950786591,0.509803950786591,0.588235318660736);
#238=CARTESIAN_POINT('',(-17.9999999999999,6.79907616538783E-015,2.99999999999997));
#239=VECTOR('',#343,1.0);
#240=DRAUGHTING_PRE_DEFINED_CURVE_FONT('continuous');
#241=COLOUR_RGB('',0.509803950786591,0.509803950786591,0.588235318660736);
#242=AXIS2_PLACEMENT_3D('',#344,#345,#346);
#243=DRAUGHTING_PRE_DEFINED_CURVE_FONT('continuous');
#244=COLOUR_RGB('',0.509803950786591,0.509803950786591,0.588235318660736);
#245=AXIS2_PLACEMENT_3D('',#347,#348,#349);
#246=PRE_DEFINED_MARKER('');
#247=COLOUR_RGB('',0.509803950786591,0.509803950786591,0.588235318660736);
#248=DRAUGHTING_PRE_DEFINED_CURVE_FONT('continuous');
#249=COLOUR_RGB('',0.509803950786591,0.509803950786591,0.588235318660736);
#250=AXIS2_PLACEMENT_3D('',#350,#351,#352);
#251=DRAUGHTING_PRE_DEFINED_CURVE_FONT('continuous');
#252=COLOUR_RGB('',0.509803950786591,0.509803950786591,0.588235318660736);
#253=AXIS2_PLACEMENT_3D('',#353,#354,#355);
#254=SURFACE_SIDE_STYLE('',(#356));
#255=EDGE_LOOP('',(#357,#358,#359,#360));
#256=AXIS2_PLACEMENT_3D('',#361,#362,#363);
#257=PRE_DEFINED_MARKER('');
#258=COLOUR_RGB('',0.509803950786591,0.509803950786591,0.588235318660736);
#259=DRAUGHTING_PRE_DEFINED_CURVE_FONT('continuous');
#260=COLOUR_RGB('',0.509803950786591,0.509803950786591,0.588235318660736);
#261=AXIS2_PLACEMENT_3D('',#364,#365,#366);
#262=DRAUGHTING_PRE_DEFINED_CURVE_FONT('continuous');
#263=COLOUR_RGB('',0.509803950786591,0.509803950786591,0.588235318660736);
#264=CARTESIAN_POINT('',(18.0000000000001,1.74773715589373E-014,2.99999999999997));
#265=VECTOR('',#367,1.0);
#266=DRAUGHTING_PRE_DEFINED_CURVE_FONT('continuous');
#267=COLOUR_RGB('',0.509803950786591,0.509803950786591,0.588235318660736);
#268=CARTESIAN_POINT('',(7.10000000000014,1.42442210092237E-014,2.16284210967503));
#269=VECTOR('',#368,1.0);
#270=PRE_DEFINED_MARKER('');
#271=COLOUR_RGB('',0.509803950786591,0.509803950786591,0.588235318660736);
#272=SURFACE_SIDE_STYLE('',(#369));
#273=EDGE_LOOP('',(#370,#371));
#274=EDGE_LOOP('',(#372,#373));
#275=AXIS2_PLACEMENT_3D('',#374,#375,#376);
#276=DRAUGHTING_PRE_DEFINED_CURVE_FONT('continuous');
#277=COLOUR_RGB('',0.509803950786591,0.509803950786591,0.588235318660736);
#278=CARTESIAN_POINT('',(8.5500000000001,1.46743190181305E-014,5.16284210967503));
#279=VECTOR('',#377,1.0);
#280=DRAUGHTING_PRE_DEFINED_CURVE_FONT('continuous');
#281=COLOUR_RGB('',0.509803950786591,0.509803950786591,0.588235318660736);
#282=AXIS2_PLACEMENT_3D('',#378,#379,#380);
#283=SURFACE_SIDE_STYLE('',(#381));
#284=EDGE_LOOP('',(#382,#383,#384,#385));
#285=AXIS2_PLACEMENT_3D('',#386,#387,#388);
#286=DRAUGHTING_PRE_DEFINED_CURVE_FONT('continuous');
#287=COLOUR_RGB('',0.509803950786591,0.509803950786591,0.588235318660736);
#288=AXIS2_PLACEMENT_3D('',#389,#390,#391);
#289=DRAUGHTING_PRE_DEFINED_CURVE_FONT('continuous');
#290=COLOUR_RGB('',0.509803950786591,0.509803950786591,0.588235318660736);
#291=AXIS2_PLACEMENT_3D('',#392,#393,#394);
#292=SURFACE_SIDE_STYLE('',(#395));
#293=EDGE_LOOP('',(#396,#397,#398,#399));
#294=AXIS2_PLACEMENT_3D('',#400,#401,#402);
#295=SURFACE_SIDE_STYLE('',(#403));
#296=EDGE_LOOP('',(#404,#405));
#297=EDGE_LOOP('',(#406,#407));
#298=AXIS2_PLACEMENT_3D('',#408,#409,#410);
#299=DRAUGHTING_PRE_DEFINED_CURVE_FONT('continuous');
#300=COLOUR_RGB('',0.509803950786591,0.509803950786591,0.588235318660736);
#301=CARTESIAN_POINT('',(-7.10000000000002,1.00322267151014E-014,2.16284210967503));
#302=VECTOR('',#411,1.0);
#303=PRE_DEFINED_MARKER('');
#304=COLOUR_RGB('',0.509803950786591,0.509803950786591,0.588235318660736);
#305=SURFACE_SIDE_STYLE('',(#412));
#306=EDGE_LOOP('',(#413,#414,#415,#416));
#307=AXIS2_PLACEMENT_3D('',#417,#418,#419);
#308=DRAUGHTING_PRE_DEFINED_CURVE_FONT('continuous');
#309=COLOUR_RGB('',0.509803950786591,0.509803950786591,0.588235318660736);
#310=AXIS2_PLACEMENT_3D('',#420,#421,#422);
#311=PRE_DEFINED_MARKER('');
#312=COLOUR_RGB('',0.509803950786591,0.509803950786591,0.588235318660736);
#313=PRE_DEFINED_MARKER('');
#314=COLOUR_RGB('',0.509803950786591,0.509803950786591,0.588235318660736);
#315=PRE_DEFINED_MARKER('');
#316=COLOUR_RGB('',0.509803950786591,0.509803950786591,0.588235318660736);
#317=PRE_DEFINED_MARKER('');
#318=COLOUR_RGB('',0.509803950786591,0.509803950786591,0.588235318660736);
#319=SURFACE_SIDE_STYLE('',(#423));
#320=EDGE_LOOP('',(#424,#425,#426,#427));
#321=AXIS2_PLACEMENT_3D('',#428,#429,#430);
#322=PRE_DEFINED_MARKER('');
#323=COLOUR_RGB('',0.509803950786591,0.509803950786591,0.588235318660736);
#324=DRAUGHTING_PRE_DEFINED_CURVE_FONT('continuous');
#325=COLOUR_RGB('',0.509803950786591,0.509803950786591,0.588235318660736);
#326=CARTESIAN_POINT('',(-8.54999999999998,9.60212870619454E-015,5.16284210967503));
#327=VECTOR('',#431,1.0);
#328=SURFACE_SIDE_STYLE('',(#432));
#329=PRE_DEFINED_MARKER('');
#330=COLOUR_RGB('',0.509803950786591,0.509803950786591,0.588235318660736);
#332=SURFACE_STYLE_FILL_AREA(#433);
#333=ORIENTED_EDGE('',*,*,#103,.F.);
#334=ORIENTED_EDGE('',*,*,#97,.F.);
#335=ORIENTED_EDGE('',*,*,#83,.F.);
#336=ORIENTED_EDGE('',*,*,#65,.T.);
#337=CARTESIAN_POINT('',(5.6843418860808E-014,1.21382238621625E-014,2.16284210967503));
#338=DIRECTION('',(0.0,-0.0,1.0));
#339=DIRECTION('',(-1.0,-1.74158681105246E-016,0.0));
#340=CARTESIAN_POINT('',(5.6843418860808E-014,1.21382238621625E-014,-2.8421709430404E-014));
#341=DIRECTION('',(-0.0,0.0,-1.0));
#342=DIRECTION('',(-1.0,-1.74158681105246E-016,0.0));
#343=DIRECTION('',(0.0,0.0,-1.0));
#344=CARTESIAN_POINT('',(5.6843418860808E-014,1.21382238621625E-014,-2.8421709430404E-014));
#345=DIRECTION('',(-0.0,0.0,-1.0));
#346=DIRECTION('',(-1.0,-1.74158681105246E-016,0.0));
#347=CARTESIAN_POINT('',(5.6843418860808E-014,1.21382238621625E-014,-2.8421709430404E-014));
#348=DIRECTION('',(-0.0,0.0,-1.0));
#349=DIRECTION('',(-1.0,-1.74158681105246E-016,0.0));
#350=CARTESIAN_POINT('',(5.6843418860808E-014,1.21382238621625E-014,5.99999999999997));
#351=DIRECTION('',(-0.0,0.0,-1.0));
#352=DIRECTION('',(-1.0,-1.74158681105246E-016,0.0));
#353=CARTESIAN_POINT('',(5.6843418860808E-014,1.21382238621625E-014,-2.8421709430404E-014));
#354=DIRECTION('',(-0.0,0.0,-1.0));
#355=DIRECTION('',(-1.0,-1.74158681105246E-016,0.0));
#356=SURFACE_STYLE_FILL_AREA(#434);
#357=ORIENTED_EDGE('',*,*,#63,.F.);
#358=ORIENTED_EDGE('',*,*,#109,.T.);
#359=ORIENTED_EDGE('',*,*,#81,.F.);
#360=ORIENTED_EDGE('',*,*,#73,.F.);
#361=CARTESIAN_POINT('',(5.6843418860808E-014,1.21382238621625E-014,2.99999999999997));
#362=DIRECTION('',(0.0,-0.0,1.0));
#363=DIRECTION('',(-1.0,-1.74158681105246E-016,0.0));
#364=CARTESIAN_POINT('',(5.6843418860808E-014,1.21382238621625E-014,5.99999999999997));
#365=DIRECTION('',(-0.0,0.0,-1.0));
#366=DIRECTION('',(-1.0,-1.74158681105246E-016,0.0));
#367=DIRECTION('',(-0.0,-0.0,1.0));
#368=DIRECTION('',(0.0,0.0,1.0));
#369=SURFACE_STYLE_FILL_AREA(#435);
#370=ORIENTED_EDGE('',*,*,#61,.F.);
#371=ORIENTED_EDGE('',*,*,#65,.F.);
#372=ORIENTED_EDGE('',*,*,#73,.T.);
#373=ORIENTED_EDGE('',*,*,#67,.T.);
#374=CARTESIAN_POINT('',(-12.55,1.02339609819687E-014,-2.8421709430404E-014));
#375=DIRECTION('',(0.0,0.0,-1.0));
#376=DIRECTION('',(1.0,1.22460635382238E-016,0.0));
#377=DIRECTION('',(0.866025403784436,2.56879863331337E-016,0.500000000000005));
#378=CARTESIAN_POINT('',(5.6843418860808E-014,1.21382238621625E-014,4.32568421935008));
#379=DIRECTION('',(-0.0,0.0,-1.0));
#380=DIRECTION('',(-1.0,-1.74158681105246E-016,0.0));
#381=SURFACE_STYLE_FILL_AREA(#436);
#382=ORIENTED_EDGE('',*,*,#63,.T.);
#383=ORIENTED_EDGE('',*,*,#67,.F.);
#384=ORIENTED_EDGE('',*,*,#81,.T.);
#385=ORIENTED_EDGE('',*,*,#71,.T.);
#386=CARTESIAN_POINT('',(5.6843418860808E-014,1.21382238621625E-014,2.99999999999997));
#387=DIRECTION('',(0.0,-0.0,1.0));
#388=DIRECTION('',(-1.0,-1.74158681105246E-016,0.0));
#389=CARTESIAN_POINT('',(5.6843418860808E-014,1.21382238621625E-014,5.99999999999997));
#390=DIRECTION('',(-0.0,0.0,-1.0));
#391=DIRECTION('',(-1.0,-1.74158681105246E-016,0.0));
#392=CARTESIAN_POINT('',(5.6843418860808E-014,1.21382238621625E-014,4.32568421935008));
#393=DIRECTION('',(-0.0,0.0,-1.0));
#394=DIRECTION('',(-1.0,-1.74158681105246E-016,0.0));
#395=SURFACE_STYLE_FILL_AREA(#437);
#396=ORIENTED_EDGE('',*,*,#103,.T.);
#397=ORIENTED_EDGE('',*,*,#61,.T.);
#398=ORIENTED_EDGE('',*,*,#83,.T.);
#399=ORIENTED_EDGE('',*,*,#91,.F.);
#400=CARTESIAN_POINT('',(5.6843418860808E-014,1.21382238621625E-014,2.16284210967503));
#401=DIRECTION('',(0.0,-0.0,1.0));
#402=DIRECTION('',(-1.0,-1.74158681105246E-016,0.0));
#403=SURFACE_STYLE_FILL_AREA(#438);
#404=ORIENTED_EDGE('',*,*,#109,.F.);
#405=ORIENTED_EDGE('',*,*,#71,.F.);
#406=ORIENTED_EDGE('',*,*,#79,.T.);
#407=ORIENTED_EDGE('',*,*,#95,.T.);
#408=CARTESIAN_POINT('',(-13.9999999999999,1.04237749668112E-014,5.99999999999997));
#409=DIRECTION('',(0.0,0.0,1.0));
#410=DIRECTION('',(-1.0,-1.22460635382238E-016,0.0));
#411=DIRECTION('',(0.0,0.0,-1.0));
#412=SURFACE_STYLE_FILL_AREA(#439);
#413=ORIENTED_EDGE('',*,*,#123,.T.);
#414=ORIENTED_EDGE('',*,*,#91,.T.);
#415=ORIENTED_EDGE('',*,*,#89,.T.);
#416=ORIENTED_EDGE('',*,*,#79,.F.);
#417=CARTESIAN_POINT('',(5.6843418860808E-014,1.21382238621625E-014,5.16284210967503));
#418=DIRECTION('',(0.0,-0.0,1.0));
#419=DIRECTION('',(-1.0,-1.74158681105246E-016,0.0));
#420=CARTESIAN_POINT('',(5.6843418860808E-014,1.21382238621625E-014,5.99999999999997));
#421=DIRECTION('',(-0.0,0.0,-1.0));
#422=DIRECTION('',(-1.0,-1.74158681105246E-016,0.0));
#423=SURFACE_STYLE_FILL_AREA(#440);
#424=ORIENTED_EDGE('',*,*,#123,.F.);
#425=ORIENTED_EDGE('',*,*,#95,.F.);
#426=ORIENTED_EDGE('',*,*,#89,.F.);
#427=ORIENTED_EDGE('',*,*,#97,.T.);
#428=CARTESIAN_POINT('',(5.6843418860808E-014,1.21382238621625E-014,5.16284210967503));
#429=DIRECTION('',(0.0,-0.0,1.0));
#430=DIRECTION('',(-1.0,-1.74158681105246E-016,0.0));
#431=DIRECTION('',(0.866025403784436,2.56879863331337E-016,-0.500000000000005));
#432=SURFACE_STYLE_FILL_AREA(#441);
#433=FILL_AREA_STYLE('',(#442));
#434=FILL_AREA_STYLE('',(#443));
#435=FILL_AREA_STYLE('',(#444));
#436=FILL_AREA_STYLE('',(#445));
#437=FILL_AREA_STYLE('',(#446));
#438=FILL_AREA_STYLE('',(#447));
#439=FILL_AREA_STYLE('',(#448));
#440=FILL_AREA_STYLE('',(#449));
#441=FILL_AREA_STYLE('',(#450));
#442=FILL_AREA_STYLE_COLOUR('',#451);
#443=FILL_AREA_STYLE_COLOUR('',#452);
#444=FILL_AREA_STYLE_COLOUR('',#453);
#445=FILL_AREA_STYLE_COLOUR('',#454);
#446=FILL_AREA_STYLE_COLOUR('',#455);
#447=FILL_AREA_STYLE_COLOUR('',#456);
#448=FILL_AREA_STYLE_COLOUR('',#457);
#449=FILL_AREA_STYLE_COLOUR('',#458);
#450=FILL_AREA_STYLE_COLOUR('',#459);
#451=COLOUR_RGB('',0.509803950786591,0.509803950786591,0.588235318660736);
#452=COLOUR_RGB('',0.509803950786591,0.509803950786591,0.588235318660736);
#453=COLOUR_RGB('',0.509803950786591,0.509803950786591,0.588235318660736);
#454=COLOUR_RGB('',0.509803950786591,0.509803950786591,0.588235318660736);
#455=COLOUR_RGB('',0.509803950786591,0.509803950786591,0.588235318660736);
#456=COLOUR_RGB('',0.509803950786591,0.509803950786591,0.588235318660736);
#457=COLOUR_RGB('',0.509803950786591,0.509803950786591,0.588235318660736);
#458=COLOUR_RGB('',0.509803950786591,0.509803950786591,0.588235318660736);
#459=COLOUR_RGB('',0.509803950786591,0.509803950786591,0.588235318660736);
ENDSEC;
END-ISO-10303-21;
