ISO-10303-21;
HEADER;
FILE_DESCRIPTION(('STEP AP214'),'1');
FILE_NAME(' ','  ',('TraceParts'),('TraceParts S.A.'),'XStep 1.0',' ',' ');
FILE_SCHEMA(('automotive_design'));
ENDSEC;
DATA;
#1=MECHANICAL_DESIGN_GEOMETRIC_PRESENTATION_REPRESENTATION(' ',(#10,#11,#12,#13,#14,#15,#16,#17,#18,#19,#20,#21,#22,#23,#24,#25,#26,#27,#28,#29,#30,#31,#32,#33,#34,#35,#36,#37,#38,#39,#40,#41,#42,#43,#44),#6);
#2=PRODUCT_DEFINITION_CONTEXT('',#45,'design');
#3=APPLICATION_PROTOCOL_DEFINITION('INTERNATIONAL STANDARD','automotive_design',1994,#45);
#4=PRODUCT_CATEGORY_RELATIONSHIP('NONE','NONE',#46,#47);
#5=SHAPE_DEFINITION_REPRESENTATION(#48,#49);
#6= (GEOMETRIC_REPRESENTATION_CONTEXT(3)GLOBAL_UNCERTAINTY_ASSIGNED_CONTEXT((#52))GLOBAL_UNIT_ASSIGNED_CONTEXT((#54,#55,#56))REPRESENTATION_CONTEXT('NONE','WORKSPACE'));
#10=STYLED_ITEM('',(#58),#59);
#11=STYLED_ITEM('',(#60),#61);
#12=STYLED_ITEM('',(#62),#63);
#13=STYLED_ITEM('',(#64),#65);
#14=STYLED_ITEM('',(#66),#67);
#15=STYLED_ITEM('',(#68),#69);
#16=STYLED_ITEM('',(#70),#71);
#17=STYLED_ITEM('',(#72),#73);
#18=STYLED_ITEM('',(#74),#75);
#19=STYLED_ITEM('',(#76),#77);
#20=STYLED_ITEM('',(#78),#79);
#21=STYLED_ITEM('',(#80),#81);
#22=STYLED_ITEM('',(#82),#83);
#23=STYLED_ITEM('',(#84),#85);
#24=STYLED_ITEM('',(#86),#87);
#25=STYLED_ITEM('',(#88),#89);
#26=STYLED_ITEM('',(#90),#91);
#27=STYLED_ITEM('',(#92),#93);
#28=STYLED_ITEM('',(#94),#95);
#29=STYLED_ITEM('',(#96),#97);
#30=STYLED_ITEM('',(#98),#99);
#31=STYLED_ITEM('',(#100),#101);
#32=STYLED_ITEM('',(#102),#103);
#33=STYLED_ITEM('',(#104),#105);
#34=STYLED_ITEM('',(#106),#107);
#35=STYLED_ITEM('',(#108),#109);
#36=STYLED_ITEM('',(#110),#111);
#37=STYLED_ITEM('',(#112),#113);
#38=STYLED_ITEM('',(#114),#115);
#39=STYLED_ITEM('',(#116),#117);
#40=STYLED_ITEM('',(#118),#119);
#41=STYLED_ITEM('',(#120),#121);
#42=STYLED_ITEM('',(#122),#123);
#43=STYLED_ITEM('',(#124),#125);
#44=STYLED_ITEM('',(#126),#127);
#45=APPLICATION_CONTEXT(' ');
#46=PRODUCT_CATEGORY('part','NONE');
#47=PRODUCT_RELATED_PRODUCT_CATEGORY('detail',' ',(#128));
#48=PRODUCT_DEFINITION_SHAPE('NONE','NONE',#129);
#49=ADVANCED_BREP_SHAPE_REPRESENTATION('1',(#59,#130),#6);
#52=UNCERTAINTY_MEASURE_WITH_UNIT(LENGTH_MEASURE(1.0E-006),#54,'','');
#54= (CONVERSION_BASED_UNIT('MILLIMETRE',#133)LENGTH_UNIT()NAMED_UNIT(#136));
#55= (NAMED_UNIT(#138)PLANE_ANGLE_UNIT()SI_UNIT($,.RADIAN.));
#56= (NAMED_UNIT(#138)SOLID_ANGLE_UNIT()SI_UNIT($,.STERADIAN.));
#58=PRESENTATION_STYLE_ASSIGNMENT((#144));
#59=MANIFOLD_SOLID_BREP('1',#145);
#60=PRESENTATION_STYLE_ASSIGNMENT((#146));
#61=VERTEX_POINT('',#147);
#62=PRESENTATION_STYLE_ASSIGNMENT((#148));
#63=EDGE_CURVE('',#77,#87,#149,.T.);
#64=PRESENTATION_STYLE_ASSIGNMENT((#150));
#65=ADVANCED_FACE('',(#151),#152,.T.);
#66=PRESENTATION_STYLE_ASSIGNMENT((#153));
#67=ADVANCED_FACE('',(#154,#155),#156,.T.);
#68=PRESENTATION_STYLE_ASSIGNMENT((#157));
#69=ADVANCED_FACE('',(#158),#159,.F.);
#70=PRESENTATION_STYLE_ASSIGNMENT((#160));
#71=VERTEX_POINT('',#161);
#72=PRESENTATION_STYLE_ASSIGNMENT((#162));
#73=VERTEX_POINT('',#163);
#74=PRESENTATION_STYLE_ASSIGNMENT((#164));
#75=EDGE_CURVE('',#109,#77,#165,.T.);
#76=PRESENTATION_STYLE_ASSIGNMENT((#166));
#77=VERTEX_POINT('',#167);
#78=PRESENTATION_STYLE_ASSIGNMENT((#168));
#79=EDGE_CURVE('',#107,#71,#169,.T.);
#80=PRESENTATION_STYLE_ASSIGNMENT((#170));
#81=EDGE_CURVE('',#117,#61,#171,.T.);
#82=PRESENTATION_STYLE_ASSIGNMENT((#172));
#83=EDGE_CURVE('',#87,#77,#173,.T.);
#84=PRESENTATION_STYLE_ASSIGNMENT((#174));
#85=EDGE_CURVE('',#101,#115,#175,.T.);
#86=PRESENTATION_STYLE_ASSIGNMENT((#176));
#87=VERTEX_POINT('',#177);
#88=PRESENTATION_STYLE_ASSIGNMENT((#178));
#89=ADVANCED_FACE('',(#179),#180,.F.);
#90=PRESENTATION_STYLE_ASSIGNMENT((#181));
#91=EDGE_CURVE('',#61,#117,#182,.T.);
#92=PRESENTATION_STYLE_ASSIGNMENT((#183));
#93=EDGE_CURVE('',#87,#73,#184,.T.);
#94=PRESENTATION_STYLE_ASSIGNMENT((#185));
#95=EDGE_CURVE('',#61,#71,#186,.T.);
#96=PRESENTATION_STYLE_ASSIGNMENT((#187));
#97=ADVANCED_FACE('',(#188),#189,.F.);
#98=PRESENTATION_STYLE_ASSIGNMENT((#190));
#99=EDGE_CURVE('',#107,#117,#191,.T.);
#100=PRESENTATION_STYLE_ASSIGNMENT((#192));
#101=VERTEX_POINT('',#193);
#102=PRESENTATION_STYLE_ASSIGNMENT((#194));
#103=EDGE_CURVE('',#109,#73,#195,.T.);
#104=PRESENTATION_STYLE_ASSIGNMENT((#196));
#105=EDGE_CURVE('',#73,#115,#197,.T.);
#106=PRESENTATION_STYLE_ASSIGNMENT((#198));
#107=VERTEX_POINT('',#199);
#108=PRESENTATION_STYLE_ASSIGNMENT((#200));
#109=VERTEX_POINT('',#201);
#110=PRESENTATION_STYLE_ASSIGNMENT((#202));
#111=EDGE_CURVE('',#115,#101,#203,.T.);
#112=PRESENTATION_STYLE_ASSIGNMENT((#204));
#113=EDGE_CURVE('',#73,#109,#205,.T.);
#114=PRESENTATION_STYLE_ASSIGNMENT((#206));
#115=VERTEX_POINT('',#207);
#116=PRESENTATION_STYLE_ASSIGNMENT((#208));
#117=VERTEX_POINT('',#209);
#118=PRESENTATION_STYLE_ASSIGNMENT((#210));
#119=ADVANCED_FACE('',(#211,#212),#213,.T.);
#120=PRESENTATION_STYLE_ASSIGNMENT((#214));
#121=ADVANCED_FACE('',(#215),#216,.F.);
#122=PRESENTATION_STYLE_ASSIGNMENT((#217));
#123=EDGE_CURVE('',#71,#107,#218,.T.);
#124=PRESENTATION_STYLE_ASSIGNMENT((#219));
#125=EDGE_CURVE('',#101,#109,#220,.T.);
#126=PRESENTATION_STYLE_ASSIGNMENT((#221));
#127=ADVANCED_FACE('',(#222),#223,.T.);
#128=PRODUCT('1','1','PART-1-DESC',(#224));
#129=PRODUCT_DEFINITION('NONE','NONE',#225,#2);
#130=AXIS2_PLACEMENT_3D('',#226,#227,#228);
#133=LENGTH_MEASURE_WITH_UNIT(LENGTH_MEASURE(1.0),#229);
#136=DIMENSIONAL_EXPONENTS(1.0,0.0,0.0,0.0,0.0,0.0,0.0);
#138=DIMENSIONAL_EXPONENTS(0.0,0.0,0.0,0.0,0.0,0.0,0.0);
#144=SURFACE_STYLE_USAGE(.BOTH.,#230);
#145=CLOSED_SHELL('',(#121,#65,#89,#97,#119,#127,#67,#69));
#146=POINT_STYLE(' ',#231,POSITIVE_LENGTH_MEASURE(1.0E-006),#232);
#147=CARTESIAN_POINT('',(-14.9999999999999,1.02890682678908E-014,4.99999999999997));
#148=CURVE_STYLE('',#233,POSITIVE_LENGTH_MEASURE(1.0E-006),#234);
#149=CIRCLE('',#235,6.0);
#150=SURFACE_STYLE_USAGE(.BOTH.,#236);
#151=FACE_OUTER_BOUND('',#237,.T.);
#152=CYLINDRICAL_SURFACE('',#238,14.9999999999999);
#153=SURFACE_STYLE_USAGE(.BOTH.,#239);
#154=FACE_BOUND('',#240,.T.);
#155=FACE_OUTER_BOUND('',#241,.T.);
#156=PLANE('',#242);
#157=SURFACE_STYLE_USAGE(.BOTH.,#243);
#158=FACE_OUTER_BOUND('',#244,.T.);
#159=CYLINDRICAL_SURFACE('',#245,6.0);
#160=POINT_STYLE(' ',#246,POSITIVE_LENGTH_MEASURE(1.0E-006),#247);
#161=CARTESIAN_POINT('',(-14.9999999999999,9.98291667943516E-015,-2.8421709430404E-014));
#162=POINT_STYLE(' ',#248,POSITIVE_LENGTH_MEASURE(1.0E-006),#249);
#163=CARTESIAN_POINT('',(6.0,1.39014217621962E-014,3.12361162513369));
#164=CURVE_STYLE('',#250,POSITIVE_LENGTH_MEASURE(1.0E-006),#251);
#165=LINE('',#252,#253);
#166=POINT_STYLE(' ',#254,POSITIVE_LENGTH_MEASURE(1.0E-006),#255);
#167=CARTESIAN_POINT('',(-6.0,1.10850623978753E-014,-2.8421709430404E-014));
#168=CURVE_STYLE('',#256,POSITIVE_LENGTH_MEASURE(1.0E-006),#257);
#169=CIRCLE('',#258,14.9999999999999);
#170=CURVE_STYLE('',#259,POSITIVE_LENGTH_MEASURE(1.0E-006),#260);
#171=CIRCLE('',#261,14.9999999999999);
#172=CURVE_STYLE('',#262,POSITIVE_LENGTH_MEASURE(1.0E-006),#263);
#173=CIRCLE('',#264,6.0);
#174=CURVE_STYLE('',#265,POSITIVE_LENGTH_MEASURE(1.0E-006),#266);
#175=CIRCLE('',#267,9.25000000000006);
#176=POINT_STYLE(' ',#268,POSITIVE_LENGTH_MEASURE(1.0E-006),#269);
#177=CARTESIAN_POINT('',(6.0,1.39014217621962E-014,-2.8421709430404E-014));
#178=SURFACE_STYLE_USAGE(.BOTH.,#270);
#179=FACE_OUTER_BOUND('',#271,.T.);
#180=CONICAL_SURFACE('',#272,7.62500000000003,1.04719755119661);
#181=CURVE_STYLE('',#273,POSITIVE_LENGTH_MEASURE(1.0E-006),#274);
#182=CIRCLE('',#275,14.9999999999999);
#183=CURVE_STYLE('',#276,POSITIVE_LENGTH_MEASURE(1.0E-006),#277);
#184=LINE('',#278,#279);
#185=CURVE_STYLE('',#280,POSITIVE_LENGTH_MEASURE(1.0E-006),#281);
#186=LINE('',#282,#283);
#187=SURFACE_STYLE_USAGE(.BOTH.,#284);
#188=FACE_OUTER_BOUND('',#285,.T.);
#189=CONICAL_SURFACE('',#286,7.62500000000003,1.04719755119661);
#190=CURVE_STYLE('',#287,POSITIVE_LENGTH_MEASURE(1.0E-006),#288);
#191=LINE('',#289,#290);
#192=POINT_STYLE(' ',#291,POSITIVE_LENGTH_MEASURE(1.0E-006),#292);
#193=CARTESIAN_POINT('',(-9.25000000000006,1.09932169213386E-014,4.99999999999997));
#194=CURVE_STYLE('',#293,POSITIVE_LENGTH_MEASURE(1.0E-006),#294);
#195=CIRCLE('',#295,6.0);
#196=CURVE_STYLE('',#296,POSITIVE_LENGTH_MEASURE(1.0E-006),#297);
#197=LINE('',#298,#299);
#198=POINT_STYLE(' ',#300,POSITIVE_LENGTH_MEASURE(1.0E-006),#301);
#199=CARTESIAN_POINT('',(14.9999999999999,1.6564587707554E-014,-2.8421709430404E-014));
#200=POINT_STYLE(' ',#302,POSITIVE_LENGTH_MEASURE(1.0E-006),#303);
#201=CARTESIAN_POINT('',(-6.0,1.12763221300259E-014,3.12361162513369));
#202=CURVE_STYLE('',#304,POSITIVE_LENGTH_MEASURE(1.0E-006),#305);
#203=CIRCLE('',#306,9.25000000000006);
#204=CURVE_STYLE('',#307,POSITIVE_LENGTH_MEASURE(1.0E-006),#308);
#205=CIRCLE('',#309,6.0);
#206=POINT_STYLE(' ',#310,POSITIVE_LENGTH_MEASURE(1.0E-006),#311);
#207=CARTESIAN_POINT('',(9.25000000000006,1.48631205757977E-014,4.99999999999997));
#208=POINT_STYLE(' ',#312,POSITIVE_LENGTH_MEASURE(1.0E-006),#313);
#209=CARTESIAN_POINT('',(14.9999999999999,1.6564587707554E-014,4.99999999999997));
#210=SURFACE_STYLE_USAGE(.BOTH.,#314);
#211=FACE_OUTER_BOUND('',#315,.T.);
#212=FACE_BOUND('',#316,.T.);
#213=PLANE('',#317);
#214=SURFACE_STYLE_USAGE(.BOTH.,#318);
#215=FACE_OUTER_BOUND('',#319,.T.);
#216=CYLINDRICAL_SURFACE('',#320,6.0);
#217=CURVE_STYLE('',#321,POSITIVE_LENGTH_MEASURE(1.0E-006),#322);
#218=CIRCLE('',#323,14.9999999999999);
#219=CURVE_STYLE('',#324,POSITIVE_LENGTH_MEASURE(1.0E-006),#325);
#220=LINE('',#326,#327);
#221=SURFACE_STYLE_USAGE(.BOTH.,#328);
#222=FACE_OUTER_BOUND('',#329,.T.);
#223=CYLINDRICAL_SURFACE('',#330,14.9999999999999);
#224=PRODUCT_CONTEXT('',#45,'mechanical');
#225=PRODUCT_DEFINITION_FORMATION_WITH_SPECIFIED_SOURCE(' ','NONE',#128,.NOT_KNOWN.);
#226=CARTESIAN_POINT('',(0.0,0.0,0.0));
#227=DIRECTION('',(0.0,0.0,1.0));
#228=DIRECTION('',(1.0,0.0,0.0));
#229= (NAMED_UNIT(#136)LENGTH_UNIT()SI_UNIT(.MILLI.,.METRE.));
#230=SURFACE_SIDE_STYLE('',(#332));
#231=PRE_DEFINED_MARKER('');
#232=COLOUR_RGB('',0.509803950786591,0.509803950786591,0.588235318660736);
#233=DRAUGHTING_PRE_DEFINED_CURVE_FONT('continuous');
#234=COLOUR_RGB('',0.509803950786591,0.509803950786591,0.588235318660736);
#235=AXIS2_PLACEMENT_3D('',#333,#334,#335);
#236=SURFACE_SIDE_STYLE('',(#336));
#237=EDGE_LOOP('',(#337,#338,#339,#340));
#238=AXIS2_PLACEMENT_3D('',#341,#342,#343);
#239=SURFACE_SIDE_STYLE('',(#344));
#240=EDGE_LOOP('',(#345,#346));
#241=EDGE_LOOP('',(#347,#348));
#242=AXIS2_PLACEMENT_3D('',#349,#350,#351);
#243=SURFACE_SIDE_STYLE('',(#352));
#244=EDGE_LOOP('',(#353,#354,#355,#356));
#245=AXIS2_PLACEMENT_3D('',#357,#358,#359);
#246=PRE_DEFINED_MARKER('');
#247=COLOUR_RGB('',0.509803950786591,0.509803950786591,0.588235318660736);
#248=PRE_DEFINED_MARKER('');
#249=COLOUR_RGB('',0.509803950786591,0.509803950786591,0.588235318660736);
#250=DRAUGHTING_PRE_DEFINED_CURVE_FONT('continuous');
#251=COLOUR_RGB('',0.509803950786591,0.509803950786591,0.588235318660736);
#252=CARTESIAN_POINT('',(-6.0,1.03505338350524E-014,1.56180581256683));
#253=VECTOR('',#360,1.0);
#254=PRE_DEFINED_MARKER('');
#255=COLOUR_RGB('',0.509803950786591,0.509803950786591,0.588235318660736);
#256=DRAUGHTING_PRE_DEFINED_CURVE_FONT('continuous');
#257=COLOUR_RGB('',0.509803950786591,0.509803950786591,0.588235318660736);
#258=AXIS2_PLACEMENT_3D('',#361,#362,#363);
#259=DRAUGHTING_PRE_DEFINED_CURVE_FONT('continuous');
#260=COLOUR_RGB('',0.509803950786591,0.509803950786591,0.588235318660736);
#261=AXIS2_PLACEMENT_3D('',#364,#365,#366);
#262=DRAUGHTING_PRE_DEFINED_CURVE_FONT('continuous');
#263=COLOUR_RGB('',0.509803950786591,0.509803950786591,0.588235318660736);
#264=AXIS2_PLACEMENT_3D('',#367,#368,#369);
#265=DRAUGHTING_PRE_DEFINED_CURVE_FONT('continuous');
#266=COLOUR_RGB('',0.509803950786591,0.509803950786591,0.588235318660736);
#267=AXIS2_PLACEMENT_3D('',#370,#371,#372);
#268=PRE_DEFINED_MARKER('');
#269=COLOUR_RGB('',0.509803950786591,0.509803950786591,0.588235318660736);
#270=SURFACE_SIDE_STYLE('',(#373));
#271=EDGE_LOOP('',(#374,#375,#376,#377));
#272=AXIS2_PLACEMENT_3D('',#378,#379,#380);
#273=DRAUGHTING_PRE_DEFINED_CURVE_FONT('continuous');
#274=COLOUR_RGB('',0.509803950786591,0.509803950786591,0.588235318660736);
#275=AXIS2_PLACEMENT_3D('',#381,#382,#383);
#276=DRAUGHTING_PRE_DEFINED_CURVE_FONT('continuous');
#277=COLOUR_RGB('',0.509803950786591,0.509803950786591,0.588235318660736);
#278=CARTESIAN_POINT('',(6.0,1.39014217621962E-014,1.56180581256683));
#279=VECTOR('',#384,1.0);
#280=DRAUGHTING_PRE_DEFINED_CURVE_FONT('continuous');
#281=COLOUR_RGB('',0.509803950786591,0.509803950786591,0.588235318660736);
#282=CARTESIAN_POINT('',(-14.9999999999999,7.68736788969457E-015,2.49999999999997));
#283=VECTOR('',#385,1.0);
#284=SURFACE_SIDE_STYLE('',(#386));
#285=EDGE_LOOP('',(#387,#388,#389,#390));
#286=AXIS2_PLACEMENT_3D('',#391,#392,#393);
#287=DRAUGHTING_PRE_DEFINED_CURVE_FONT('continuous');
#288=COLOUR_RGB('',0.509803950786591,0.509803950786591,0.588235318660736);
#289=CARTESIAN_POINT('',(14.9999999999999,1.6564587707554E-014,2.49999999999997));
#290=VECTOR('',#394,1.0);
#291=PRE_DEFINED_MARKER('');
#292=COLOUR_RGB('',0.509803950786591,0.509803950786591,0.588235318660736);
#293=DRAUGHTING_PRE_DEFINED_CURVE_FONT('continuous');
#294=COLOUR_RGB('',0.509803950786591,0.509803950786591,0.588235318660736);
#295=AXIS2_PLACEMENT_3D('',#395,#396,#397);
#296=DRAUGHTING_PRE_DEFINED_CURVE_FONT('continuous');
#297=COLOUR_RGB('',0.509803950786591,0.509803950786591,0.588235318660736);
#298=CARTESIAN_POINT('',(7.62500000000003,1.43822711689969E-014,4.06180581256683));
#299=VECTOR('',#398,1.0);
#300=PRE_DEFINED_MARKER('');
#301=COLOUR_RGB('',0.509803950786591,0.509803950786591,0.588235318660736);
#302=PRE_DEFINED_MARKER('');
#303=COLOUR_RGB('',0.509803950786591,0.509803950786591,0.588235318660736);
#304=DRAUGHTING_PRE_DEFINED_CURVE_FONT('continuous');
#305=COLOUR_RGB('',0.509803950786591,0.509803950786591,0.588235318660736);
#306=AXIS2_PLACEMENT_3D('',#399,#400,#401);
#307=DRAUGHTING_PRE_DEFINED_CURVE_FONT('continuous');
#308=COLOUR_RGB('',0.509803950786591,0.509803950786591,0.588235318660736);
#309=AXIS2_PLACEMENT_3D('',#402,#403,#404);
#310=PRE_DEFINED_MARKER('');
#311=COLOUR_RGB('',0.509803950786591,0.509803950786591,0.588235318660736);
#312=PRE_DEFINED_MARKER('');
#313=COLOUR_RGB('',0.509803950786591,0.509803950786591,0.588235318660736);
#314=SURFACE_SIDE_STYLE('',(#405));
#315=EDGE_LOOP('',(#406,#407));
#316=EDGE_LOOP('',(#408,#409));
#317=AXIS2_PLACEMENT_3D('',#410,#411,#412);
#318=SURFACE_SIDE_STYLE('',(#413));
#319=EDGE_LOOP('',(#414,#415,#416,#417));
#320=AXIS2_PLACEMENT_3D('',#418,#419,#420);
#321=DRAUGHTING_PRE_DEFINED_CURVE_FONT('continuous');
#322=COLOUR_RGB('',0.509803950786591,0.509803950786591,0.588235318660736);
#323=AXIS2_PLACEMENT_3D('',#421,#422,#423);
#324=DRAUGHTING_PRE_DEFINED_CURVE_FONT('continuous');
#325=COLOUR_RGB('',0.509803950786591,0.509803950786591,0.588235318660736);
#326=CARTESIAN_POINT('',(-7.62500000000003,9.86968442825168E-015,4.06180581256683));
#327=VECTOR('',#424,1.0);
#328=SURFACE_SIDE_STYLE('',(#425));
#329=EDGE_LOOP('',(#426,#427,#428,#429));
#330=AXIS2_PLACEMENT_3D('',#430,#431,#432);
#332=SURFACE_STYLE_FILL_AREA(#433);
#333=CARTESIAN_POINT('',(0.0,1.21259777986243E-014,-2.8421709430404E-014));
#334=DIRECTION('',(-0.0,0.0,-1.0));
#335=DIRECTION('',(-1.0,-1.73446691879746E-016,0.0));
#336=SURFACE_STYLE_FILL_AREA(#434);
#337=ORIENTED_EDGE('',*,*,#95,.F.);
#338=ORIENTED_EDGE('',*,*,#91,.T.);
#339=ORIENTED_EDGE('',*,*,#99,.F.);
#340=ORIENTED_EDGE('',*,*,#123,.F.);
#341=CARTESIAN_POINT('',(0.0,1.21259777986243E-014,2.49999999999997));
#342=DIRECTION('',(0.0,-0.0,1.0));
#343=DIRECTION('',(-1.0,-1.73446691879746E-016,0.0));
#344=SURFACE_STYLE_FILL_AREA(#435);
#345=ORIENTED_EDGE('',*,*,#63,.F.);
#346=ORIENTED_EDGE('',*,*,#83,.F.);
#347=ORIENTED_EDGE('',*,*,#123,.T.);
#348=ORIENTED_EDGE('',*,*,#79,.T.);
#349=CARTESIAN_POINT('',(-10.5,1.05339895386552E-014,-2.8421709430404E-014));
#350=DIRECTION('',(0.0,0.0,-1.0));
#351=DIRECTION('',(1.0,1.22460635382238E-016,0.0));
#352=SURFACE_STYLE_FILL_AREA(#436);
#353=ORIENTED_EDGE('',*,*,#75,.T.);
#354=ORIENTED_EDGE('',*,*,#63,.T.);
#355=ORIENTED_EDGE('',*,*,#93,.T.);
#356=ORIENTED_EDGE('',*,*,#103,.F.);
#357=CARTESIAN_POINT('',(0.0,1.21259777986243E-014,1.56180581256683));
#358=DIRECTION('',(0.0,-0.0,1.0));
#359=DIRECTION('',(-1.0,-1.73446691879746E-016,0.0));
#360=DIRECTION('',(0.0,0.0,-1.0));
#361=CARTESIAN_POINT('',(0.0,1.21259777986243E-014,-2.8421709430404E-014));
#362=DIRECTION('',(-0.0,0.0,-1.0));
#363=DIRECTION('',(-1.0,-1.73446691879746E-016,0.0));
#364=CARTESIAN_POINT('',(0.0,1.21259777986243E-014,4.99999999999997));
#365=DIRECTION('',(-0.0,0.0,-1.0));
#366=DIRECTION('',(-1.0,-1.73446691879746E-016,0.0));
#367=CARTESIAN_POINT('',(0.0,1.21259777986243E-014,-2.8421709430404E-014));
#368=DIRECTION('',(-0.0,0.0,-1.0));
#369=DIRECTION('',(-1.0,-1.73446691879746E-016,0.0));
#370=CARTESIAN_POINT('',(0.0,1.21259777986243E-014,4.99999999999997));
#371=DIRECTION('',(-0.0,0.0,-1.0));
#372=DIRECTION('',(-1.0,-1.73446691879746E-016,0.0));
#373=SURFACE_STYLE_FILL_AREA(#437);
#374=ORIENTED_EDGE('',*,*,#125,.F.);
#375=ORIENTED_EDGE('',*,*,#111,.F.);
#376=ORIENTED_EDGE('',*,*,#105,.F.);
#377=ORIENTED_EDGE('',*,*,#113,.T.);
#378=CARTESIAN_POINT('',(0.0,1.21259777986243E-014,4.06180581256683));
#379=DIRECTION('',(0.0,-0.0,1.0));
#380=DIRECTION('',(-1.0,-1.73446691879746E-016,0.0));
#381=CARTESIAN_POINT('',(0.0,1.21259777986243E-014,4.99999999999997));
#382=DIRECTION('',(-0.0,0.0,-1.0));
#383=DIRECTION('',(-1.0,-1.73446691879746E-016,0.0));
#384=DIRECTION('',(0.0,0.0,1.0));
#385=DIRECTION('',(0.0,0.0,-1.0));
#386=SURFACE_STYLE_FILL_AREA(#438);
#387=ORIENTED_EDGE('',*,*,#125,.T.);
#388=ORIENTED_EDGE('',*,*,#103,.T.);
#389=ORIENTED_EDGE('',*,*,#105,.T.);
#390=ORIENTED_EDGE('',*,*,#85,.F.);
#391=CARTESIAN_POINT('',(0.0,1.21259777986243E-014,4.06180581256683));
#392=DIRECTION('',(0.0,-0.0,1.0));
#393=DIRECTION('',(-1.0,-1.73446691879746E-016,0.0));
#394=DIRECTION('',(-0.0,-0.0,1.0));
#395=CARTESIAN_POINT('',(0.0,1.21259777986243E-014,3.12361162513369));
#396=DIRECTION('',(-0.0,0.0,-1.0));
#397=DIRECTION('',(-1.0,-1.73446691879746E-016,0.0));
#398=DIRECTION('',(0.866025403784443,2.56263262574835E-016,0.499999999999993));
#399=CARTESIAN_POINT('',(0.0,1.21259777986243E-014,4.99999999999997));
#400=DIRECTION('',(-0.0,0.0,-1.0));
#401=DIRECTION('',(-1.0,-1.73446691879746E-016,0.0));
#402=CARTESIAN_POINT('',(0.0,1.21259777986243E-014,3.12361162513369));
#403=DIRECTION('',(-0.0,0.0,-1.0));
#404=DIRECTION('',(-1.0,-1.73446691879746E-016,0.0));
#405=SURFACE_STYLE_FILL_AREA(#439);
#406=ORIENTED_EDGE('',*,*,#91,.F.);
#407=ORIENTED_EDGE('',*,*,#81,.F.);
#408=ORIENTED_EDGE('',*,*,#85,.T.);
#409=ORIENTED_EDGE('',*,*,#111,.T.);
#410=CARTESIAN_POINT('',(-12.125,1.06411425946147E-014,4.99999999999997));
#411=DIRECTION('',(0.0,0.0,1.0));
#412=DIRECTION('',(-1.0,-1.22460635382238E-016,0.0));
#413=SURFACE_STYLE_FILL_AREA(#440);
#414=ORIENTED_EDGE('',*,*,#75,.F.);
#415=ORIENTED_EDGE('',*,*,#113,.F.);
#416=ORIENTED_EDGE('',*,*,#93,.F.);
#417=ORIENTED_EDGE('',*,*,#83,.T.);
#418=CARTESIAN_POINT('',(0.0,1.21259777986243E-014,1.56180581256683));
#419=DIRECTION('',(0.0,-0.0,1.0));
#420=DIRECTION('',(-1.0,-1.73446691879746E-016,0.0));
#421=CARTESIAN_POINT('',(0.0,1.21259777986243E-014,-2.8421709430404E-014));
#422=DIRECTION('',(-0.0,0.0,-1.0));
#423=DIRECTION('',(-1.0,-1.73446691879746E-016,0.0));
#424=DIRECTION('',(0.866025403784443,2.56263262574835E-016,-0.499999999999993));
#425=SURFACE_STYLE_FILL_AREA(#441);
#426=ORIENTED_EDGE('',*,*,#95,.T.);
#427=ORIENTED_EDGE('',*,*,#79,.F.);
#428=ORIENTED_EDGE('',*,*,#99,.T.);
#429=ORIENTED_EDGE('',*,*,#81,.T.);
#430=CARTESIAN_POINT('',(0.0,1.21259777986243E-014,2.49999999999997));
#431=DIRECTION('',(0.0,-0.0,1.0));
#432=DIRECTION('',(-1.0,-1.73446691879746E-016,0.0));
#433=FILL_AREA_STYLE('',(#442));
#434=FILL_AREA_STYLE('',(#443));
#435=FILL_AREA_STYLE('',(#444));
#436=FILL_AREA_STYLE('',(#445));
#437=FILL_AREA_STYLE('',(#446));
#438=FILL_AREA_STYLE('',(#447));
#439=FILL_AREA_STYLE('',(#448));
#440=FILL_AREA_STYLE('',(#449));
#441=FILL_AREA_STYLE('',(#450));
#442=FILL_AREA_STYLE_COLOUR('',#451);
#443=FILL_AREA_STYLE_COLOUR('',#452);
#444=FILL_AREA_STYLE_COLOUR('',#453);
#445=FILL_AREA_STYLE_COLOUR('',#454);
#446=FILL_AREA_STYLE_COLOUR('',#455);
#447=FILL_AREA_STYLE_COLOUR('',#456);
#448=FILL_AREA_STYLE_COLOUR('',#457);
#449=FILL_AREA_STYLE_COLOUR('',#458);
#450=FILL_AREA_STYLE_COLOUR('',#459);
#451=COLOUR_RGB('',0.509803950786591,0.509803950786591,0.588235318660736);
#452=COLOUR_RGB('',0.509803950786591,0.509803950786591,0.588235318660736);
#453=COLOUR_RGB('',0.509803950786591,0.509803950786591,0.588235318660736);
#454=COLOUR_RGB('',0.509803950786591,0.509803950786591,0.588235318660736);
#455=COLOUR_RGB('',0.509803950786591,0.509803950786591,0.588235318660736);
#456=COLOUR_RGB('',0.509803950786591,0.509803950786591,0.588235318660736);
#457=COLOUR_RGB('',0.509803950786591,0.509803950786591,0.588235318660736);
#458=COLOUR_RGB('',0.509803950786591,0.509803950786591,0.588235318660736);
#459=COLOUR_RGB('',0.509803950786591,0.509803950786591,0.588235318660736);
ENDSEC;
END-ISO-10303-21;
