ISO-10303-21;
HEADER;
FILE_DESCRIPTION(('STEP AP214'),'1');
FILE_NAME(' ','  ',('TraceParts'),('TraceParts S.A.'),'XStep 1.0',' ',' ');
FILE_SCHEMA(('automotive_design'));
ENDSEC;
DATA;
#1=MECHANICAL_DESIGN_GEOMETRIC_PRESENTATION_REPRESENTATION(' ',(#10,#11,#12,#13,#14,#15,#16,#17,#18,#19,#20,#21,#22,#23,#24,#25,#26,#27,#28,#29,#30,#31,#32,#33,#34,#35,#36,#37,#38,#39,#40,#41,#42,#43,#44),#6);
#2=PRODUCT_DEFINITION_CONTEXT('',#45,'design');
#3=APPLICATION_PROTOCOL_DEFINITION('INTERNATIONAL STANDARD','automotive_design',1994,#45);
#4=PRODUCT_CATEGORY_RELATIONSHIP('NONE','NONE',#46,#47);
#5=SHAPE_DEFINITION_REPRESENTATION(#48,#49);
#6= (GEOMETRIC_REPRESENTATION_CONTEXT(3)GLOBAL_UNCERTAINTY_ASSIGNED_CONTEXT((#52))GLOBAL_UNIT_ASSIGNED_CONTEXT((#54,#55,#56))REPRESENTATION_CONTEXT('NONE','WORKSPACE'));
#10=STYLED_ITEM('',(#58),#59);
#11=STYLED_ITEM('',(#60),#61);
#12=STYLED_ITEM('',(#62),#63);
#13=STYLED_ITEM('',(#64),#65);
#14=STYLED_ITEM('',(#66),#67);
#15=STYLED_ITEM('',(#68),#69);
#16=STYLED_ITEM('',(#70),#71);
#17=STYLED_ITEM('',(#72),#73);
#18=STYLED_ITEM('',(#74),#75);
#19=STYLED_ITEM('',(#76),#77);
#20=STYLED_ITEM('',(#78),#79);
#21=STYLED_ITEM('',(#80),#81);
#22=STYLED_ITEM('',(#82),#83);
#23=STYLED_ITEM('',(#84),#85);
#24=STYLED_ITEM('',(#86),#87);
#25=STYLED_ITEM('',(#88),#89);
#26=STYLED_ITEM('',(#90),#91);
#27=STYLED_ITEM('',(#92),#93);
#28=STYLED_ITEM('',(#94),#95);
#29=STYLED_ITEM('',(#96),#97);
#30=STYLED_ITEM('',(#98),#99);
#31=STYLED_ITEM('',(#100),#101);
#32=STYLED_ITEM('',(#102),#103);
#33=STYLED_ITEM('',(#104),#105);
#34=STYLED_ITEM('',(#106),#107);
#35=STYLED_ITEM('',(#108),#109);
#36=STYLED_ITEM('',(#110),#111);
#37=STYLED_ITEM('',(#112),#113);
#38=STYLED_ITEM('',(#114),#115);
#39=STYLED_ITEM('',(#116),#117);
#40=STYLED_ITEM('',(#118),#119);
#41=STYLED_ITEM('',(#120),#121);
#42=STYLED_ITEM('',(#122),#123);
#43=STYLED_ITEM('',(#124),#125);
#44=STYLED_ITEM('',(#126),#127);
#45=APPLICATION_CONTEXT(' ');
#46=PRODUCT_CATEGORY('part','NONE');
#47=PRODUCT_RELATED_PRODUCT_CATEGORY('detail',' ',(#128));
#48=PRODUCT_DEFINITION_SHAPE('NONE','NONE',#129);
#49=ADVANCED_BREP_SHAPE_REPRESENTATION('1',(#59,#130),#6);
#52=UNCERTAINTY_MEASURE_WITH_UNIT(LENGTH_MEASURE(1.0E-006),#54,'','');
#54= (CONVERSION_BASED_UNIT('MILLIMETRE',#133)LENGTH_UNIT()NAMED_UNIT(#136));
#55= (NAMED_UNIT(#138)PLANE_ANGLE_UNIT()SI_UNIT($,.RADIAN.));
#56= (NAMED_UNIT(#138)SOLID_ANGLE_UNIT()SI_UNIT($,.STERADIAN.));
#58=PRESENTATION_STYLE_ASSIGNMENT((#144));
#59=MANIFOLD_SOLID_BREP('1',#145);
#60=PRESENTATION_STYLE_ASSIGNMENT((#146));
#61=EDGE_CURVE('',#127,#83,#147,.T.);
#62=PRESENTATION_STYLE_ASSIGNMENT((#148));
#63=EDGE_CURVE('',#75,#95,#149,.T.);
#64=PRESENTATION_STYLE_ASSIGNMENT((#150));
#65=ADVANCED_FACE('',(#151),#152,.T.);
#66=PRESENTATION_STYLE_ASSIGNMENT((#153));
#67=EDGE_CURVE('',#83,#127,#154,.T.);
#68=PRESENTATION_STYLE_ASSIGNMENT((#155));
#69=ADVANCED_FACE('',(#156,#157),#158,.T.);
#70=PRESENTATION_STYLE_ASSIGNMENT((#159));
#71=ADVANCED_FACE('',(#160),#161,.F.);
#72=PRESENTATION_STYLE_ASSIGNMENT((#162));
#73=EDGE_CURVE('',#83,#97,#163,.T.);
#74=PRESENTATION_STYLE_ASSIGNMENT((#164));
#75=VERTEX_POINT('',#165);
#76=PRESENTATION_STYLE_ASSIGNMENT((#166));
#77=VERTEX_POINT('',#167);
#78=PRESENTATION_STYLE_ASSIGNMENT((#168));
#79=EDGE_CURVE('',#97,#77,#169,.T.);
#80=PRESENTATION_STYLE_ASSIGNMENT((#170));
#81=EDGE_CURVE('',#77,#127,#171,.T.);
#82=PRESENTATION_STYLE_ASSIGNMENT((#172));
#83=VERTEX_POINT('',#173);
#84=PRESENTATION_STYLE_ASSIGNMENT((#174));
#85=EDGE_CURVE('',#99,#117,#175,.T.);
#86=PRESENTATION_STYLE_ASSIGNMENT((#176));
#87=EDGE_CURVE('',#95,#75,#177,.T.);
#88=PRESENTATION_STYLE_ASSIGNMENT((#178));
#89=VERTEX_POINT('',#179);
#90=PRESENTATION_STYLE_ASSIGNMENT((#180));
#91=EDGE_CURVE('',#89,#119,#181,.T.);
#92=PRESENTATION_STYLE_ASSIGNMENT((#182));
#93=EDGE_CURVE('',#119,#89,#183,.T.);
#94=PRESENTATION_STYLE_ASSIGNMENT((#184));
#95=VERTEX_POINT('',#185);
#96=PRESENTATION_STYLE_ASSIGNMENT((#186));
#97=VERTEX_POINT('',#187);
#98=PRESENTATION_STYLE_ASSIGNMENT((#188));
#99=VERTEX_POINT('',#189);
#100=PRESENTATION_STYLE_ASSIGNMENT((#190));
#101=EDGE_CURVE('',#119,#117,#191,.T.);
#102=PRESENTATION_STYLE_ASSIGNMENT((#192));
#103=EDGE_CURVE('',#117,#99,#193,.T.);
#104=PRESENTATION_STYLE_ASSIGNMENT((#194));
#105=ADVANCED_FACE('',(#195),#196,.F.);
#106=PRESENTATION_STYLE_ASSIGNMENT((#197));
#107=EDGE_CURVE('',#77,#97,#198,.T.);
#108=PRESENTATION_STYLE_ASSIGNMENT((#199));
#109=EDGE_CURVE('',#89,#75,#200,.T.);
#110=PRESENTATION_STYLE_ASSIGNMENT((#201));
#111=ADVANCED_FACE('',(#202),#203,.F.);
#112=PRESENTATION_STYLE_ASSIGNMENT((#204));
#113=EDGE_CURVE('',#95,#119,#205,.T.);
#114=PRESENTATION_STYLE_ASSIGNMENT((#206));
#115=ADVANCED_FACE('',(#207,#208),#209,.T.);
#116=PRESENTATION_STYLE_ASSIGNMENT((#210));
#117=VERTEX_POINT('',#211);
#118=PRESENTATION_STYLE_ASSIGNMENT((#212));
#119=VERTEX_POINT('',#213);
#120=PRESENTATION_STYLE_ASSIGNMENT((#214));
#121=EDGE_CURVE('',#99,#89,#215,.T.);
#122=PRESENTATION_STYLE_ASSIGNMENT((#216));
#123=ADVANCED_FACE('',(#217),#218,.F.);
#124=PRESENTATION_STYLE_ASSIGNMENT((#219));
#125=ADVANCED_FACE('',(#220),#221,.T.);
#126=PRESENTATION_STYLE_ASSIGNMENT((#222));
#127=VERTEX_POINT('',#223);
#128=PRODUCT('1','1','PART-1-DESC',(#224));
#129=PRODUCT_DEFINITION('NONE','NONE',#225,#2);
#130=AXIS2_PLACEMENT_3D('',#226,#227,#228);
#133=LENGTH_MEASURE_WITH_UNIT(LENGTH_MEASURE(1.0),#229);
#136=DIMENSIONAL_EXPONENTS(1.0,0.0,0.0,0.0,0.0,0.0,0.0);
#138=DIMENSIONAL_EXPONENTS(0.0,0.0,0.0,0.0,0.0,0.0,0.0);
#144=SURFACE_STYLE_USAGE(.BOTH.,#230);
#145=CLOSED_SHELL('',(#71,#125,#111,#105,#69,#65,#115,#123));
#146=CURVE_STYLE('',#231,POSITIVE_LENGTH_MEASURE(1.0E-006),#232);
#147=CIRCLE('',#233,12.0);
#148=CURVE_STYLE('',#234,POSITIVE_LENGTH_MEASURE(1.0E-006),#235);
#149=CIRCLE('',#236,4.80000000000001);
#150=SURFACE_STYLE_USAGE(.BOTH.,#237);
#151=FACE_OUTER_BOUND('',#238,.T.);
#152=CYLINDRICAL_SURFACE('',#239,12.0);
#153=CURVE_STYLE('',#240,POSITIVE_LENGTH_MEASURE(1.0E-006),#241);
#154=CIRCLE('',#242,12.0);
#155=SURFACE_STYLE_USAGE(.BOTH.,#243);
#156=FACE_OUTER_BOUND('',#244,.T.);
#157=FACE_BOUND('',#245,.T.);
#158=PLANE('',#246);
#159=SURFACE_STYLE_USAGE(.BOTH.,#247);
#160=FACE_OUTER_BOUND('',#248,.T.);
#161=CYLINDRICAL_SURFACE('',#249,4.80000000000001);
#162=CURVE_STYLE('',#250,POSITIVE_LENGTH_MEASURE(1.0E-006),#251);
#163=LINE('',#252,#253);
#164=POINT_STYLE(' ',#254,POSITIVE_LENGTH_MEASURE(1.0E-006),#255);
#165=CARTESIAN_POINT('',(-4.80000000000001,1.10850623978753E-014,-2.8421709430404E-014));
#166=POINT_STYLE(' ',#256,POSITIVE_LENGTH_MEASURE(1.0E-006),#257);
#167=CARTESIAN_POINT('',(-12.0,1.05094974115788E-014,4.99999999999997));
#168=CURVE_STYLE('',#258,POSITIVE_LENGTH_MEASURE(1.0E-006),#259);
#169=CIRCLE('',#260,12.0);
#170=CURVE_STYLE('',#261,POSITIVE_LENGTH_MEASURE(1.0E-006),#262);
#171=LINE('',#263,#264);
#172=POINT_STYLE(' ',#265,POSITIVE_LENGTH_MEASURE(1.0E-006),#266);
#173=CARTESIAN_POINT('',(12.0,1.56827841685046E-014,-2.8421709430404E-014));
#174=CURVE_STYLE('',#267,POSITIVE_LENGTH_MEASURE(1.0E-006),#268);
#175=CIRCLE('',#269,7.25);
#176=CURVE_STYLE('',#270,POSITIVE_LENGTH_MEASURE(1.0E-006),#271);
#177=CIRCLE('',#272,4.80000000000001);
#178=POINT_STYLE(' ',#273,POSITIVE_LENGTH_MEASURE(1.0E-006),#274);
#179=CARTESIAN_POINT('',(-4.80000000000001,1.13046032023471E-014,3.58549184048539));
#180=CURVE_STYLE('',#275,POSITIVE_LENGTH_MEASURE(1.0E-006),#276);
#181=CIRCLE('',#277,4.80000000000001);
#182=CURVE_STYLE('',#278,POSITIVE_LENGTH_MEASURE(1.0E-006),#279);
#183=CIRCLE('',#280,4.80000000000001);
#184=POINT_STYLE(' ',#281,POSITIVE_LENGTH_MEASURE(1.0E-006),#282);
#185=CARTESIAN_POINT('',(4.80000000000001,1.34605286891012E-014,-2.8421709430404E-014));
#186=POINT_STYLE(' ',#283,POSITIVE_LENGTH_MEASURE(1.0E-006),#284);
#187=CARTESIAN_POINT('',(12.0,1.56827841685046E-014,4.99999999999997));
#188=POINT_STYLE(' ',#285,POSITIVE_LENGTH_MEASURE(1.0E-006),#286);
#189=CARTESIAN_POINT('',(-7.25,1.10911854296444E-014,4.99999999999997));
#190=CURVE_STYLE('',#287,POSITIVE_LENGTH_MEASURE(1.0E-006),#288);
#191=LINE('',#289,#290);
#192=CURVE_STYLE('',#291,POSITIVE_LENGTH_MEASURE(1.0E-006),#292);
#193=CIRCLE('',#293,7.25);
#194=SURFACE_STYLE_USAGE(.BOTH.,#294);
#195=FACE_OUTER_BOUND('',#295,.T.);
#196=CONICAL_SURFACE('',#296,6.02500000000001,1.0471975511966);
#197=CURVE_STYLE('',#297,POSITIVE_LENGTH_MEASURE(1.0E-006),#298);
#198=CIRCLE('',#299,12.0);
#199=CURVE_STYLE('',#300,POSITIVE_LENGTH_MEASURE(1.0E-006),#301);
#200=LINE('',#302,#303);
#201=SURFACE_STYLE_USAGE(.BOTH.,#304);
#202=FACE_OUTER_BOUND('',#305,.T.);
#203=CONICAL_SURFACE('',#306,6.02500000000001,1.0471975511966);
#204=CURVE_STYLE('',#307,POSITIVE_LENGTH_MEASURE(1.0E-006),#308);
#205=LINE('',#309,#310);
#206=SURFACE_STYLE_USAGE(.BOTH.,#311);
#207=FACE_BOUND('',#312,.T.);
#208=FACE_OUTER_BOUND('',#313,.T.);
#209=PLANE('',#314);
#210=POINT_STYLE(' ',#315,POSITIVE_LENGTH_MEASURE(1.0E-006),#316);
#211=CARTESIAN_POINT('',(7.25,1.42167128452871E-014,4.99999999999997));
#212=POINT_STYLE(' ',#317,POSITIVE_LENGTH_MEASURE(1.0E-006),#318);
#213=CARTESIAN_POINT('',(4.80000000000001,1.34605286891012E-014,3.58549184048539));
#214=CURVE_STYLE('',#319,POSITIVE_LENGTH_MEASURE(1.0E-006),#320);
#215=LINE('',#321,#322);
#216=SURFACE_STYLE_USAGE(.BOTH.,#323);
#217=FACE_OUTER_BOUND('',#324,.T.);
#218=CYLINDRICAL_SURFACE('',#325,4.80000000000001);
#219=SURFACE_STYLE_USAGE(.BOTH.,#326);
#220=FACE_OUTER_BOUND('',#327,.T.);
#221=CYLINDRICAL_SURFACE('',#328,12.0);
#222=POINT_STYLE(' ',#329,POSITIVE_LENGTH_MEASURE(1.0E-006),#330);
#223=CARTESIAN_POINT('',(-12.0,1.02033458231232E-014,-2.8421709430404E-014));
#224=PRODUCT_CONTEXT('',#45,'mechanical');
#225=PRODUCT_DEFINITION_FORMATION_WITH_SPECIFIED_SOURCE(' ','NONE',#128,.NOT_KNOWN.);
#226=CARTESIAN_POINT('',(0.0,0.0,0.0));
#227=DIRECTION('',(0.0,0.0,1.0));
#228=DIRECTION('',(1.0,0.0,0.0));
#229= (NAMED_UNIT(#136)LENGTH_UNIT()SI_UNIT(.MILLI.,.METRE.));
#230=SURFACE_SIDE_STYLE('',(#332));
#231=DRAUGHTING_PRE_DEFINED_CURVE_FONT('continuous');
#232=COLOUR_RGB('',0.509803950786591,0.509803950786591,0.588235318660736);
#233=AXIS2_PLACEMENT_3D('',#333,#334,#335);
#234=DRAUGHTING_PRE_DEFINED_CURVE_FONT('continuous');
#235=COLOUR_RGB('',0.509803950786591,0.509803950786591,0.588235318660736);
#236=AXIS2_PLACEMENT_3D('',#336,#337,#338);
#237=SURFACE_SIDE_STYLE('',(#339));
#238=EDGE_LOOP('',(#340,#341,#342,#343));
#239=AXIS2_PLACEMENT_3D('',#344,#345,#346);
#240=DRAUGHTING_PRE_DEFINED_CURVE_FONT('continuous');
#241=COLOUR_RGB('',0.509803950786591,0.509803950786591,0.588235318660736);
#242=AXIS2_PLACEMENT_3D('',#347,#348,#349);
#243=SURFACE_SIDE_STYLE('',(#350));
#244=EDGE_LOOP('',(#351,#352));
#245=EDGE_LOOP('',(#353,#354));
#246=AXIS2_PLACEMENT_3D('',#355,#356,#357);
#247=SURFACE_SIDE_STYLE('',(#358));
#248=EDGE_LOOP('',(#359,#360,#361,#362));
#249=AXIS2_PLACEMENT_3D('',#363,#364,#365);
#250=DRAUGHTING_PRE_DEFINED_CURVE_FONT('continuous');
#251=COLOUR_RGB('',0.509803950786591,0.509803950786591,0.588235318660736);
#252=CARTESIAN_POINT('',(12.0,1.56827841685046E-014,2.49999999999997));
#253=VECTOR('',#366,1.0);
#254=PRE_DEFINED_MARKER('');
#255=COLOUR_RGB('',0.509803950786591,0.509803950786591,0.588235318660736);
#256=PRE_DEFINED_MARKER('');
#257=COLOUR_RGB('',0.509803950786591,0.509803950786591,0.588235318660736);
#258=DRAUGHTING_PRE_DEFINED_CURVE_FONT('continuous');
#259=COLOUR_RGB('',0.509803950786591,0.509803950786591,0.588235318660736);
#260=AXIS2_PLACEMENT_3D('',#367,#368,#369);
#261=DRAUGHTING_PRE_DEFINED_CURVE_FONT('continuous');
#262=COLOUR_RGB('',0.509803950786591,0.509803950786591,0.588235318660736);
#263=CARTESIAN_POINT('',(-12.0,8.27526590382668E-015,2.49999999999997));
#264=VECTOR('',#370,1.0);
#265=PRE_DEFINED_MARKER('');
#266=COLOUR_RGB('',0.509803950786591,0.509803950786591,0.588235318660736);
#267=DRAUGHTING_PRE_DEFINED_CURVE_FONT('continuous');
#268=COLOUR_RGB('',0.509803950786591,0.509803950786591,0.588235318660736);
#269=AXIS2_PLACEMENT_3D('',#371,#372,#373);
#270=DRAUGHTING_PRE_DEFINED_CURVE_FONT('continuous');
#271=COLOUR_RGB('',0.509803950786591,0.509803950786591,0.588235318660736);
#272=AXIS2_PLACEMENT_3D('',#374,#375,#376);
#273=PRE_DEFINED_MARKER('');
#274=COLOUR_RGB('',0.509803950786591,0.509803950786591,0.588235318660736);
#275=DRAUGHTING_PRE_DEFINED_CURVE_FONT('continuous');
#276=COLOUR_RGB('',0.509803950786591,0.509803950786591,0.588235318660736);
#277=AXIS2_PLACEMENT_3D('',#377,#378,#379);
#278=DRAUGHTING_PRE_DEFINED_CURVE_FONT('continuous');
#279=COLOUR_RGB('',0.509803950786591,0.509803950786591,0.588235318660736);
#280=AXIS2_PLACEMENT_3D('',#380,#381,#382);
#281=PRE_DEFINED_MARKER('');
#282=COLOUR_RGB('',0.509803950786591,0.509803950786591,0.588235318660736);
#283=PRE_DEFINED_MARKER('');
#284=COLOUR_RGB('',0.509803950786591,0.509803950786591,0.588235318660736);
#285=PRE_DEFINED_MARKER('');
#286=COLOUR_RGB('',0.509803950786591,0.509803950786591,0.588235318660736);
#287=DRAUGHTING_PRE_DEFINED_CURVE_FONT('continuous');
#288=COLOUR_RGB('',0.509803950786591,0.509803950786591,0.588235318660736);
#289=CARTESIAN_POINT('',(6.02500000000001,1.38386207671941E-014,4.29274592024268));
#290=VECTOR('',#383,1.0);
#291=DRAUGHTING_PRE_DEFINED_CURVE_FONT('continuous');
#292=COLOUR_RGB('',0.509803950786591,0.509803950786591,0.588235318660736);
#293=AXIS2_PLACEMENT_3D('',#384,#385,#386);
#294=SURFACE_SIDE_STYLE('',(#387));
#295=EDGE_LOOP('',(#388,#389,#390,#391));
#296=AXIS2_PLACEMENT_3D('',#392,#393,#394);
#297=DRAUGHTING_PRE_DEFINED_CURVE_FONT('continuous');
#298=COLOUR_RGB('',0.509803950786591,0.509803950786591,0.588235318660736);
#299=AXIS2_PLACEMENT_3D('',#395,#396,#397);
#300=DRAUGHTING_PRE_DEFINED_CURVE_FONT('continuous');
#301=COLOUR_RGB('',0.509803950786591,0.509803950786591,0.588235318660736);
#302=CARTESIAN_POINT('',(-4.80000000000001,1.049752138323E-014,1.79274592024268));
#303=VECTOR('',#398,1.0);
#304=SURFACE_SIDE_STYLE('',(#399));
#305=EDGE_LOOP('',(#400,#401,#402,#403));
#306=AXIS2_PLACEMENT_3D('',#404,#405,#406);
#307=DRAUGHTING_PRE_DEFINED_CURVE_FONT('continuous');
#308=COLOUR_RGB('',0.509803950786591,0.509803950786591,0.588235318660736);
#309=CARTESIAN_POINT('',(4.80000000000001,1.34605286891012E-014,1.79274592024268));
#310=VECTOR('',#407,1.0);
#311=SURFACE_SIDE_STYLE('',(#408));
#312=EDGE_LOOP('',(#409,#410));
#313=EDGE_LOOP('',(#411,#412));
#314=AXIS2_PLACEMENT_3D('',#413,#414,#415);
#315=PRE_DEFINED_MARKER('');
#316=COLOUR_RGB('',0.509803950786591,0.509803950786591,0.588235318660736);
#317=PRE_DEFINED_MARKER('');
#318=COLOUR_RGB('',0.509803950786591,0.509803950786591,0.588235318660736);
#319=DRAUGHTING_PRE_DEFINED_CURVE_FONT('continuous');
#320=COLOUR_RGB('',0.509803950786591,0.509803950786591,0.588235318660736);
#321=CARTESIAN_POINT('',(-6.02500000000001,1.01194293051371E-014,4.29274592024268));
#322=VECTOR('',#416,1.0);
#323=SURFACE_SIDE_STYLE('',(#417));
#324=EDGE_LOOP('',(#418,#419,#420,#421));
#325=AXIS2_PLACEMENT_3D('',#422,#423,#424);
#326=SURFACE_SIDE_STYLE('',(#425));
#327=EDGE_LOOP('',(#426,#427,#428,#429));
#328=AXIS2_PLACEMENT_3D('',#430,#431,#432);
#329=PRE_DEFINED_MARKER('');
#330=COLOUR_RGB('',0.509803950786591,0.509803950786591,0.588235318660736);
#332=SURFACE_STYLE_FILL_AREA(#433);
#333=CARTESIAN_POINT('',(0.0,1.19790250361656E-014,-2.8421709430404E-014));
#334=DIRECTION('',(-0.0,0.0,-1.0));
#335=DIRECTION('',(-1.0,-1.8618595897934E-016,0.0));
#336=CARTESIAN_POINT('',(0.0,1.19790250361656E-014,-2.8421709430404E-014));
#337=DIRECTION('',(-0.0,0.0,-1.0));
#338=DIRECTION('',(-1.0,-1.8618595897934E-016,0.0));
#339=SURFACE_STYLE_FILL_AREA(#434);
#340=ORIENTED_EDGE('',*,*,#81,.T.);
#341=ORIENTED_EDGE('',*,*,#67,.F.);
#342=ORIENTED_EDGE('',*,*,#73,.T.);
#343=ORIENTED_EDGE('',*,*,#79,.T.);
#344=CARTESIAN_POINT('',(0.0,1.19790250361656E-014,2.49999999999997));
#345=DIRECTION('',(0.0,-0.0,1.0));
#346=DIRECTION('',(-1.0,-1.8618595897934E-016,0.0));
#347=CARTESIAN_POINT('',(0.0,1.19790250361656E-014,-2.8421709430404E-014));
#348=DIRECTION('',(-0.0,0.0,-1.0));
#349=DIRECTION('',(-1.0,-1.8618595897934E-016,0.0));
#350=SURFACE_STYLE_FILL_AREA(#435);
#351=ORIENTED_EDGE('',*,*,#107,.F.);
#352=ORIENTED_EDGE('',*,*,#79,.F.);
#353=ORIENTED_EDGE('',*,*,#85,.T.);
#354=ORIENTED_EDGE('',*,*,#103,.T.);
#355=CARTESIAN_POINT('',(-9.625,1.08003414206116E-014,4.99999999999997));
#356=DIRECTION('',(0.0,0.0,1.0));
#357=DIRECTION('',(-1.0,-1.22460635382238E-016,0.0));
#358=SURFACE_STYLE_FILL_AREA(#436);
#359=ORIENTED_EDGE('',*,*,#109,.F.);
#360=ORIENTED_EDGE('',*,*,#93,.F.);
#361=ORIENTED_EDGE('',*,*,#113,.F.);
#362=ORIENTED_EDGE('',*,*,#87,.T.);
#363=CARTESIAN_POINT('',(0.0,1.19790250361656E-014,1.79274592024268));
#364=DIRECTION('',(0.0,-0.0,1.0));
#365=DIRECTION('',(-1.0,-1.8618595897934E-016,0.0));
#366=DIRECTION('',(-0.0,-0.0,1.0));
#367=CARTESIAN_POINT('',(0.0,1.19790250361656E-014,4.99999999999997));
#368=DIRECTION('',(-0.0,0.0,-1.0));
#369=DIRECTION('',(-1.0,-1.8618595897934E-016,0.0));
#370=DIRECTION('',(0.0,0.0,-1.0));
#371=CARTESIAN_POINT('',(0.0,1.19790250361656E-014,4.99999999999997));
#372=DIRECTION('',(-0.0,0.0,-1.0));
#373=DIRECTION('',(-1.0,-1.8618595897934E-016,0.0));
#374=CARTESIAN_POINT('',(0.0,1.19790250361656E-014,-2.8421709430404E-014));
#375=DIRECTION('',(-0.0,0.0,-1.0));
#376=DIRECTION('',(-1.0,-1.8618595897934E-016,0.0));
#377=CARTESIAN_POINT('',(0.0,1.19790250361656E-014,3.58549184048539));
#378=DIRECTION('',(-0.0,0.0,-1.0));
#379=DIRECTION('',(-1.0,-1.8618595897934E-016,0.0));
#380=CARTESIAN_POINT('',(0.0,1.19790250361656E-014,3.58549184048539));
#381=DIRECTION('',(-0.0,0.0,-1.0));
#382=DIRECTION('',(-1.0,-1.8618595897934E-016,0.0));
#383=DIRECTION('',(0.866025403784438,2.67295791508677E-016,0.500000000000002));
#384=CARTESIAN_POINT('',(0.0,1.19790250361656E-014,4.99999999999997));
#385=DIRECTION('',(-0.0,0.0,-1.0));
#386=DIRECTION('',(-1.0,-1.8618595897934E-016,0.0));
#387=SURFACE_STYLE_FILL_AREA(#437);
#388=ORIENTED_EDGE('',*,*,#121,.T.);
#389=ORIENTED_EDGE('',*,*,#91,.T.);
#390=ORIENTED_EDGE('',*,*,#101,.T.);
#391=ORIENTED_EDGE('',*,*,#85,.F.);
#392=CARTESIAN_POINT('',(0.0,1.19790250361656E-014,4.29274592024268));
#393=DIRECTION('',(0.0,-0.0,1.0));
#394=DIRECTION('',(-1.0,-1.8618595897934E-016,0.0));
#395=CARTESIAN_POINT('',(0.0,1.19790250361656E-014,4.99999999999997));
#396=DIRECTION('',(-0.0,0.0,-1.0));
#397=DIRECTION('',(-1.0,-1.8618595897934E-016,0.0));
#398=DIRECTION('',(0.0,0.0,-1.0));
#399=SURFACE_STYLE_FILL_AREA(#438);
#400=ORIENTED_EDGE('',*,*,#121,.F.);
#401=ORIENTED_EDGE('',*,*,#103,.F.);
#402=ORIENTED_EDGE('',*,*,#101,.F.);
#403=ORIENTED_EDGE('',*,*,#93,.T.);
#404=CARTESIAN_POINT('',(0.0,1.19790250361656E-014,4.29274592024268));
#405=DIRECTION('',(0.0,-0.0,1.0));
#406=DIRECTION('',(-1.0,-1.8618595897934E-016,0.0));
#407=DIRECTION('',(0.0,0.0,1.0));
#408=SURFACE_STYLE_FILL_AREA(#439);
#409=ORIENTED_EDGE('',*,*,#63,.F.);
#410=ORIENTED_EDGE('',*,*,#87,.F.);
#411=ORIENTED_EDGE('',*,*,#61,.T.);
#412=ORIENTED_EDGE('',*,*,#67,.T.);
#413=CARTESIAN_POINT('',(-8.40000000000001,1.06442041104992E-014,-2.8421709430404E-014));
#414=DIRECTION('',(0.0,0.0,-1.0));
#415=DIRECTION('',(1.0,1.22460635382238E-016,0.0));
#416=DIRECTION('',(0.866025403784438,2.67295791508677E-016,-0.500000000000002));
#417=SURFACE_STYLE_FILL_AREA(#440);
#418=ORIENTED_EDGE('',*,*,#109,.T.);
#419=ORIENTED_EDGE('',*,*,#63,.T.);
#420=ORIENTED_EDGE('',*,*,#113,.T.);
#421=ORIENTED_EDGE('',*,*,#91,.F.);
#422=CARTESIAN_POINT('',(0.0,1.19790250361656E-014,1.79274592024268));
#423=DIRECTION('',(0.0,-0.0,1.0));
#424=DIRECTION('',(-1.0,-1.8618595897934E-016,0.0));
#425=SURFACE_STYLE_FILL_AREA(#441);
#426=ORIENTED_EDGE('',*,*,#81,.F.);
#427=ORIENTED_EDGE('',*,*,#107,.T.);
#428=ORIENTED_EDGE('',*,*,#73,.F.);
#429=ORIENTED_EDGE('',*,*,#61,.F.);
#430=CARTESIAN_POINT('',(0.0,1.19790250361656E-014,2.49999999999997));
#431=DIRECTION('',(0.0,-0.0,1.0));
#432=DIRECTION('',(-1.0,-1.8618595897934E-016,0.0));
#433=FILL_AREA_STYLE('',(#442));
#434=FILL_AREA_STYLE('',(#443));
#435=FILL_AREA_STYLE('',(#444));
#436=FILL_AREA_STYLE('',(#445));
#437=FILL_AREA_STYLE('',(#446));
#438=FILL_AREA_STYLE('',(#447));
#439=FILL_AREA_STYLE('',(#448));
#440=FILL_AREA_STYLE('',(#449));
#441=FILL_AREA_STYLE('',(#450));
#442=FILL_AREA_STYLE_COLOUR('',#451);
#443=FILL_AREA_STYLE_COLOUR('',#452);
#444=FILL_AREA_STYLE_COLOUR('',#453);
#445=FILL_AREA_STYLE_COLOUR('',#454);
#446=FILL_AREA_STYLE_COLOUR('',#455);
#447=FILL_AREA_STYLE_COLOUR('',#456);
#448=FILL_AREA_STYLE_COLOUR('',#457);
#449=FILL_AREA_STYLE_COLOUR('',#458);
#450=FILL_AREA_STYLE_COLOUR('',#459);
#451=COLOUR_RGB('',0.509803950786591,0.509803950786591,0.588235318660736);
#452=COLOUR_RGB('',0.509803950786591,0.509803950786591,0.588235318660736);
#453=COLOUR_RGB('',0.509803950786591,0.509803950786591,0.588235318660736);
#454=COLOUR_RGB('',0.509803950786591,0.509803950786591,0.588235318660736);
#455=COLOUR_RGB('',0.509803950786591,0.509803950786591,0.588235318660736);
#456=COLOUR_RGB('',0.509803950786591,0.509803950786591,0.588235318660736);
#457=COLOUR_RGB('',0.509803950786591,0.509803950786591,0.588235318660736);
#458=COLOUR_RGB('',0.509803950786591,0.509803950786591,0.588235318660736);
#459=COLOUR_RGB('',0.509803950786591,0.509803950786591,0.588235318660736);
ENDSEC;
END-ISO-10303-21;
