ISO-10303-21;
HEADER;
FILE_DESCRIPTION(('STEP AP214'),'1');
FILE_NAME(' ','  ',('TraceParts'),('TraceParts S.A.'),'XStep 1.0',' ',' ');
FILE_SCHEMA(('automotive_design'));
ENDSEC;
DATA;
#1=MECHANICAL_DESIGN_GEOMETRIC_PRESENTATION_REPRESENTATION(' ',(#10,#11,#12,#13,#14,#15,#16,#17,#18,#19,#20,#21,#22,#23,#24,#25,#26,#27,#28,#29,#30,#31,#32,#33,#34,#35,#36,#37,#38,#39,#40,#41,#42,#43,#44),#6);
#2=PRODUCT_DEFINITION_CONTEXT('',#45,'design');
#3=APPLICATION_PROTOCOL_DEFINITION('INTERNATIONAL STANDARD','automotive_design',1994,#45);
#4=PRODUCT_CATEGORY_RELATIONSHIP('NONE','NONE',#46,#47);
#5=SHAPE_DEFINITION_REPRESENTATION(#48,#49);
#6= (GEOMETRIC_REPRESENTATION_CONTEXT(3)GLOBAL_UNCERTAINTY_ASSIGNED_CONTEXT((#52))GLOBAL_UNIT_ASSIGNED_CONTEXT((#54,#55,#56))REPRESENTATION_CONTEXT('NONE','WORKSPACE'));
#10=STYLED_ITEM('',(#58),#59);
#11=STYLED_ITEM('',(#60),#61);
#12=STYLED_ITEM('',(#62),#63);
#13=STYLED_ITEM('',(#64),#65);
#14=STYLED_ITEM('',(#66),#67);
#15=STYLED_ITEM('',(#68),#69);
#16=STYLED_ITEM('',(#70),#71);
#17=STYLED_ITEM('',(#72),#73);
#18=STYLED_ITEM('',(#74),#75);
#19=STYLED_ITEM('',(#76),#77);
#20=STYLED_ITEM('',(#78),#79);
#21=STYLED_ITEM('',(#80),#81);
#22=STYLED_ITEM('',(#82),#83);
#23=STYLED_ITEM('',(#84),#85);
#24=STYLED_ITEM('',(#86),#87);
#25=STYLED_ITEM('',(#88),#89);
#26=STYLED_ITEM('',(#90),#91);
#27=STYLED_ITEM('',(#92),#93);
#28=STYLED_ITEM('',(#94),#95);
#29=STYLED_ITEM('',(#96),#97);
#30=STYLED_ITEM('',(#98),#99);
#31=STYLED_ITEM('',(#100),#101);
#32=STYLED_ITEM('',(#102),#103);
#33=STYLED_ITEM('',(#104),#105);
#34=STYLED_ITEM('',(#106),#107);
#35=STYLED_ITEM('',(#108),#109);
#36=STYLED_ITEM('',(#110),#111);
#37=STYLED_ITEM('',(#112),#113);
#38=STYLED_ITEM('',(#114),#115);
#39=STYLED_ITEM('',(#116),#117);
#40=STYLED_ITEM('',(#118),#119);
#41=STYLED_ITEM('',(#120),#121);
#42=STYLED_ITEM('',(#122),#123);
#43=STYLED_ITEM('',(#124),#125);
#44=STYLED_ITEM('',(#126),#127);
#45=APPLICATION_CONTEXT(' ');
#46=PRODUCT_CATEGORY('part','NONE');
#47=PRODUCT_RELATED_PRODUCT_CATEGORY('detail',' ',(#128));
#48=PRODUCT_DEFINITION_SHAPE('NONE','NONE',#129);
#49=ADVANCED_BREP_SHAPE_REPRESENTATION('1',(#107,#130),#6);
#52=UNCERTAINTY_MEASURE_WITH_UNIT(LENGTH_MEASURE(1.0E-006),#54,'','');
#54= (CONVERSION_BASED_UNIT('MILLIMETRE',#133)LENGTH_UNIT()NAMED_UNIT(#136));
#55= (NAMED_UNIT(#138)PLANE_ANGLE_UNIT()SI_UNIT($,.RADIAN.));
#56= (NAMED_UNIT(#138)SOLID_ANGLE_UNIT()SI_UNIT($,.STERADIAN.));
#58=PRESENTATION_STYLE_ASSIGNMENT((#144));
#59=EDGE_CURVE('',#63,#91,#145,.T.);
#60=PRESENTATION_STYLE_ASSIGNMENT((#146));
#61=VERTEX_POINT('',#147);
#62=PRESENTATION_STYLE_ASSIGNMENT((#148));
#63=VERTEX_POINT('',#149);
#64=PRESENTATION_STYLE_ASSIGNMENT((#150));
#65=EDGE_CURVE('',#83,#77,#151,.T.);
#66=PRESENTATION_STYLE_ASSIGNMENT((#152));
#67=EDGE_CURVE('',#77,#83,#153,.T.);
#68=PRESENTATION_STYLE_ASSIGNMENT((#154));
#69=ADVANCED_FACE('',(#155,#156),#157,.T.);
#70=PRESENTATION_STYLE_ASSIGNMENT((#158));
#71=EDGE_CURVE('',#61,#119,#159,.T.);
#72=PRESENTATION_STYLE_ASSIGNMENT((#160));
#73=ADVANCED_FACE('',(#161),#162,.T.);
#74=PRESENTATION_STYLE_ASSIGNMENT((#163));
#75=ADVANCED_FACE('',(#164),#165,.F.);
#76=PRESENTATION_STYLE_ASSIGNMENT((#166));
#77=VERTEX_POINT('',#167);
#78=PRESENTATION_STYLE_ASSIGNMENT((#168));
#79=EDGE_CURVE('',#125,#103,#169,.T.);
#80=PRESENTATION_STYLE_ASSIGNMENT((#170));
#81=EDGE_CURVE('',#91,#109,#171,.T.);
#82=PRESENTATION_STYLE_ASSIGNMENT((#172));
#83=VERTEX_POINT('',#173);
#84=PRESENTATION_STYLE_ASSIGNMENT((#174));
#85=EDGE_CURVE('',#91,#63,#175,.T.);
#86=PRESENTATION_STYLE_ASSIGNMENT((#176));
#87=EDGE_CURVE('',#93,#109,#177,.T.);
#88=PRESENTATION_STYLE_ASSIGNMENT((#178));
#89=EDGE_CURVE('',#77,#61,#179,.T.);
#90=PRESENTATION_STYLE_ASSIGNMENT((#180));
#91=VERTEX_POINT('',#181);
#92=PRESENTATION_STYLE_ASSIGNMENT((#182));
#93=VERTEX_POINT('',#183);
#94=PRESENTATION_STYLE_ASSIGNMENT((#184));
#95=EDGE_CURVE('',#119,#61,#185,.T.);
#96=PRESENTATION_STYLE_ASSIGNMENT((#186));
#97=ADVANCED_FACE('',(#187),#188,.F.);
#98=PRESENTATION_STYLE_ASSIGNMENT((#189));
#99=EDGE_CURVE('',#109,#103,#190,.T.);
#100=PRESENTATION_STYLE_ASSIGNMENT((#191));
#101=ADVANCED_FACE('',(#192),#193,.T.);
#102=PRESENTATION_STYLE_ASSIGNMENT((#194));
#103=VERTEX_POINT('',#195);
#104=PRESENTATION_STYLE_ASSIGNMENT((#196));
#105=EDGE_CURVE('',#103,#125,#197,.T.);
#106=PRESENTATION_STYLE_ASSIGNMENT((#198));
#107=MANIFOLD_SOLID_BREP('1',#199);
#108=PRESENTATION_STYLE_ASSIGNMENT((#200));
#109=VERTEX_POINT('',#201);
#110=PRESENTATION_STYLE_ASSIGNMENT((#202));
#111=ADVANCED_FACE('',(#203),#204,.F.);
#112=PRESENTATION_STYLE_ASSIGNMENT((#205));
#113=EDGE_CURVE('',#119,#83,#206,.T.);
#114=PRESENTATION_STYLE_ASSIGNMENT((#207));
#115=EDGE_CURVE('',#109,#93,#208,.T.);
#116=PRESENTATION_STYLE_ASSIGNMENT((#209));
#117=EDGE_CURVE('',#93,#63,#210,.T.);
#118=PRESENTATION_STYLE_ASSIGNMENT((#211));
#119=VERTEX_POINT('',#212);
#120=PRESENTATION_STYLE_ASSIGNMENT((#213));
#121=EDGE_CURVE('',#125,#93,#214,.T.);
#122=PRESENTATION_STYLE_ASSIGNMENT((#215));
#123=ADVANCED_FACE('',(#216),#217,.F.);
#124=PRESENTATION_STYLE_ASSIGNMENT((#218));
#125=VERTEX_POINT('',#219);
#126=PRESENTATION_STYLE_ASSIGNMENT((#220));
#127=ADVANCED_FACE('',(#221,#222),#223,.T.);
#128=PRODUCT('1','1','PART-1-DESC',(#224));
#129=PRODUCT_DEFINITION('NONE','NONE',#225,#2);
#130=AXIS2_PLACEMENT_3D('',#226,#227,#228);
#133=LENGTH_MEASURE_WITH_UNIT(LENGTH_MEASURE(1.0),#229);
#136=DIMENSIONAL_EXPONENTS(1.0,0.0,0.0,0.0,0.0,0.0,0.0);
#138=DIMENSIONAL_EXPONENTS(0.0,0.0,0.0,0.0,0.0,0.0,0.0);
#144=CURVE_STYLE('',#230,POSITIVE_LENGTH_MEASURE(1.0E-006),#231);
#145=CIRCLE('',#232,3.55000000000001);
#146=POINT_STYLE(' ',#233,POSITIVE_LENGTH_MEASURE(1.0E-006),#234);
#147=CARTESIAN_POINT('',(8.5,1.4616153598882E-014,3.99999999999997));
#148=POINT_STYLE(' ',#235,POSITIVE_LENGTH_MEASURE(1.0E-006),#236);
#149=CARTESIAN_POINT('',(-3.55000000000001,1.12687533509486E-014,-2.8421709430404E-014));
#150=CURVE_STYLE('',#237,POSITIVE_LENGTH_MEASURE(1.0E-006),#238);
#151=CIRCLE('',#239,8.5);
#152=CURVE_STYLE('',#240,POSITIVE_LENGTH_MEASURE(1.0E-006),#241);
#153=CIRCLE('',#242,8.5);
#154=SURFACE_STYLE_USAGE(.BOTH.,#243);
#155=FACE_BOUND('',#244,.T.);
#156=FACE_OUTER_BOUND('',#245,.T.);
#157=PLANE('',#246);
#158=CURVE_STYLE('',#247,POSITIVE_LENGTH_MEASURE(1.0E-006),#248);
#159=CIRCLE('',#249,8.5);
#160=SURFACE_STYLE_USAGE(.BOTH.,#250);
#161=FACE_OUTER_BOUND('',#251,.T.);
#162=CYLINDRICAL_SURFACE('',#252,8.5);
#163=SURFACE_STYLE_USAGE(.BOTH.,#253);
#164=FACE_OUTER_BOUND('',#254,.T.);
#165=CYLINDRICAL_SURFACE('',#255,3.55000000000001);
#166=POINT_STYLE(' ',#256,POSITIVE_LENGTH_MEASURE(1.0E-006),#257);
#167=CARTESIAN_POINT('',(8.5,1.4616153598882E-014,-2.8421709430404E-014));
#168=CURVE_STYLE('',#258,POSITIVE_LENGTH_MEASURE(1.0E-006),#259);
#169=CIRCLE('',#260,5.5);
#170=CURVE_STYLE('',#261,POSITIVE_LENGTH_MEASURE(1.0E-006),#262);
#171=LINE('',#263,#264);
#172=POINT_STYLE(' ',#265,POSITIVE_LENGTH_MEASURE(1.0E-006),#266);
#173=CARTESIAN_POINT('',(-8.5,1.06625732058066E-014,-2.8421709430404E-014));
#174=CURVE_STYLE('',#267,POSITIVE_LENGTH_MEASURE(1.0E-006),#268);
#175=CIRCLE('',#269,3.55000000000001);
#176=CURVE_STYLE('',#270,POSITIVE_LENGTH_MEASURE(1.0E-006),#271);
#177=CIRCLE('',#272,3.55000000000001);
#178=CURVE_STYLE('',#273,POSITIVE_LENGTH_MEASURE(1.0E-006),#274);
#179=LINE('',#275,#276);
#180=POINT_STYLE(' ',#277,POSITIVE_LENGTH_MEASURE(1.0E-006),#278);
#181=CARTESIAN_POINT('',(3.55000000000001,1.30625851963253E-014,-2.8421709430404E-014));
#182=POINT_STYLE(' ',#279,POSITIVE_LENGTH_MEASURE(1.0E-006),#280);
#183=CARTESIAN_POINT('',(-3.55000000000001,1.14447395079301E-014,2.87416697508021));
#184=CURVE_STYLE('',#281,POSITIVE_LENGTH_MEASURE(1.0E-006),#282);
#185=CIRCLE('',#283,8.5);
#186=SURFACE_STYLE_USAGE(.BOTH.,#284);
#187=FACE_OUTER_BOUND('',#285,.T.);
#188=CONICAL_SURFACE('',#286,4.52500000000001,1.0471975511966);
#189=CURVE_STYLE('',#287,POSITIVE_LENGTH_MEASURE(1.0E-006),#288);
#190=LINE('',#289,#290);
#191=SURFACE_STYLE_USAGE(.BOTH.,#291);
#192=FACE_OUTER_BOUND('',#292,.T.);
#193=CYLINDRICAL_SURFACE('',#293,8.5);
#194=POINT_STYLE(' ',#294,POSITIVE_LENGTH_MEASURE(1.0E-006),#295);
#195=CARTESIAN_POINT('',(5.5,1.36745969912719E-014,3.99999999999997));
#196=CURVE_STYLE('',#296,POSITIVE_LENGTH_MEASURE(1.0E-006),#297);
#197=CIRCLE('',#298,5.5);
#198=SURFACE_STYLE_USAGE(.BOTH.,#299);
#199=CLOSED_SHELL('',(#75,#101,#123,#97,#127,#73,#69,#111));
#200=POINT_STYLE(' ',#300,POSITIVE_LENGTH_MEASURE(1.0E-006),#301);
#201=CARTESIAN_POINT('',(3.55000000000001,1.30625851963253E-014,2.87416697508021));
#202=SURFACE_STYLE_USAGE(.BOTH.,#302);
#203=FACE_OUTER_BOUND('',#303,.T.);
#204=CYLINDRICAL_SURFACE('',#304,3.55000000000001);
#205=CURVE_STYLE('',#305,POSITIVE_LENGTH_MEASURE(1.0E-006),#306);
#206=LINE('',#307,#308);
#207=CURVE_STYLE('',#309,POSITIVE_LENGTH_MEASURE(1.0E-006),#310);
#208=CIRCLE('',#311,3.55000000000001);
#209=CURVE_STYLE('',#312,POSITIVE_LENGTH_MEASURE(1.0E-006),#313);
#210=LINE('',#314,#315);
#211=POINT_STYLE(' ',#316,POSITIVE_LENGTH_MEASURE(1.0E-006),#317);
#212=CARTESIAN_POINT('',(-8.5,1.0907494476571E-014,3.99999999999997));
#213=CURVE_STYLE('',#318,POSITIVE_LENGTH_MEASURE(1.0E-006),#319);
#214=LINE('',#320,#321);
#215=SURFACE_STYLE_USAGE(.BOTH.,#322);
#216=FACE_OUTER_BOUND('',#323,.T.);
#217=CONICAL_SURFACE('',#324,4.52500000000001,1.0471975511966);
#218=POINT_STYLE(' ',#325,POSITIVE_LENGTH_MEASURE(1.0E-006),#326);
#219=CARTESIAN_POINT('',(-5.5,1.12748763827178E-014,3.99999999999997));
#220=SURFACE_STYLE_USAGE(.BOTH.,#327);
#221=FACE_OUTER_BOUND('',#328,.T.);
#222=FACE_BOUND('',#329,.T.);
#223=PLANE('',#330);
#224=PRODUCT_CONTEXT('',#45,'mechanical');
#225=PRODUCT_DEFINITION_FORMATION_WITH_SPECIFIED_SOURCE(' ','NONE',#128,.NOT_KNOWN.);
#226=CARTESIAN_POINT('',(0.0,0.0,0.0));
#227=DIRECTION('',(0.0,0.0,1.0));
#228=DIRECTION('',(1.0,0.0,0.0));
#229= (NAMED_UNIT(#136)LENGTH_UNIT()SI_UNIT(.MILLI.,.METRE.));
#230=DRAUGHTING_PRE_DEFINED_CURVE_FONT('continuous');
#231=COLOUR_RGB('',0.509803950786591,0.509803950786591,0.588235318660736);
#232=AXIS2_PLACEMENT_3D('',#332,#333,#334);
#233=PRE_DEFINED_MARKER('');
#234=COLOUR_RGB('',0.509803950786591,0.509803950786591,0.588235318660736);
#235=PRE_DEFINED_MARKER('');
#236=COLOUR_RGB('',0.509803950786591,0.509803950786591,0.588235318660736);
#237=DRAUGHTING_PRE_DEFINED_CURVE_FONT('continuous');
#238=COLOUR_RGB('',0.509803950786591,0.509803950786591,0.588235318660736);
#239=AXIS2_PLACEMENT_3D('',#335,#336,#337);
#240=DRAUGHTING_PRE_DEFINED_CURVE_FONT('continuous');
#241=COLOUR_RGB('',0.509803950786591,0.509803950786591,0.588235318660736);
#242=AXIS2_PLACEMENT_3D('',#338,#339,#340);
#243=SURFACE_SIDE_STYLE('',(#341));
#244=EDGE_LOOP('',(#342,#343));
#245=EDGE_LOOP('',(#344,#345));
#246=AXIS2_PLACEMENT_3D('',#346,#347,#348);
#247=DRAUGHTING_PRE_DEFINED_CURVE_FONT('continuous');
#248=COLOUR_RGB('',0.509803950786591,0.509803950786591,0.588235318660736);
#249=AXIS2_PLACEMENT_3D('',#349,#350,#351);
#250=SURFACE_SIDE_STYLE('',(#352));
#251=EDGE_LOOP('',(#353,#354,#355,#356));
#252=AXIS2_PLACEMENT_3D('',#357,#358,#359);
#253=SURFACE_SIDE_STYLE('',(#360));
#254=EDGE_LOOP('',(#361,#362,#363,#364));
#255=AXIS2_PLACEMENT_3D('',#365,#366,#367);
#256=PRE_DEFINED_MARKER('');
#257=COLOUR_RGB('',0.509803950786591,0.509803950786591,0.588235318660736);
#258=DRAUGHTING_PRE_DEFINED_CURVE_FONT('continuous');
#259=COLOUR_RGB('',0.509803950786591,0.509803950786591,0.588235318660736);
#260=AXIS2_PLACEMENT_3D('',#368,#369,#370);
#261=DRAUGHTING_PRE_DEFINED_CURVE_FONT('continuous');
#262=COLOUR_RGB('',0.509803950786591,0.509803950786591,0.588235318660736);
#263=CARTESIAN_POINT('',(3.55000000000001,1.30625851963253E-014,1.43708348754009));
#264=VECTOR('',#371,1.0);
#265=PRE_DEFINED_MARKER('');
#266=COLOUR_RGB('',0.509803950786591,0.509803950786591,0.588235318660736);
#267=DRAUGHTING_PRE_DEFINED_CURVE_FONT('continuous');
#268=COLOUR_RGB('',0.509803950786591,0.509803950786591,0.588235318660736);
#269=AXIS2_PLACEMENT_3D('',#372,#373,#374);
#270=DRAUGHTING_PRE_DEFINED_CURVE_FONT('continuous');
#271=COLOUR_RGB('',0.509803950786591,0.509803950786591,0.588235318660736);
#272=AXIS2_PLACEMENT_3D('',#375,#376,#377);
#273=DRAUGHTING_PRE_DEFINED_CURVE_FONT('continuous');
#274=COLOUR_RGB('',0.509803950786591,0.509803950786591,0.588235318660736);
#275=CARTESIAN_POINT('',(8.5,1.4616153598882E-014,1.99999999999997));
#276=VECTOR('',#378,1.0);
#277=PRE_DEFINED_MARKER('');
#278=COLOUR_RGB('',0.509803950786591,0.509803950786591,0.588235318660736);
#279=PRE_DEFINED_MARKER('');
#280=COLOUR_RGB('',0.509803950786591,0.509803950786591,0.588235318660736);
#281=DRAUGHTING_PRE_DEFINED_CURVE_FONT('continuous');
#282=COLOUR_RGB('',0.509803950786591,0.509803950786591,0.588235318660736);
#283=AXIS2_PLACEMENT_3D('',#379,#380,#381);
#284=SURFACE_SIDE_STYLE('',(#382));
#285=EDGE_LOOP('',(#383,#384,#385,#386));
#286=AXIS2_PLACEMENT_3D('',#387,#388,#389);
#287=DRAUGHTING_PRE_DEFINED_CURVE_FONT('continuous');
#288=COLOUR_RGB('',0.509803950786591,0.509803950786591,0.588235318660736);
#289=CARTESIAN_POINT('',(4.52500000000001,1.33685910937986E-014,3.43708348754009));
#290=VECTOR('',#390,1.0);
#291=SURFACE_SIDE_STYLE('',(#391));
#292=EDGE_LOOP('',(#392,#393,#394,#395));
#293=AXIS2_PLACEMENT_3D('',#396,#397,#398);
#294=PRE_DEFINED_MARKER('');
#295=COLOUR_RGB('',0.509803950786591,0.509803950786591,0.588235318660736);
#296=DRAUGHTING_PRE_DEFINED_CURVE_FONT('continuous');
#297=COLOUR_RGB('',0.509803950786591,0.509803950786591,0.588235318660736);
#298=AXIS2_PLACEMENT_3D('',#399,#400,#401);
#299=SURFACE_SIDE_STYLE('',(#402));
#300=PRE_DEFINED_MARKER('');
#301=COLOUR_RGB('',0.509803950786591,0.509803950786591,0.588235318660736);
#302=SURFACE_SIDE_STYLE('',(#403));
#303=EDGE_LOOP('',(#404,#405,#406,#407));
#304=AXIS2_PLACEMENT_3D('',#408,#409,#410);
#305=DRAUGHTING_PRE_DEFINED_CURVE_FONT('continuous');
#306=COLOUR_RGB('',0.509803950786591,0.509803950786591,0.588235318660736);
#307=CARTESIAN_POINT('',(-8.5,9.28066615575814E-015,1.99999999999997));
#308=VECTOR('',#411,1.0);
#309=DRAUGHTING_PRE_DEFINED_CURVE_FONT('continuous');
#310=COLOUR_RGB('',0.509803950786591,0.509803950786591,0.588235318660736);
#311=AXIS2_PLACEMENT_3D('',#412,#413,#414);
#312=DRAUGHTING_PRE_DEFINED_CURVE_FONT('continuous');
#313=COLOUR_RGB('',0.509803950786591,0.509803950786591,0.588235318660736);
#314=CARTESIAN_POINT('',(-3.55000000000001,1.08342345583148E-014,1.43708348754009));
#315=VECTOR('',#415,1.0);
#316=PRE_DEFINED_MARKER('');
#317=COLOUR_RGB('',0.509803950786591,0.509803950786591,0.588235318660736);
#318=DRAUGHTING_PRE_DEFINED_CURVE_FONT('continuous');
#319=COLOUR_RGB('',0.509803950786591,0.509803950786591,0.588235318660736);
#320=CARTESIAN_POINT('',(-4.52500000000001,1.05282286608415E-014,3.43708348754009));
#321=VECTOR('',#416,1.0);
#322=SURFACE_SIDE_STYLE('',(#417));
#323=EDGE_LOOP('',(#418,#419,#420,#421));
#324=AXIS2_PLACEMENT_3D('',#422,#423,#424);
#325=PRE_DEFINED_MARKER('');
#326=COLOUR_RGB('',0.509803950786591,0.509803950786591,0.588235318660736);
#327=SURFACE_SIDE_STYLE('',(#425));
#328=EDGE_LOOP('',(#426,#427));
#329=EDGE_LOOP('',(#428,#429));
#330=AXIS2_PLACEMENT_3D('',#430,#431,#432);
#332=CARTESIAN_POINT('',(0.0,1.19484098773201E-014,-2.8421709430404E-014));
#333=DIRECTION('',(-0.0,0.0,-1.0));
#334=DIRECTION('',(-1.0,-1.9139156715446E-016,0.0));
#335=CARTESIAN_POINT('',(0.0,1.19484098773201E-014,-2.8421709430404E-014));
#336=DIRECTION('',(-0.0,0.0,-1.0));
#337=DIRECTION('',(-1.0,-1.9139156715446E-016,0.0));
#338=CARTESIAN_POINT('',(0.0,1.19484098773201E-014,-2.8421709430404E-014));
#339=DIRECTION('',(-0.0,0.0,-1.0));
#340=DIRECTION('',(-1.0,-1.9139156715446E-016,0.0));
#341=SURFACE_STYLE_FILL_AREA(#433);
#342=ORIENTED_EDGE('',*,*,#59,.F.);
#343=ORIENTED_EDGE('',*,*,#85,.F.);
#344=ORIENTED_EDGE('',*,*,#65,.T.);
#345=ORIENTED_EDGE('',*,*,#67,.T.);
#346=CARTESIAN_POINT('',(-6.02500000000001,1.09656632783776E-014,-2.8421709430404E-014));
#347=DIRECTION('',(0.0,0.0,-1.0));
#348=DIRECTION('',(1.0,1.22460635382238E-016,0.0));
#349=CARTESIAN_POINT('',(0.0,1.19484098773201E-014,3.99999999999997));
#350=DIRECTION('',(-0.0,0.0,-1.0));
#351=DIRECTION('',(-1.0,-1.9139156715446E-016,0.0));
#352=SURFACE_STYLE_FILL_AREA(#434);
#353=ORIENTED_EDGE('',*,*,#113,.T.);
#354=ORIENTED_EDGE('',*,*,#67,.F.);
#355=ORIENTED_EDGE('',*,*,#89,.T.);
#356=ORIENTED_EDGE('',*,*,#71,.T.);
#357=CARTESIAN_POINT('',(0.0,1.19484098773201E-014,1.99999999999997));
#358=DIRECTION('',(0.0,-0.0,1.0));
#359=DIRECTION('',(-1.0,-1.9139156715446E-016,0.0));
#360=SURFACE_STYLE_FILL_AREA(#435);
#361=ORIENTED_EDGE('',*,*,#117,.F.);
#362=ORIENTED_EDGE('',*,*,#115,.F.);
#363=ORIENTED_EDGE('',*,*,#81,.F.);
#364=ORIENTED_EDGE('',*,*,#85,.T.);
#365=CARTESIAN_POINT('',(0.0,1.19484098773201E-014,1.43708348754009));
#366=DIRECTION('',(0.0,-0.0,1.0));
#367=DIRECTION('',(-1.0,-1.9139156715446E-016,0.0));
#368=CARTESIAN_POINT('',(0.0,1.19484098773201E-014,3.99999999999997));
#369=DIRECTION('',(-0.0,0.0,-1.0));
#370=DIRECTION('',(-1.0,-1.9139156715446E-016,0.0));
#371=DIRECTION('',(0.0,0.0,1.0));
#372=CARTESIAN_POINT('',(0.0,1.19484098773201E-014,-2.8421709430404E-014));
#373=DIRECTION('',(-0.0,0.0,-1.0));
#374=DIRECTION('',(-1.0,-1.9139156715446E-016,0.0));
#375=CARTESIAN_POINT('',(0.0,1.19484098773201E-014,2.87416697508021));
#376=DIRECTION('',(-0.0,0.0,-1.0));
#377=DIRECTION('',(-1.0,-1.9139156715446E-016,0.0));
#378=DIRECTION('',(-0.0,-0.0,1.0));
#379=CARTESIAN_POINT('',(0.0,1.19484098773201E-014,3.99999999999997));
#380=DIRECTION('',(-0.0,0.0,-1.0));
#381=DIRECTION('',(-1.0,-1.9139156715446E-016,0.0));
#382=SURFACE_STYLE_FILL_AREA(#436);
#383=ORIENTED_EDGE('',*,*,#121,.T.);
#384=ORIENTED_EDGE('',*,*,#87,.T.);
#385=ORIENTED_EDGE('',*,*,#99,.T.);
#386=ORIENTED_EDGE('',*,*,#79,.F.);
#387=CARTESIAN_POINT('',(0.0,1.19484098773201E-014,3.43708348754009));
#388=DIRECTION('',(0.0,-0.0,1.0));
#389=DIRECTION('',(-1.0,-1.9139156715446E-016,0.0));
#390=DIRECTION('',(0.86602540378444,2.71803980430479E-016,0.499999999999998));
#391=SURFACE_STYLE_FILL_AREA(#437);
#392=ORIENTED_EDGE('',*,*,#113,.F.);
#393=ORIENTED_EDGE('',*,*,#95,.T.);
#394=ORIENTED_EDGE('',*,*,#89,.F.);
#395=ORIENTED_EDGE('',*,*,#65,.F.);
#396=CARTESIAN_POINT('',(0.0,1.19484098773201E-014,1.99999999999997));
#397=DIRECTION('',(0.0,-0.0,1.0));
#398=DIRECTION('',(-1.0,-1.9139156715446E-016,0.0));
#399=CARTESIAN_POINT('',(0.0,1.19484098773201E-014,3.99999999999997));
#400=DIRECTION('',(-0.0,0.0,-1.0));
#401=DIRECTION('',(-1.0,-1.9139156715446E-016,0.0));
#402=SURFACE_STYLE_FILL_AREA(#438);
#403=SURFACE_STYLE_FILL_AREA(#439);
#404=ORIENTED_EDGE('',*,*,#117,.T.);
#405=ORIENTED_EDGE('',*,*,#59,.T.);
#406=ORIENTED_EDGE('',*,*,#81,.T.);
#407=ORIENTED_EDGE('',*,*,#87,.F.);
#408=CARTESIAN_POINT('',(0.0,1.19484098773201E-014,1.43708348754009));
#409=DIRECTION('',(0.0,-0.0,1.0));
#410=DIRECTION('',(-1.0,-1.9139156715446E-016,0.0));
#411=DIRECTION('',(0.0,0.0,-1.0));
#412=CARTESIAN_POINT('',(0.0,1.19484098773201E-014,2.87416697508021));
#413=DIRECTION('',(-0.0,0.0,-1.0));
#414=DIRECTION('',(-1.0,-1.9139156715446E-016,0.0));
#415=DIRECTION('',(0.0,0.0,-1.0));
#416=DIRECTION('',(0.86602540378444,2.71803980430479E-016,-0.499999999999998));
#417=SURFACE_STYLE_FILL_AREA(#440);
#418=ORIENTED_EDGE('',*,*,#121,.F.);
#419=ORIENTED_EDGE('',*,*,#105,.F.);
#420=ORIENTED_EDGE('',*,*,#99,.F.);
#421=ORIENTED_EDGE('',*,*,#115,.T.);
#422=CARTESIAN_POINT('',(0.0,1.19484098773201E-014,3.43708348754009));
#423=DIRECTION('',(0.0,-0.0,1.0));
#424=DIRECTION('',(-1.0,-1.9139156715446E-016,0.0));
#425=SURFACE_STYLE_FILL_AREA(#441);
#426=ORIENTED_EDGE('',*,*,#95,.F.);
#427=ORIENTED_EDGE('',*,*,#71,.F.);
#428=ORIENTED_EDGE('',*,*,#79,.T.);
#429=ORIENTED_EDGE('',*,*,#105,.T.);
#430=CARTESIAN_POINT('',(-7.0,1.10911854296444E-014,3.99999999999997));
#431=DIRECTION('',(0.0,0.0,1.0));
#432=DIRECTION('',(-1.0,-1.22460635382238E-016,0.0));
#433=FILL_AREA_STYLE('',(#442));
#434=FILL_AREA_STYLE('',(#443));
#435=FILL_AREA_STYLE('',(#444));
#436=FILL_AREA_STYLE('',(#445));
#437=FILL_AREA_STYLE('',(#446));
#438=FILL_AREA_STYLE('',(#447));
#439=FILL_AREA_STYLE('',(#448));
#440=FILL_AREA_STYLE('',(#449));
#441=FILL_AREA_STYLE('',(#450));
#442=FILL_AREA_STYLE_COLOUR('',#451);
#443=FILL_AREA_STYLE_COLOUR('',#452);
#444=FILL_AREA_STYLE_COLOUR('',#453);
#445=FILL_AREA_STYLE_COLOUR('',#454);
#446=FILL_AREA_STYLE_COLOUR('',#455);
#447=FILL_AREA_STYLE_COLOUR('',#456);
#448=FILL_AREA_STYLE_COLOUR('',#457);
#449=FILL_AREA_STYLE_COLOUR('',#458);
#450=FILL_AREA_STYLE_COLOUR('',#459);
#451=COLOUR_RGB('',0.509803950786591,0.509803950786591,0.588235318660736);
#452=COLOUR_RGB('',0.509803950786591,0.509803950786591,0.588235318660736);
#453=COLOUR_RGB('',0.509803950786591,0.509803950786591,0.588235318660736);
#454=COLOUR_RGB('',0.509803950786591,0.509803950786591,0.588235318660736);
#455=COLOUR_RGB('',0.509803950786591,0.509803950786591,0.588235318660736);
#456=COLOUR_RGB('',0.509803950786591,0.509803950786591,0.588235318660736);
#457=COLOUR_RGB('',0.509803950786591,0.509803950786591,0.588235318660736);
#458=COLOUR_RGB('',0.509803950786591,0.509803950786591,0.588235318660736);
#459=COLOUR_RGB('',0.509803950786591,0.509803950786591,0.588235318660736);
ENDSEC;
END-ISO-10303-21;
