ISO-10303-21;
HEADER;
FILE_DESCRIPTION(('STEP AP214'),'1');
FILE_NAME(' ','  ',('TraceParts'),('TraceParts S.A.'),'XStep 1.0',' ',' ');
FILE_SCHEMA(('automotive_design'));
ENDSEC;
DATA;
#1=MECHANICAL_DESIGN_GEOMETRIC_PRESENTATION_REPRESENTATION(' ',(#10,#11,#12,#13,#14,#15,#16,#17,#18,#19,#20,#21,#22,#23,#24,#25,#26,#27,#28,#29,#30,#31,#32,#33,#34,#35,#36,#37,#38,#39,#40,#41,#42,#43,#44),#6);
#2=PRODUCT_DEFINITION_CONTEXT('',#45,'design');
#3=APPLICATION_PROTOCOL_DEFINITION('INTERNATIONAL STANDARD','automotive_design',1994,#45);
#4=PRODUCT_CATEGORY_RELATIONSHIP('NONE','NONE',#46,#47);
#5=SHAPE_DEFINITION_REPRESENTATION(#48,#49);
#6= (GEOMETRIC_REPRESENTATION_CONTEXT(3)GLOBAL_UNCERTAINTY_ASSIGNED_CONTEXT((#52))GLOBAL_UNIT_ASSIGNED_CONTEXT((#54,#55,#56))REPRESENTATION_CONTEXT('NONE','WORKSPACE'));
#10=STYLED_ITEM('',(#58),#59);
#11=STYLED_ITEM('',(#60),#61);
#12=STYLED_ITEM('',(#62),#63);
#13=STYLED_ITEM('',(#64),#65);
#14=STYLED_ITEM('',(#66),#67);
#15=STYLED_ITEM('',(#68),#69);
#16=STYLED_ITEM('',(#70),#71);
#17=STYLED_ITEM('',(#72),#73);
#18=STYLED_ITEM('',(#74),#75);
#19=STYLED_ITEM('',(#76),#77);
#20=STYLED_ITEM('',(#78),#79);
#21=STYLED_ITEM('',(#80),#81);
#22=STYLED_ITEM('',(#82),#83);
#23=STYLED_ITEM('',(#84),#85);
#24=STYLED_ITEM('',(#86),#87);
#25=STYLED_ITEM('',(#88),#89);
#26=STYLED_ITEM('',(#90),#91);
#27=STYLED_ITEM('',(#92),#93);
#28=STYLED_ITEM('',(#94),#95);
#29=STYLED_ITEM('',(#96),#97);
#30=STYLED_ITEM('',(#98),#99);
#31=STYLED_ITEM('',(#100),#101);
#32=STYLED_ITEM('',(#102),#103);
#33=STYLED_ITEM('',(#104),#105);
#34=STYLED_ITEM('',(#106),#107);
#35=STYLED_ITEM('',(#108),#109);
#36=STYLED_ITEM('',(#110),#111);
#37=STYLED_ITEM('',(#112),#113);
#38=STYLED_ITEM('',(#114),#115);
#39=STYLED_ITEM('',(#116),#117);
#40=STYLED_ITEM('',(#118),#119);
#41=STYLED_ITEM('',(#120),#121);
#42=STYLED_ITEM('',(#122),#123);
#43=STYLED_ITEM('',(#124),#125);
#44=STYLED_ITEM('',(#126),#127);
#45=APPLICATION_CONTEXT(' ');
#46=PRODUCT_CATEGORY('part','NONE');
#47=PRODUCT_RELATED_PRODUCT_CATEGORY('detail',' ',(#128));
#48=PRODUCT_DEFINITION_SHAPE('NONE','NONE',#129);
#49=ADVANCED_BREP_SHAPE_REPRESENTATION('1',(#61,#130),#6);
#52=UNCERTAINTY_MEASURE_WITH_UNIT(LENGTH_MEASURE(1.0E-006),#54,'','');
#54= (CONVERSION_BASED_UNIT('MILLIMETRE',#133)LENGTH_UNIT()NAMED_UNIT(#136));
#55= (NAMED_UNIT(#138)PLANE_ANGLE_UNIT()SI_UNIT($,.RADIAN.));
#56= (NAMED_UNIT(#138)SOLID_ANGLE_UNIT()SI_UNIT($,.STERADIAN.));
#58=PRESENTATION_STYLE_ASSIGNMENT((#144));
#59=EDGE_CURVE('',#75,#117,#145,.T.);
#60=PRESENTATION_STYLE_ASSIGNMENT((#146));
#61=MANIFOLD_SOLID_BREP('1',#147);
#62=PRESENTATION_STYLE_ASSIGNMENT((#148));
#63=VERTEX_POINT('',#149);
#64=PRESENTATION_STYLE_ASSIGNMENT((#150));
#65=ADVANCED_FACE('',(#151),#152,.F.);
#66=PRESENTATION_STYLE_ASSIGNMENT((#153));
#67=EDGE_CURVE('',#121,#81,#154,.T.);
#68=PRESENTATION_STYLE_ASSIGNMENT((#155));
#69=ADVANCED_FACE('',(#156,#157),#158,.T.);
#70=PRESENTATION_STYLE_ASSIGNMENT((#159));
#71=EDGE_CURVE('',#73,#83,#160,.T.);
#72=PRESENTATION_STYLE_ASSIGNMENT((#161));
#73=VERTEX_POINT('',#162);
#74=PRESENTATION_STYLE_ASSIGNMENT((#163));
#75=VERTEX_POINT('',#164);
#76=PRESENTATION_STYLE_ASSIGNMENT((#165));
#77=EDGE_CURVE('',#63,#99,#166,.T.);
#78=PRESENTATION_STYLE_ASSIGNMENT((#167));
#79=EDGE_CURVE('',#125,#127,#168,.T.);
#80=PRESENTATION_STYLE_ASSIGNMENT((#169));
#81=VERTEX_POINT('',#170);
#82=PRESENTATION_STYLE_ASSIGNMENT((#171));
#83=VERTEX_POINT('',#172);
#84=PRESENTATION_STYLE_ASSIGNMENT((#173));
#85=ADVANCED_FACE('',(#174,#175),#176,.T.);
#86=PRESENTATION_STYLE_ASSIGNMENT((#177));
#87=EDGE_CURVE('',#99,#63,#178,.T.);
#88=PRESENTATION_STYLE_ASSIGNMENT((#179));
#89=ADVANCED_FACE('',(#180),#181,.T.);
#90=PRESENTATION_STYLE_ASSIGNMENT((#182));
#91=ADVANCED_FACE('',(#183),#184,.T.);
#92=PRESENTATION_STYLE_ASSIGNMENT((#185));
#93=EDGE_CURVE('',#121,#73,#186,.T.);
#94=PRESENTATION_STYLE_ASSIGNMENT((#187));
#95=EDGE_CURVE('',#63,#127,#188,.T.);
#96=PRESENTATION_STYLE_ASSIGNMENT((#189));
#97=EDGE_CURVE('',#127,#125,#190,.T.);
#98=PRESENTATION_STYLE_ASSIGNMENT((#191));
#99=VERTEX_POINT('',#192);
#100=PRESENTATION_STYLE_ASSIGNMENT((#193));
#101=EDGE_CURVE('',#117,#63,#194,.T.);
#102=PRESENTATION_STYLE_ASSIGNMENT((#195));
#103=EDGE_CURVE('',#117,#75,#196,.T.);
#104=PRESENTATION_STYLE_ASSIGNMENT((#197));
#105=ADVANCED_FACE('',(#198),#199,.F.);
#106=PRESENTATION_STYLE_ASSIGNMENT((#200));
#107=EDGE_CURVE('',#83,#81,#201,.T.);
#108=PRESENTATION_STYLE_ASSIGNMENT((#202));
#109=ADVANCED_FACE('',(#203),#204,.F.);
#110=PRESENTATION_STYLE_ASSIGNMENT((#205));
#111=EDGE_CURVE('',#99,#75,#206,.T.);
#112=PRESENTATION_STYLE_ASSIGNMENT((#207));
#113=EDGE_CURVE('',#83,#73,#208,.T.);
#114=PRESENTATION_STYLE_ASSIGNMENT((#209));
#115=ADVANCED_FACE('',(#210),#211,.F.);
#116=PRESENTATION_STYLE_ASSIGNMENT((#212));
#117=VERTEX_POINT('',#213);
#118=PRESENTATION_STYLE_ASSIGNMENT((#214));
#119=EDGE_CURVE('',#81,#121,#215,.T.);
#120=PRESENTATION_STYLE_ASSIGNMENT((#216));
#121=VERTEX_POINT('',#217);
#122=PRESENTATION_STYLE_ASSIGNMENT((#218));
#123=EDGE_CURVE('',#125,#99,#219,.T.);
#124=PRESENTATION_STYLE_ASSIGNMENT((#220));
#125=VERTEX_POINT('',#221);
#126=PRESENTATION_STYLE_ASSIGNMENT((#222));
#127=VERTEX_POINT('',#223);
#128=PRODUCT('1','1','PART-1-DESC',(#224));
#129=PRODUCT_DEFINITION('NONE','NONE',#225,#2);
#130=AXIS2_PLACEMENT_3D('',#226,#227,#228);
#133=LENGTH_MEASURE_WITH_UNIT(LENGTH_MEASURE(1.0),#229);
#136=DIMENSIONAL_EXPONENTS(1.0,0.0,0.0,0.0,0.0,0.0,0.0);
#138=DIMENSIONAL_EXPONENTS(0.0,0.0,0.0,0.0,0.0,0.0,0.0);
#144=CURVE_STYLE('',#230,POSITIVE_LENGTH_MEASURE(1.0E-006),#231);
#145=CIRCLE('',#232,24.5);
#146=SURFACE_STYLE_USAGE(.BOTH.,#233);
#147=CLOSED_SHELL('',(#115,#89,#109,#65,#69,#91,#85,#105));
#148=POINT_STYLE(' ',#234,POSITIVE_LENGTH_MEASURE(1.0E-006),#235);
#149=CARTESIAN_POINT('',(24.5,2.01786869701863E-014,11.9378221735088));
#150=SURFACE_STYLE_USAGE(.BOTH.,#236);
#151=FACE_OUTER_BOUND('',#237,.T.);
#152=CONICAL_SURFACE('',#238,29.75,1.04719755119659);
#153=CURVE_STYLE('',#239,POSITIVE_LENGTH_MEASURE(1.0E-006),#240);
#154=CIRCLE('',#241,39.0);
#155=SURFACE_STYLE_USAGE(.BOTH.,#242);
#156=FACE_OUTER_BOUND('',#243,.T.);
#157=FACE_BOUND('',#244,.T.);
#158=PLANE('',#245);
#159=CURVE_STYLE('',#246,POSITIVE_LENGTH_MEASURE(1.0E-006),#247);
#160=CIRCLE('',#248,39.0);
#161=POINT_STYLE(' ',#249,POSITIVE_LENGTH_MEASURE(1.0E-006),#250);
#162=CARTESIAN_POINT('',(39.0,2.43818036128276E-014,18.0));
#163=POINT_STYLE(' ',#251,POSITIVE_LENGTH_MEASURE(1.0E-006),#252);
#164=CARTESIAN_POINT('',(-24.5,8.97443790938392E-015,-2.8421709430404E-014));
#165=CURVE_STYLE('',#253,POSITIVE_LENGTH_MEASURE(1.0E-006),#254);
#166=CIRCLE('',#255,24.5);
#167=CURVE_STYLE('',#256,POSITIVE_LENGTH_MEASURE(1.0E-006),#257);
#168=CIRCLE('',#258,35.0);
#169=POINT_STYLE(' ',#259,POSITIVE_LENGTH_MEASURE(1.0E-006),#260);
#170=CARTESIAN_POINT('',(-39.0,7.19875869634147E-015,-2.8421709430404E-014));
#171=POINT_STYLE(' ',#261,POSITIVE_LENGTH_MEASURE(1.0E-006),#262);
#172=CARTESIAN_POINT('',(-39.0,8.30090441478161E-015,18.0));
#173=SURFACE_STYLE_USAGE(.BOTH.,#263);
#174=FACE_BOUND('',#264,.T.);
#175=FACE_OUTER_BOUND('',#265,.T.);
#176=PLANE('',#266);
#177=CURVE_STYLE('',#267,POSITIVE_LENGTH_MEASURE(1.0E-006),#268);
#178=CIRCLE('',#269,24.5);
#179=SURFACE_STYLE_USAGE(.BOTH.,#270);
#180=FACE_OUTER_BOUND('',#271,.T.);
#181=CYLINDRICAL_SURFACE('',#272,39.0);
#182=SURFACE_STYLE_USAGE(.BOTH.,#273);
#183=FACE_OUTER_BOUND('',#274,.T.);
#184=CYLINDRICAL_SURFACE('',#275,39.0);
#185=CURVE_STYLE('',#276,POSITIVE_LENGTH_MEASURE(1.0E-006),#277);
#186=LINE('',#278,#279);
#187=CURVE_STYLE('',#280,POSITIVE_LENGTH_MEASURE(1.0E-006),#281);
#188=LINE('',#282,#283);
#189=CURVE_STYLE('',#284,POSITIVE_LENGTH_MEASURE(1.0E-006),#285);
#190=CIRCLE('',#286,35.0);
#191=POINT_STYLE(' ',#287,POSITIVE_LENGTH_MEASURE(1.0E-006),#288);
#192=CARTESIAN_POINT('',(-24.5,9.70539455360795E-015,11.9378221735088));
#193=CURVE_STYLE('',#289,POSITIVE_LENGTH_MEASURE(1.0E-006),#290);
#194=LINE('',#291,#292);
#195=CURVE_STYLE('',#293,POSITIVE_LENGTH_MEASURE(1.0E-006),#294);
#196=CIRCLE('',#295,24.5);
#197=SURFACE_STYLE_USAGE(.BOTH.,#296);
#198=FACE_OUTER_BOUND('',#297,.T.);
#199=CYLINDRICAL_SURFACE('',#298,24.5);
#200=CURVE_STYLE('',#299,POSITIVE_LENGTH_MEASURE(1.0E-006),#300);
#201=LINE('',#301,#302);
#202=SURFACE_STYLE_USAGE(.BOTH.,#303);
#203=FACE_OUTER_BOUND('',#304,.T.);
#204=CONICAL_SURFACE('',#305,29.75,1.04719755119659);
#205=CURVE_STYLE('',#306,POSITIVE_LENGTH_MEASURE(1.0E-006),#307);
#206=LINE('',#308,#309);
#207=CURVE_STYLE('',#310,POSITIVE_LENGTH_MEASURE(1.0E-006),#311);
#208=CIRCLE('',#312,39.0);
#209=SURFACE_STYLE_USAGE(.BOTH.,#313);
#210=FACE_OUTER_BOUND('',#314,.T.);
#211=CYLINDRICAL_SURFACE('',#315,24.5);
#212=POINT_STYLE(' ',#316,POSITIVE_LENGTH_MEASURE(1.0E-006),#317);
#213=CARTESIAN_POINT('',(24.5,2.01786869701863E-014,-2.8421709430404E-014));
#214=CURVE_STYLE('',#318,POSITIVE_LENGTH_MEASURE(1.0E-006),#319);
#215=CIRCLE('',#320,39.0);
#216=POINT_STYLE(' ',#321,POSITIVE_LENGTH_MEASURE(1.0E-006),#322);
#217=CARTESIAN_POINT('',(39.0,2.43818036128276E-014,-2.8421709430404E-014));
#218=CURVE_STYLE('',#323,POSITIVE_LENGTH_MEASURE(1.0E-006),#324);
#219=LINE('',#325,#326);
#220=POINT_STYLE(' ',#327,POSITIVE_LENGTH_MEASURE(1.0E-006),#328);
#221=CARTESIAN_POINT('',(-35.0,8.79074695631056E-015,18.0));
#222=POINT_STYLE(' ',#329,POSITIVE_LENGTH_MEASURE(1.0E-006),#330);
#223=CARTESIAN_POINT('',(35.0,2.32223231596852E-014,18.0));
#224=PRODUCT_CONTEXT('',#45,'mechanical');
#225=PRODUCT_DEFINITION_FORMATION_WITH_SPECIFIED_SOURCE(' ','NONE',#128,.NOT_KNOWN.);
#226=CARTESIAN_POINT('',(0.0,0.0,0.0));
#227=DIRECTION('',(0.0,0.0,1.0));
#228=DIRECTION('',(1.0,0.0,0.0));
#229= (NAMED_UNIT(#136)LENGTH_UNIT()SI_UNIT(.MILLI.,.METRE.));
#230=DRAUGHTING_PRE_DEFINED_CURVE_FONT('continuous');
#231=COLOUR_RGB('',0.509803950786591,0.509803950786591,0.588235318660736);
#232=AXIS2_PLACEMENT_3D('',#332,#333,#334);
#233=SURFACE_SIDE_STYLE('',(#335));
#234=PRE_DEFINED_MARKER('');
#235=COLOUR_RGB('',0.509803950786591,0.509803950786591,0.588235318660736);
#236=SURFACE_SIDE_STYLE('',(#336));
#237=EDGE_LOOP('',(#337,#338,#339,#340));
#238=AXIS2_PLACEMENT_3D('',#341,#342,#343);
#239=DRAUGHTING_PRE_DEFINED_CURVE_FONT('continuous');
#240=COLOUR_RGB('',0.509803950786591,0.509803950786591,0.588235318660736);
#241=AXIS2_PLACEMENT_3D('',#344,#345,#346);
#242=SURFACE_SIDE_STYLE('',(#347));
#243=EDGE_LOOP('',(#348,#349));
#244=EDGE_LOOP('',(#350,#351));
#245=AXIS2_PLACEMENT_3D('',#352,#353,#354);
#246=DRAUGHTING_PRE_DEFINED_CURVE_FONT('continuous');
#247=COLOUR_RGB('',0.509803950786591,0.509803950786591,0.588235318660736);
#248=AXIS2_PLACEMENT_3D('',#355,#356,#357);
#249=PRE_DEFINED_MARKER('');
#250=COLOUR_RGB('',0.509803950786591,0.509803950786591,0.588235318660736);
#251=PRE_DEFINED_MARKER('');
#252=COLOUR_RGB('',0.509803950786591,0.509803950786591,0.588235318660736);
#253=DRAUGHTING_PRE_DEFINED_CURVE_FONT('continuous');
#254=COLOUR_RGB('',0.509803950786591,0.509803950786591,0.588235318660736);
#255=AXIS2_PLACEMENT_3D('',#358,#359,#360);
#256=DRAUGHTING_PRE_DEFINED_CURVE_FONT('continuous');
#257=COLOUR_RGB('',0.509803950786591,0.509803950786591,0.588235318660736);
#258=AXIS2_PLACEMENT_3D('',#361,#362,#363);
#259=PRE_DEFINED_MARKER('');
#260=COLOUR_RGB('',0.509803950786591,0.509803950786591,0.588235318660736);
#261=PRE_DEFINED_MARKER('');
#262=COLOUR_RGB('',0.509803950786591,0.509803950786591,0.588235318660736);
#263=SURFACE_SIDE_STYLE('',(#364));
#264=EDGE_LOOP('',(#365,#366));
#265=EDGE_LOOP('',(#367,#368));
#266=AXIS2_PLACEMENT_3D('',#369,#370,#371);
#267=DRAUGHTING_PRE_DEFINED_CURVE_FONT('continuous');
#268=COLOUR_RGB('',0.509803950786591,0.509803950786591,0.588235318660736);
#269=AXIS2_PLACEMENT_3D('',#372,#373,#374);
#270=SURFACE_SIDE_STYLE('',(#375));
#271=EDGE_LOOP('',(#376,#377,#378,#379));
#272=AXIS2_PLACEMENT_3D('',#380,#381,#382);
#273=SURFACE_SIDE_STYLE('',(#383));
#274=EDGE_LOOP('',(#384,#385,#386,#387));
#275=AXIS2_PLACEMENT_3D('',#388,#389,#390);
#276=DRAUGHTING_PRE_DEFINED_CURVE_FONT('continuous');
#277=COLOUR_RGB('',0.509803950786591,0.509803950786591,0.588235318660736);
#278=CARTESIAN_POINT('',(39.0,2.43818036128276E-014,8.99999999999997));
#279=VECTOR('',#391,1.0);
#280=DRAUGHTING_PRE_DEFINED_CURVE_FONT('continuous');
#281=COLOUR_RGB('',0.509803950786591,0.509803950786591,0.588235318660736);
#282=CARTESIAN_POINT('',(29.75,2.17005050649357E-014,14.9689110867544));
#283=VECTOR('',#392,1.0);
#284=DRAUGHTING_PRE_DEFINED_CURVE_FONT('continuous');
#285=COLOUR_RGB('',0.509803950786591,0.509803950786591,0.588235318660736);
#286=AXIS2_PLACEMENT_3D('',#393,#394,#395);
#287=PRE_DEFINED_MARKER('');
#288=COLOUR_RGB('',0.509803950786591,0.509803950786591,0.588235318660736);
#289=DRAUGHTING_PRE_DEFINED_CURVE_FONT('continuous');
#290=COLOUR_RGB('',0.509803950786591,0.509803950786591,0.588235318660736);
#291=CARTESIAN_POINT('',(24.5,2.01786869701863E-014,5.96891108675439));
#292=VECTOR('',#396,1.0);
#293=DRAUGHTING_PRE_DEFINED_CURVE_FONT('continuous');
#294=COLOUR_RGB('',0.509803950786591,0.509803950786591,0.588235318660736);
#295=AXIS2_PLACEMENT_3D('',#397,#398,#399);
#296=SURFACE_SIDE_STYLE('',(#400));
#297=EDGE_LOOP('',(#401,#402,#403,#404));
#298=AXIS2_PLACEMENT_3D('',#405,#406,#407);
#299=DRAUGHTING_PRE_DEFINED_CURVE_FONT('continuous');
#300=COLOUR_RGB('',0.509803950786591,0.509803950786591,0.588235318660736);
#301=CARTESIAN_POINT('',(-39.0,1.77193477655018E-015,8.99999999999997));
#302=VECTOR('',#408,1.0);
#303=SURFACE_SIDE_STYLE('',(#409));
#304=EDGE_LOOP('',(#410,#411,#412,#413));
#305=AXIS2_PLACEMENT_3D('',#414,#415,#416);
#306=DRAUGHTING_PRE_DEFINED_CURVE_FONT('continuous');
#307=COLOUR_RGB('',0.509803950786591,0.509803950786591,0.588235318660736);
#308=CARTESIAN_POINT('',(-24.5,5.97505141919149E-015,5.96891108675439));
#309=VECTOR('',#417,1.0);
#310=DRAUGHTING_PRE_DEFINED_CURVE_FONT('continuous');
#311=COLOUR_RGB('',0.509803950786591,0.509803950786591,0.588235318660736);
#312=AXIS2_PLACEMENT_3D('',#418,#419,#420);
#313=SURFACE_SIDE_STYLE('',(#421));
#314=EDGE_LOOP('',(#422,#423,#424,#425));
#315=AXIS2_PLACEMENT_3D('',#426,#427,#428);
#316=PRE_DEFINED_MARKER('');
#317=COLOUR_RGB('',0.509803950786591,0.509803950786591,0.588235318660736);
#318=DRAUGHTING_PRE_DEFINED_CURVE_FONT('continuous');
#319=COLOUR_RGB('',0.509803950786591,0.509803950786591,0.588235318660736);
#320=AXIS2_PLACEMENT_3D('',#429,#430,#431);
#321=PRE_DEFINED_MARKER('');
#322=COLOUR_RGB('',0.509803950786591,0.509803950786591,0.588235318660736);
#323=DRAUGHTING_PRE_DEFINED_CURVE_FONT('continuous');
#324=COLOUR_RGB('',0.509803950786591,0.509803950786591,0.588235318660736);
#325=CARTESIAN_POINT('',(-29.75,4.45323332444205E-015,14.9689110867544));
#326=VECTOR('',#432,1.0);
#327=PRE_DEFINED_MARKER('');
#328=COLOUR_RGB('',0.509803950786591,0.509803950786591,0.588235318660736);
#329=PRE_DEFINED_MARKER('');
#330=COLOUR_RGB('',0.509803950786591,0.509803950786591,0.588235318660736);
#332=CARTESIAN_POINT('',(0.0,1.30768691946889E-014,-2.8421709430404E-014));
#333=DIRECTION('',(-0.0,0.0,-1.0));
#334=DIRECTION('',(-1.0,-1.6740947790337E-016,0.0));
#335=SURFACE_STYLE_FILL_AREA(#433);
#336=SURFACE_STYLE_FILL_AREA(#434);
#337=ORIENTED_EDGE('',*,*,#123,.T.);
#338=ORIENTED_EDGE('',*,*,#87,.T.);
#339=ORIENTED_EDGE('',*,*,#95,.T.);
#340=ORIENTED_EDGE('',*,*,#79,.F.);
#341=CARTESIAN_POINT('',(0.0,1.30768691946889E-014,14.9689110867544));
#342=DIRECTION('',(0.0,-0.0,1.0));
#343=DIRECTION('',(-1.0,-1.6740947790337E-016,0.0));
#344=CARTESIAN_POINT('',(0.0,1.30768691946889E-014,-2.8421709430404E-014));
#345=DIRECTION('',(-0.0,0.0,-1.0));
#346=DIRECTION('',(-1.0,-1.6740947790337E-016,0.0));
#347=SURFACE_STYLE_FILL_AREA(#435);
#348=ORIENTED_EDGE('',*,*,#113,.F.);
#349=ORIENTED_EDGE('',*,*,#71,.F.);
#350=ORIENTED_EDGE('',*,*,#79,.T.);
#351=ORIENTED_EDGE('',*,*,#97,.T.);
#352=CARTESIAN_POINT('',(-37.0,8.54582568554609E-015,18.0));
#353=DIRECTION('',(0.0,0.0,1.0));
#354=DIRECTION('',(-1.0,-1.22460635382238E-016,0.0));
#355=CARTESIAN_POINT('',(0.0,1.30768691946889E-014,18.0));
#356=DIRECTION('',(-0.0,0.0,-1.0));
#357=DIRECTION('',(-1.0,-1.6740947790337E-016,0.0));
#358=CARTESIAN_POINT('',(0.0,1.30768691946889E-014,11.9378221735088));
#359=DIRECTION('',(-0.0,0.0,-1.0));
#360=DIRECTION('',(-1.0,-1.6740947790337E-016,0.0));
#361=CARTESIAN_POINT('',(0.0,1.30768691946889E-014,18.0));
#362=DIRECTION('',(-0.0,0.0,-1.0));
#363=DIRECTION('',(-1.0,-1.6740947790337E-016,0.0));
#364=SURFACE_STYLE_FILL_AREA(#436);
#365=ORIENTED_EDGE('',*,*,#59,.F.);
#366=ORIENTED_EDGE('',*,*,#103,.F.);
#367=ORIENTED_EDGE('',*,*,#119,.T.);
#368=ORIENTED_EDGE('',*,*,#67,.T.);
#369=CARTESIAN_POINT('',(-31.75,8.0865983028627E-015,-2.8421709430404E-014));
#370=DIRECTION('',(0.0,0.0,-1.0));
#371=DIRECTION('',(1.0,1.22460635382238E-016,0.0));
#372=CARTESIAN_POINT('',(0.0,1.30768691946889E-014,11.9378221735088));
#373=DIRECTION('',(-0.0,0.0,-1.0));
#374=DIRECTION('',(-1.0,-1.6740947790337E-016,0.0));
#375=SURFACE_STYLE_FILL_AREA(#437);
#376=ORIENTED_EDGE('',*,*,#107,.F.);
#377=ORIENTED_EDGE('',*,*,#113,.T.);
#378=ORIENTED_EDGE('',*,*,#93,.F.);
#379=ORIENTED_EDGE('',*,*,#119,.F.);
#380=CARTESIAN_POINT('',(0.0,1.30768691946889E-014,8.99999999999997));
#381=DIRECTION('',(0.0,-0.0,1.0));
#382=DIRECTION('',(-1.0,-1.6740947790337E-016,0.0));
#383=SURFACE_STYLE_FILL_AREA(#438);
#384=ORIENTED_EDGE('',*,*,#107,.T.);
#385=ORIENTED_EDGE('',*,*,#67,.F.);
#386=ORIENTED_EDGE('',*,*,#93,.T.);
#387=ORIENTED_EDGE('',*,*,#71,.T.);
#388=CARTESIAN_POINT('',(0.0,1.30768691946889E-014,8.99999999999997));
#389=DIRECTION('',(0.0,-0.0,1.0));
#390=DIRECTION('',(-1.0,-1.6740947790337E-016,0.0));
#391=DIRECTION('',(-0.0,-0.0,1.0));
#392=DIRECTION('',(0.866025403784435,2.51034881903208E-016,0.500000000000006));
#393=CARTESIAN_POINT('',(0.0,1.30768691946889E-014,18.0));
#394=DIRECTION('',(-0.0,0.0,-1.0));
#395=DIRECTION('',(-1.0,-1.6740947790337E-016,0.0));
#396=DIRECTION('',(0.0,0.0,1.0));
#397=CARTESIAN_POINT('',(0.0,1.30768691946889E-014,-2.8421709430404E-014));
#398=DIRECTION('',(-0.0,0.0,-1.0));
#399=DIRECTION('',(-1.0,-1.6740947790337E-016,0.0));
#400=SURFACE_STYLE_FILL_AREA(#439);
#401=ORIENTED_EDGE('',*,*,#111,.T.);
#402=ORIENTED_EDGE('',*,*,#59,.T.);
#403=ORIENTED_EDGE('',*,*,#101,.T.);
#404=ORIENTED_EDGE('',*,*,#87,.F.);
#405=CARTESIAN_POINT('',(0.0,1.30768691946889E-014,5.96891108675439));
#406=DIRECTION('',(0.0,-0.0,1.0));
#407=DIRECTION('',(-1.0,-1.6740947790337E-016,0.0));
#408=DIRECTION('',(0.0,0.0,-1.0));
#409=SURFACE_STYLE_FILL_AREA(#440);
#410=ORIENTED_EDGE('',*,*,#123,.F.);
#411=ORIENTED_EDGE('',*,*,#97,.F.);
#412=ORIENTED_EDGE('',*,*,#95,.F.);
#413=ORIENTED_EDGE('',*,*,#77,.T.);
#414=CARTESIAN_POINT('',(0.0,1.30768691946889E-014,14.9689110867544));
#415=DIRECTION('',(0.0,-0.0,1.0));
#416=DIRECTION('',(-1.0,-1.6740947790337E-016,0.0));
#417=DIRECTION('',(0.0,0.0,-1.0));
#418=CARTESIAN_POINT('',(0.0,1.30768691946889E-014,18.0));
#419=DIRECTION('',(-0.0,0.0,-1.0));
#420=DIRECTION('',(-1.0,-1.6740947790337E-016,0.0));
#421=SURFACE_STYLE_FILL_AREA(#441);
#422=ORIENTED_EDGE('',*,*,#111,.F.);
#423=ORIENTED_EDGE('',*,*,#77,.F.);
#424=ORIENTED_EDGE('',*,*,#101,.F.);
#425=ORIENTED_EDGE('',*,*,#103,.T.);
#426=CARTESIAN_POINT('',(0.0,1.30768691946889E-014,5.96891108675439));
#427=DIRECTION('',(0.0,-0.0,1.0));
#428=DIRECTION('',(-1.0,-1.6740947790337E-016,0.0));
#429=CARTESIAN_POINT('',(0.0,1.30768691946889E-014,-2.8421709430404E-014));
#430=DIRECTION('',(-0.0,0.0,-1.0));
#431=DIRECTION('',(-1.0,-1.6740947790337E-016,0.0));
#432=DIRECTION('',(0.866025403784435,2.51034881903208E-016,-0.500000000000006));
#433=FILL_AREA_STYLE('',(#442));
#434=FILL_AREA_STYLE('',(#443));
#435=FILL_AREA_STYLE('',(#444));
#436=FILL_AREA_STYLE('',(#445));
#437=FILL_AREA_STYLE('',(#446));
#438=FILL_AREA_STYLE('',(#447));
#439=FILL_AREA_STYLE('',(#448));
#440=FILL_AREA_STYLE('',(#449));
#441=FILL_AREA_STYLE('',(#450));
#442=FILL_AREA_STYLE_COLOUR('',#451);
#443=FILL_AREA_STYLE_COLOUR('',#452);
#444=FILL_AREA_STYLE_COLOUR('',#453);
#445=FILL_AREA_STYLE_COLOUR('',#454);
#446=FILL_AREA_STYLE_COLOUR('',#455);
#447=FILL_AREA_STYLE_COLOUR('',#456);
#448=FILL_AREA_STYLE_COLOUR('',#457);
#449=FILL_AREA_STYLE_COLOUR('',#458);
#450=FILL_AREA_STYLE_COLOUR('',#459);
#451=COLOUR_RGB('',0.509803950786591,0.509803950786591,0.588235318660736);
#452=COLOUR_RGB('',0.509803950786591,0.509803950786591,0.588235318660736);
#453=COLOUR_RGB('',0.509803950786591,0.509803950786591,0.588235318660736);
#454=COLOUR_RGB('',0.509803950786591,0.509803950786591,0.588235318660736);
#455=COLOUR_RGB('',0.509803950786591,0.509803950786591,0.588235318660736);
#456=COLOUR_RGB('',0.509803950786591,0.509803950786591,0.588235318660736);
#457=COLOUR_RGB('',0.509803950786591,0.509803950786591,0.588235318660736);
#458=COLOUR_RGB('',0.509803950786591,0.509803950786591,0.588235318660736);
#459=COLOUR_RGB('',0.509803950786591,0.509803950786591,0.588235318660736);
ENDSEC;
END-ISO-10303-21;
