ISO-10303-21;
HEADER;
FILE_DESCRIPTION(('STEP AP214'),'1');
FILE_NAME(' ','  ',('TraceParts'),('TraceParts S.A.'),'XStep 1.0',' ',' ');
FILE_SCHEMA(('automotive_design'));
ENDSEC;
DATA;
#1=MECHANICAL_DESIGN_GEOMETRIC_PRESENTATION_REPRESENTATION(' ',(#10,#11,#12,#13,#14,#15,#16,#17,#18,#19,#20,#21,#22,#23,#24,#25,#26,#27,#28,#29,#30,#31,#32,#33,#34,#35,#36,#37,#38,#39,#40,#41,#42,#43,#44),#6);
#2=PRODUCT_DEFINITION_CONTEXT('',#45,'design');
#3=APPLICATION_PROTOCOL_DEFINITION('INTERNATIONAL STANDARD','automotive_design',1994,#45);
#4=PRODUCT_CATEGORY_RELATIONSHIP('NONE','NONE',#46,#47);
#5=SHAPE_DEFINITION_REPRESENTATION(#48,#49);
#6= (GEOMETRIC_REPRESENTATION_CONTEXT(3)GLOBAL_UNCERTAINTY_ASSIGNED_CONTEXT((#52))GLOBAL_UNIT_ASSIGNED_CONTEXT((#54,#55,#56))REPRESENTATION_CONTEXT('NONE','WORKSPACE'));
#10=STYLED_ITEM('',(#58),#59);
#11=STYLED_ITEM('',(#60),#61);
#12=STYLED_ITEM('',(#62),#63);
#13=STYLED_ITEM('',(#64),#65);
#14=STYLED_ITEM('',(#66),#67);
#15=STYLED_ITEM('',(#68),#69);
#16=STYLED_ITEM('',(#70),#71);
#17=STYLED_ITEM('',(#72),#73);
#18=STYLED_ITEM('',(#74),#75);
#19=STYLED_ITEM('',(#76),#77);
#20=STYLED_ITEM('',(#78),#79);
#21=STYLED_ITEM('',(#80),#81);
#22=STYLED_ITEM('',(#82),#83);
#23=STYLED_ITEM('',(#84),#85);
#24=STYLED_ITEM('',(#86),#87);
#25=STYLED_ITEM('',(#88),#89);
#26=STYLED_ITEM('',(#90),#91);
#27=STYLED_ITEM('',(#92),#93);
#28=STYLED_ITEM('',(#94),#95);
#29=STYLED_ITEM('',(#96),#97);
#30=STYLED_ITEM('',(#98),#99);
#31=STYLED_ITEM('',(#100),#101);
#32=STYLED_ITEM('',(#102),#103);
#33=STYLED_ITEM('',(#104),#105);
#34=STYLED_ITEM('',(#106),#107);
#35=STYLED_ITEM('',(#108),#109);
#36=STYLED_ITEM('',(#110),#111);
#37=STYLED_ITEM('',(#112),#113);
#38=STYLED_ITEM('',(#114),#115);
#39=STYLED_ITEM('',(#116),#117);
#40=STYLED_ITEM('',(#118),#119);
#41=STYLED_ITEM('',(#120),#121);
#42=STYLED_ITEM('',(#122),#123);
#43=STYLED_ITEM('',(#124),#125);
#44=STYLED_ITEM('',(#126),#127);
#45=APPLICATION_CONTEXT(' ');
#46=PRODUCT_CATEGORY('part','NONE');
#47=PRODUCT_RELATED_PRODUCT_CATEGORY('detail',' ',(#128));
#48=PRODUCT_DEFINITION_SHAPE('NONE','NONE',#129);
#49=ADVANCED_BREP_SHAPE_REPRESENTATION('1',(#93,#130),#6);
#52=UNCERTAINTY_MEASURE_WITH_UNIT(LENGTH_MEASURE(1.0E-006),#54,'','');
#54= (CONVERSION_BASED_UNIT('MILLIMETRE',#133)LENGTH_UNIT()NAMED_UNIT(#136));
#55= (NAMED_UNIT(#138)PLANE_ANGLE_UNIT()SI_UNIT($,.RADIAN.));
#56= (NAMED_UNIT(#138)SOLID_ANGLE_UNIT()SI_UNIT($,.STERADIAN.));
#58=PRESENTATION_STYLE_ASSIGNMENT((#144));
#59=EDGE_CURVE('',#123,#115,#145,.T.);
#60=PRESENTATION_STYLE_ASSIGNMENT((#146));
#61=ADVANCED_FACE('',(#147,#148),#149,.T.);
#62=PRESENTATION_STYLE_ASSIGNMENT((#150));
#63=EDGE_CURVE('',#65,#81,#151,.T.);
#64=PRESENTATION_STYLE_ASSIGNMENT((#152));
#65=VERTEX_POINT('',#153);
#66=PRESENTATION_STYLE_ASSIGNMENT((#154));
#67=VERTEX_POINT('',#155);
#68=PRESENTATION_STYLE_ASSIGNMENT((#156));
#69=EDGE_CURVE('',#117,#73,#157,.T.);
#70=PRESENTATION_STYLE_ASSIGNMENT((#158));
#71=ADVANCED_FACE('',(#159),#160,.F.);
#72=PRESENTATION_STYLE_ASSIGNMENT((#161));
#73=VERTEX_POINT('',#162);
#74=PRESENTATION_STYLE_ASSIGNMENT((#163));
#75=VERTEX_POINT('',#164);
#76=PRESENTATION_STYLE_ASSIGNMENT((#165));
#77=EDGE_CURVE('',#127,#107,#166,.T.);
#78=PRESENTATION_STYLE_ASSIGNMENT((#167));
#79=ADVANCED_FACE('',(#168),#169,.T.);
#80=PRESENTATION_STYLE_ASSIGNMENT((#170));
#81=VERTEX_POINT('',#171);
#82=PRESENTATION_STYLE_ASSIGNMENT((#172));
#83=EDGE_CURVE('',#75,#123,#173,.T.);
#84=PRESENTATION_STYLE_ASSIGNMENT((#174));
#85=ADVANCED_FACE('',(#175),#176,.F.);
#86=PRESENTATION_STYLE_ASSIGNMENT((#177));
#87=EDGE_CURVE('',#81,#65,#178,.T.);
#88=PRESENTATION_STYLE_ASSIGNMENT((#179));
#89=EDGE_CURVE('',#75,#67,#180,.T.);
#90=PRESENTATION_STYLE_ASSIGNMENT((#181));
#91=EDGE_CURVE('',#67,#107,#182,.T.);
#92=PRESENTATION_STYLE_ASSIGNMENT((#183));
#93=MANIFOLD_SOLID_BREP('1',#184);
#94=PRESENTATION_STYLE_ASSIGNMENT((#185));
#95=EDGE_CURVE('',#73,#81,#186,.T.);
#96=PRESENTATION_STYLE_ASSIGNMENT((#187));
#97=EDGE_CURVE('',#115,#123,#188,.T.);
#98=PRESENTATION_STYLE_ASSIGNMENT((#189));
#99=ADVANCED_FACE('',(#190),#191,.F.);
#100=PRESENTATION_STYLE_ASSIGNMENT((#192));
#101=EDGE_CURVE('',#115,#67,#193,.T.);
#102=PRESENTATION_STYLE_ASSIGNMENT((#194));
#103=EDGE_CURVE('',#107,#127,#195,.T.);
#104=PRESENTATION_STYLE_ASSIGNMENT((#196));
#105=EDGE_CURVE('',#73,#117,#197,.T.);
#106=PRESENTATION_STYLE_ASSIGNMENT((#198));
#107=VERTEX_POINT('',#199);
#108=PRESENTATION_STYLE_ASSIGNMENT((#200));
#109=ADVANCED_FACE('',(#201,#202),#203,.T.);
#110=PRESENTATION_STYLE_ASSIGNMENT((#204));
#111=ADVANCED_FACE('',(#205),#206,.F.);
#112=PRESENTATION_STYLE_ASSIGNMENT((#207));
#113=ADVANCED_FACE('',(#208),#209,.T.);
#114=PRESENTATION_STYLE_ASSIGNMENT((#210));
#115=VERTEX_POINT('',#211);
#116=PRESENTATION_STYLE_ASSIGNMENT((#212));
#117=VERTEX_POINT('',#213);
#118=PRESENTATION_STYLE_ASSIGNMENT((#214));
#119=EDGE_CURVE('',#67,#75,#215,.T.);
#120=PRESENTATION_STYLE_ASSIGNMENT((#216));
#121=EDGE_CURVE('',#65,#117,#217,.T.);
#122=PRESENTATION_STYLE_ASSIGNMENT((#218));
#123=VERTEX_POINT('',#219);
#124=PRESENTATION_STYLE_ASSIGNMENT((#220));
#125=EDGE_CURVE('',#127,#75,#221,.T.);
#126=PRESENTATION_STYLE_ASSIGNMENT((#222));
#127=VERTEX_POINT('',#223);
#128=PRODUCT('1','1','PART-1-DESC',(#224));
#129=PRODUCT_DEFINITION('NONE','NONE',#225,#2);
#130=AXIS2_PLACEMENT_3D('',#226,#227,#228);
#133=LENGTH_MEASURE_WITH_UNIT(LENGTH_MEASURE(1.0),#229);
#136=DIMENSIONAL_EXPONENTS(1.0,0.0,0.0,0.0,0.0,0.0,0.0);
#138=DIMENSIONAL_EXPONENTS(0.0,0.0,0.0,0.0,0.0,0.0,0.0);
#144=CURVE_STYLE('',#230,POSITIVE_LENGTH_MEASURE(1.0E-006),#231);
#145=CIRCLE('',#232,17.5);
#146=SURFACE_STYLE_USAGE(.BOTH.,#233);
#147=FACE_BOUND('',#234,.T.);
#148=FACE_OUTER_BOUND('',#235,.T.);
#149=PLANE('',#236);
#150=CURVE_STYLE('',#237,POSITIVE_LENGTH_MEASURE(1.0E-006),#238);
#151=CIRCLE('',#239,28.0);
#152=POINT_STYLE(' ',#240,POSITIVE_LENGTH_MEASURE(1.0E-006),#241);
#153=CARTESIAN_POINT('',(28.0,2.04970246837353E-014,-2.8421709430404E-014));
#154=POINT_STYLE(' ',#242,POSITIVE_LENGTH_MEASURE(1.0E-006),#243);
#155=CARTESIAN_POINT('',(17.5,1.74848526840012E-014,7.95854811567253));
#156=CURVE_STYLE('',#244,POSITIVE_LENGTH_MEASURE(1.0E-006),#245);
#157=CIRCLE('',#246,28.0);
#158=SURFACE_STYLE_USAGE(.BOTH.,#247);
#159=FACE_OUTER_BOUND('',#248,.T.);
#160=CONICAL_SURFACE('',#249,21.0,1.04719755119659);
#161=POINT_STYLE(' ',#250,POSITIVE_LENGTH_MEASURE(1.0E-006),#251);
#162=CARTESIAN_POINT('',(-28.0,9.03566822707504E-015,12.0));
#163=POINT_STYLE(' ',#252,POSITIVE_LENGTH_MEASURE(1.0E-006),#253);
#164=CARTESIAN_POINT('',(-17.5,1.00740455157778E-014,7.95854811567253));
#165=CURVE_STYLE('',#254,POSITIVE_LENGTH_MEASURE(1.0E-006),#255);
#166=CIRCLE('',#256,24.5);
#167=SURFACE_STYLE_USAGE(.BOTH.,#257);
#168=FACE_OUTER_BOUND('',#258,.T.);
#169=CYLINDRICAL_SURFACE('',#259,28.0);
#170=POINT_STYLE(' ',#260,POSITIVE_LENGTH_MEASURE(1.0E-006),#261);
#171=CARTESIAN_POINT('',(-28.0,8.30090441478162E-015,-2.8421709430404E-014));
#172=CURVE_STYLE('',#262,POSITIVE_LENGTH_MEASURE(1.0E-006),#263);
#173=LINE('',#264,#265);
#174=SURFACE_STYLE_USAGE(.BOTH.,#266);
#175=FACE_OUTER_BOUND('',#267,.T.);
#176=CONICAL_SURFACE('',#268,21.0,1.04719755119659);
#177=CURVE_STYLE('',#269,POSITIVE_LENGTH_MEASURE(1.0E-006),#270);
#178=CIRCLE('',#271,28.0);
#179=CURVE_STYLE('',#272,POSITIVE_LENGTH_MEASURE(1.0E-006),#273);
#180=CIRCLE('',#274,17.5);
#181=CURVE_STYLE('',#275,POSITIVE_LENGTH_MEASURE(1.0E-006),#276);
#182=LINE('',#277,#278);
#183=SURFACE_STYLE_USAGE(.BOTH.,#279);
#184=CLOSED_SHELL('',(#99,#79,#71,#85,#109,#113,#61,#111));
#185=CURVE_STYLE('',#280,POSITIVE_LENGTH_MEASURE(1.0E-006),#281);
#186=LINE('',#282,#283);
#187=CURVE_STYLE('',#284,POSITIVE_LENGTH_MEASURE(1.0E-006),#285);
#188=CIRCLE('',#286,17.5);
#189=SURFACE_STYLE_USAGE(.BOTH.,#287);
#190=FACE_OUTER_BOUND('',#288,.T.);
#191=CYLINDRICAL_SURFACE('',#289,17.5);
#192=CURVE_STYLE('',#290,POSITIVE_LENGTH_MEASURE(1.0E-006),#291);
#193=LINE('',#292,#293);
#194=CURVE_STYLE('',#294,POSITIVE_LENGTH_MEASURE(1.0E-006),#295);
#195=CIRCLE('',#296,24.5);
#196=CURVE_STYLE('',#297,POSITIVE_LENGTH_MEASURE(1.0E-006),#298);
#197=CIRCLE('',#299,28.0);
#198=POINT_STYLE(' ',#300,POSITIVE_LENGTH_MEASURE(1.0E-006),#301);
#199=CARTESIAN_POINT('',(24.5,1.94929673504906E-014,12.0));
#200=SURFACE_STYLE_USAGE(.BOTH.,#302);
#201=FACE_OUTER_BOUND('',#303,.T.);
#202=FACE_BOUND('',#304,.T.);
#203=PLANE('',#305);
#204=SURFACE_STYLE_USAGE(.BOTH.,#306);
#205=FACE_OUTER_BOUND('',#307,.T.);
#206=CYLINDRICAL_SURFACE('',#308,17.5);
#207=SURFACE_STYLE_USAGE(.BOTH.,#309);
#208=FACE_OUTER_BOUND('',#310,.T.);
#209=CYLINDRICAL_SURFACE('',#311,28.0);
#210=POINT_STYLE(' ',#312,POSITIVE_LENGTH_MEASURE(1.0E-006),#313);
#211=CARTESIAN_POINT('',(17.5,1.74848526840012E-014,-2.8421709430404E-014));
#212=POINT_STYLE(' ',#314,POSITIVE_LENGTH_MEASURE(1.0E-006),#315);
#213=CARTESIAN_POINT('',(28.0,2.04970246837353E-014,12.0));
#214=CURVE_STYLE('',#316,POSITIVE_LENGTH_MEASURE(1.0E-006),#317);
#215=CIRCLE('',#318,17.5);
#216=CURVE_STYLE('',#319,POSITIVE_LENGTH_MEASURE(1.0E-006),#320);
#217=LINE('',#321,#322);
#218=POINT_STYLE(' ',#323,POSITIVE_LENGTH_MEASURE(1.0E-006),#324);
#219=CARTESIAN_POINT('',(-17.5,9.58674108629511E-015,-2.8421709430404E-014));
#220=CURVE_STYLE('',#325,POSITIVE_LENGTH_MEASURE(1.0E-006),#326);
#221=LINE('',#327,#328);
#222=POINT_STYLE(' ',#329,POSITIVE_LENGTH_MEASURE(1.0E-006),#330);
#223=CARTESIAN_POINT('',(-24.5,9.46428045091288E-015,12.0));
#224=PRODUCT_CONTEXT('',#45,'mechanical');
#225=PRODUCT_DEFINITION_FORMATION_WITH_SPECIFIED_SOURCE(' ','NONE',#128,.NOT_KNOWN.);
#226=CARTESIAN_POINT('',(0.0,0.0,0.0));
#227=DIRECTION('',(0.0,0.0,1.0));
#228=DIRECTION('',(1.0,0.0,0.0));
#229= (NAMED_UNIT(#136)LENGTH_UNIT()SI_UNIT(.MILLI.,.METRE.));
#230=DRAUGHTING_PRE_DEFINED_CURVE_FONT('continuous');
#231=COLOUR_RGB('',0.509803950786591,0.509803950786591,0.588235318660736);
#232=AXIS2_PLACEMENT_3D('',#332,#333,#334);
#233=SURFACE_SIDE_STYLE('',(#335));
#234=EDGE_LOOP('',(#336,#337));
#235=EDGE_LOOP('',(#338,#339));
#236=AXIS2_PLACEMENT_3D('',#340,#341,#342);
#237=DRAUGHTING_PRE_DEFINED_CURVE_FONT('continuous');
#238=COLOUR_RGB('',0.509803950786591,0.509803950786591,0.588235318660736);
#239=AXIS2_PLACEMENT_3D('',#343,#344,#345);
#240=PRE_DEFINED_MARKER('');
#241=COLOUR_RGB('',0.509803950786591,0.509803950786591,0.588235318660736);
#242=PRE_DEFINED_MARKER('');
#243=COLOUR_RGB('',0.509803950786591,0.509803950786591,0.588235318660736);
#244=DRAUGHTING_PRE_DEFINED_CURVE_FONT('continuous');
#245=COLOUR_RGB('',0.509803950786591,0.509803950786591,0.588235318660736);
#246=AXIS2_PLACEMENT_3D('',#346,#347,#348);
#247=SURFACE_SIDE_STYLE('',(#349));
#248=EDGE_LOOP('',(#350,#351,#352,#353));
#249=AXIS2_PLACEMENT_3D('',#354,#355,#356);
#250=PRE_DEFINED_MARKER('');
#251=COLOUR_RGB('',0.509803950786591,0.509803950786591,0.588235318660736);
#252=PRE_DEFINED_MARKER('');
#253=COLOUR_RGB('',0.509803950786591,0.509803950786591,0.588235318660736);
#254=DRAUGHTING_PRE_DEFINED_CURVE_FONT('continuous');
#255=COLOUR_RGB('',0.509803950786591,0.509803950786591,0.588235318660736);
#256=AXIS2_PLACEMENT_3D('',#357,#358,#359);
#257=SURFACE_SIDE_STYLE('',(#360));
#258=EDGE_LOOP('',(#361,#362,#363,#364));
#259=AXIS2_PLACEMENT_3D('',#365,#366,#367);
#260=PRE_DEFINED_MARKER('');
#261=COLOUR_RGB('',0.509803950786591,0.509803950786591,0.588235318660736);
#262=DRAUGHTING_PRE_DEFINED_CURVE_FONT('continuous');
#263=COLOUR_RGB('',0.509803950786591,0.509803950786591,0.588235318660736);
#264=CARTESIAN_POINT('',(-17.5,7.44427935155422E-015,3.97927405783625));
#265=VECTOR('',#368,1.0);
#266=SURFACE_SIDE_STYLE('',(#369));
#267=EDGE_LOOP('',(#370,#371,#372,#373));
#268=AXIS2_PLACEMENT_3D('',#374,#375,#376);
#269=DRAUGHTING_PRE_DEFINED_CURVE_FONT('continuous');
#270=COLOUR_RGB('',0.509803950786591,0.509803950786591,0.588235318660736);
#271=AXIS2_PLACEMENT_3D('',#377,#378,#379);
#272=DRAUGHTING_PRE_DEFINED_CURVE_FONT('continuous');
#273=COLOUR_RGB('',0.509803950786591,0.509803950786591,0.588235318660736);
#274=AXIS2_PLACEMENT_3D('',#380,#381,#382);
#275=DRAUGHTING_PRE_DEFINED_CURVE_FONT('continuous');
#276=COLOUR_RGB('',0.509803950786591,0.509803950786591,0.588235318660736);
#277=CARTESIAN_POINT('',(21.0,1.84889100172459E-014,9.97927405783625));
#278=VECTOR('',#383,1.0);
#279=SURFACE_SIDE_STYLE('',(#384));
#280=DRAUGHTING_PRE_DEFINED_CURVE_FONT('continuous');
#281=COLOUR_RGB('',0.509803950786591,0.509803950786591,0.588235318660736);
#282=CARTESIAN_POINT('',(-28.0,4.43210735182013E-015,5.99999999999997));
#283=VECTOR('',#385,1.0);
#284=DRAUGHTING_PRE_DEFINED_CURVE_FONT('continuous');
#285=COLOUR_RGB('',0.509803950786591,0.509803950786591,0.588235318660736);
#286=AXIS2_PLACEMENT_3D('',#386,#387,#388);
#287=SURFACE_SIDE_STYLE('',(#389));
#288=EDGE_LOOP('',(#390,#391,#392,#393));
#289=AXIS2_PLACEMENT_3D('',#394,#395,#396);
#290=DRAUGHTING_PRE_DEFINED_CURVE_FONT('continuous');
#291=COLOUR_RGB('',0.509803950786591,0.509803950786591,0.588235318660736);
#292=CARTESIAN_POINT('',(17.5,1.74848526840012E-014,3.97927405783625));
#293=VECTOR('',#397,1.0);
#294=DRAUGHTING_PRE_DEFINED_CURVE_FONT('continuous');
#295=COLOUR_RGB('',0.509803950786591,0.509803950786591,0.588235318660736);
#296=AXIS2_PLACEMENT_3D('',#398,#399,#400);
#297=DRAUGHTING_PRE_DEFINED_CURVE_FONT('continuous');
#298=COLOUR_RGB('',0.509803950786591,0.509803950786591,0.588235318660736);
#299=AXIS2_PLACEMENT_3D('',#401,#402,#403);
#300=PRE_DEFINED_MARKER('');
#301=COLOUR_RGB('',0.509803950786591,0.509803950786591,0.588235318660736);
#302=SURFACE_SIDE_STYLE('',(#404));
#303=EDGE_LOOP('',(#405,#406));
#304=EDGE_LOOP('',(#407,#408));
#305=AXIS2_PLACEMENT_3D('',#409,#410,#411);
#306=SURFACE_SIDE_STYLE('',(#412));
#307=EDGE_LOOP('',(#413,#414,#415,#416));
#308=AXIS2_PLACEMENT_3D('',#417,#418,#419);
#309=SURFACE_SIDE_STYLE('',(#420));
#310=EDGE_LOOP('',(#421,#422,#423,#424));
#311=AXIS2_PLACEMENT_3D('',#425,#426,#427);
#312=PRE_DEFINED_MARKER('');
#313=COLOUR_RGB('',0.509803950786591,0.509803950786591,0.588235318660736);
#314=PRE_DEFINED_MARKER('');
#315=COLOUR_RGB('',0.509803950786591,0.509803950786591,0.588235318660736);
#316=DRAUGHTING_PRE_DEFINED_CURVE_FONT('continuous');
#317=COLOUR_RGB('',0.509803950786591,0.509803950786591,0.588235318660736);
#318=AXIS2_PLACEMENT_3D('',#428,#429,#430);
#319=DRAUGHTING_PRE_DEFINED_CURVE_FONT('continuous');
#320=COLOUR_RGB('',0.509803950786591,0.509803950786591,0.588235318660736);
#321=CARTESIAN_POINT('',(28.0,2.04970246837353E-014,5.99999999999997));
#322=VECTOR('',#431,1.0);
#323=PRE_DEFINED_MARKER('');
#324=COLOUR_RGB('',0.509803950786591,0.509803950786591,0.588235318660736);
#325=DRAUGHTING_PRE_DEFINED_CURVE_FONT('continuous');
#326=COLOUR_RGB('',0.509803950786591,0.509803950786591,0.588235318660736);
#327=CARTESIAN_POINT('',(-21.0,6.44022201830953E-015,9.97927405783625));
#328=VECTOR('',#432,1.0);
#329=PRE_DEFINED_MARKER('');
#330=COLOUR_RGB('',0.509803950786591,0.509803950786591,0.588235318660736);
#332=CARTESIAN_POINT('',(0.0,1.24645660177777E-014,-2.8421709430404E-014));
#333=DIRECTION('',(-0.0,0.0,-1.0));
#334=DIRECTION('',(-1.0,-1.64412888401961E-016,0.0));
#335=SURFACE_STYLE_FILL_AREA(#433);
#336=ORIENTED_EDGE('',*,*,#59,.F.);
#337=ORIENTED_EDGE('',*,*,#97,.F.);
#338=ORIENTED_EDGE('',*,*,#87,.T.);
#339=ORIENTED_EDGE('',*,*,#63,.T.);
#340=CARTESIAN_POINT('',(-22.75,8.94382275053837E-015,-2.8421709430404E-014));
#341=DIRECTION('',(0.0,0.0,-1.0));
#342=DIRECTION('',(1.0,1.22460635382238E-016,0.0));
#343=CARTESIAN_POINT('',(0.0,1.24645660177777E-014,-2.8421709430404E-014));
#344=DIRECTION('',(-0.0,0.0,-1.0));
#345=DIRECTION('',(-1.0,-1.64412888401961E-016,0.0));
#346=CARTESIAN_POINT('',(0.0,1.24645660177777E-014,12.0));
#347=DIRECTION('',(-0.0,0.0,-1.0));
#348=DIRECTION('',(-1.0,-1.64412888401961E-016,0.0));
#349=SURFACE_STYLE_FILL_AREA(#434);
#350=ORIENTED_EDGE('',*,*,#125,.F.);
#351=ORIENTED_EDGE('',*,*,#103,.F.);
#352=ORIENTED_EDGE('',*,*,#91,.F.);
#353=ORIENTED_EDGE('',*,*,#119,.T.);
#354=CARTESIAN_POINT('',(0.0,1.24645660177777E-014,9.97927405783625));
#355=DIRECTION('',(0.0,-0.0,1.0));
#356=DIRECTION('',(-1.0,-1.64412888401961E-016,0.0));
#357=CARTESIAN_POINT('',(0.0,1.24645660177777E-014,12.0));
#358=DIRECTION('',(-0.0,0.0,-1.0));
#359=DIRECTION('',(-1.0,-1.64412888401961E-016,0.0));
#360=SURFACE_STYLE_FILL_AREA(#435);
#361=ORIENTED_EDGE('',*,*,#95,.F.);
#362=ORIENTED_EDGE('',*,*,#105,.T.);
#363=ORIENTED_EDGE('',*,*,#121,.F.);
#364=ORIENTED_EDGE('',*,*,#87,.F.);
#365=CARTESIAN_POINT('',(0.0,1.24645660177777E-014,5.99999999999997));
#366=DIRECTION('',(0.0,-0.0,1.0));
#367=DIRECTION('',(-1.0,-1.64412888401961E-016,0.0));
#368=DIRECTION('',(0.0,0.0,-1.0));
#369=SURFACE_STYLE_FILL_AREA(#436);
#370=ORIENTED_EDGE('',*,*,#125,.T.);
#371=ORIENTED_EDGE('',*,*,#89,.T.);
#372=ORIENTED_EDGE('',*,*,#91,.T.);
#373=ORIENTED_EDGE('',*,*,#77,.F.);
#374=CARTESIAN_POINT('',(0.0,1.24645660177777E-014,9.97927405783625));
#375=DIRECTION('',(0.0,-0.0,1.0));
#376=DIRECTION('',(-1.0,-1.64412888401961E-016,0.0));
#377=CARTESIAN_POINT('',(0.0,1.24645660177777E-014,-2.8421709430404E-014));
#378=DIRECTION('',(-0.0,0.0,-1.0));
#379=DIRECTION('',(-1.0,-1.64412888401961E-016,0.0));
#380=CARTESIAN_POINT('',(0.0,1.24645660177777E-014,7.95854811567253));
#381=DIRECTION('',(-0.0,0.0,-1.0));
#382=DIRECTION('',(-1.0,-1.64412888401961E-016,0.0));
#383=DIRECTION('',(0.866025403784435,2.48439759270275E-016,0.500000000000006));
#384=SURFACE_STYLE_FILL_AREA(#437);
#385=DIRECTION('',(0.0,0.0,-1.0));
#386=CARTESIAN_POINT('',(0.0,1.24645660177777E-014,-2.8421709430404E-014));
#387=DIRECTION('',(-0.0,0.0,-1.0));
#388=DIRECTION('',(-1.0,-1.64412888401961E-016,0.0));
#389=SURFACE_STYLE_FILL_AREA(#438);
#390=ORIENTED_EDGE('',*,*,#83,.F.);
#391=ORIENTED_EDGE('',*,*,#119,.F.);
#392=ORIENTED_EDGE('',*,*,#101,.F.);
#393=ORIENTED_EDGE('',*,*,#97,.T.);
#394=CARTESIAN_POINT('',(0.0,1.24645660177777E-014,3.97927405783625));
#395=DIRECTION('',(0.0,-0.0,1.0));
#396=DIRECTION('',(-1.0,-1.64412888401961E-016,0.0));
#397=DIRECTION('',(0.0,0.0,1.0));
#398=CARTESIAN_POINT('',(0.0,1.24645660177777E-014,12.0));
#399=DIRECTION('',(-0.0,0.0,-1.0));
#400=DIRECTION('',(-1.0,-1.64412888401961E-016,0.0));
#401=CARTESIAN_POINT('',(0.0,1.24645660177777E-014,12.0));
#402=DIRECTION('',(-0.0,0.0,-1.0));
#403=DIRECTION('',(-1.0,-1.64412888401961E-016,0.0));
#404=SURFACE_STYLE_FILL_AREA(#439);
#405=ORIENTED_EDGE('',*,*,#105,.F.);
#406=ORIENTED_EDGE('',*,*,#69,.F.);
#407=ORIENTED_EDGE('',*,*,#77,.T.);
#408=ORIENTED_EDGE('',*,*,#103,.T.);
#409=CARTESIAN_POINT('',(-26.25,9.24997433899396E-015,12.0));
#410=DIRECTION('',(0.0,0.0,1.0));
#411=DIRECTION('',(-1.0,-1.22460635382238E-016,0.0));
#412=SURFACE_STYLE_FILL_AREA(#440);
#413=ORIENTED_EDGE('',*,*,#83,.T.);
#414=ORIENTED_EDGE('',*,*,#59,.T.);
#415=ORIENTED_EDGE('',*,*,#101,.T.);
#416=ORIENTED_EDGE('',*,*,#89,.F.);
#417=CARTESIAN_POINT('',(0.0,1.24645660177777E-014,3.97927405783625));
#418=DIRECTION('',(0.0,-0.0,1.0));
#419=DIRECTION('',(-1.0,-1.64412888401961E-016,0.0));
#420=SURFACE_STYLE_FILL_AREA(#441);
#421=ORIENTED_EDGE('',*,*,#95,.T.);
#422=ORIENTED_EDGE('',*,*,#63,.F.);
#423=ORIENTED_EDGE('',*,*,#121,.T.);
#424=ORIENTED_EDGE('',*,*,#69,.T.);
#425=CARTESIAN_POINT('',(0.0,1.24645660177777E-014,5.99999999999997));
#426=DIRECTION('',(0.0,-0.0,1.0));
#427=DIRECTION('',(-1.0,-1.64412888401961E-016,0.0));
#428=CARTESIAN_POINT('',(0.0,1.24645660177777E-014,7.95854811567253));
#429=DIRECTION('',(-0.0,0.0,-1.0));
#430=DIRECTION('',(-1.0,-1.64412888401961E-016,0.0));
#431=DIRECTION('',(-0.0,-0.0,1.0));
#432=DIRECTION('',(0.866025403784435,2.48439759270275E-016,-0.500000000000006));
#433=FILL_AREA_STYLE('',(#442));
#434=FILL_AREA_STYLE('',(#443));
#435=FILL_AREA_STYLE('',(#444));
#436=FILL_AREA_STYLE('',(#445));
#437=FILL_AREA_STYLE('',(#446));
#438=FILL_AREA_STYLE('',(#447));
#439=FILL_AREA_STYLE('',(#448));
#440=FILL_AREA_STYLE('',(#449));
#441=FILL_AREA_STYLE('',(#450));
#442=FILL_AREA_STYLE_COLOUR('',#451);
#443=FILL_AREA_STYLE_COLOUR('',#452);
#444=FILL_AREA_STYLE_COLOUR('',#453);
#445=FILL_AREA_STYLE_COLOUR('',#454);
#446=FILL_AREA_STYLE_COLOUR('',#455);
#447=FILL_AREA_STYLE_COLOUR('',#456);
#448=FILL_AREA_STYLE_COLOUR('',#457);
#449=FILL_AREA_STYLE_COLOUR('',#458);
#450=FILL_AREA_STYLE_COLOUR('',#459);
#451=COLOUR_RGB('',0.509803950786591,0.509803950786591,0.588235318660736);
#452=COLOUR_RGB('',0.509803950786591,0.509803950786591,0.588235318660736);
#453=COLOUR_RGB('',0.509803950786591,0.509803950786591,0.588235318660736);
#454=COLOUR_RGB('',0.509803950786591,0.509803950786591,0.588235318660736);
#455=COLOUR_RGB('',0.509803950786591,0.509803950786591,0.588235318660736);
#456=COLOUR_RGB('',0.509803950786591,0.509803950786591,0.588235318660736);
#457=COLOUR_RGB('',0.509803950786591,0.509803950786591,0.588235318660736);
#458=COLOUR_RGB('',0.509803950786591,0.509803950786591,0.588235318660736);
#459=COLOUR_RGB('',0.509803950786591,0.509803950786591,0.588235318660736);
ENDSEC;
END-ISO-10303-21;
