ISO-10303-21;
HEADER;
FILE_DESCRIPTION(('STEP AP214'),'1');
FILE_NAME(' ','  ',('TraceParts'),('TraceParts S.A.'),'XStep 1.0',' ',' ');
FILE_SCHEMA(('automotive_design'));
ENDSEC;
DATA;
#1=MECHANICAL_DESIGN_GEOMETRIC_PRESENTATION_REPRESENTATION(' ',(#10,#11,#12,#13,#14,#15,#16,#17,#18,#19,#20,#21,#22,#23,#24,#25,#26,#27,#28,#29,#30,#31,#32,#33,#34,#35,#36,#37,#38,#39,#40,#41,#42,#43,#44),#6);
#2=PRODUCT_DEFINITION_CONTEXT('',#45,'design');
#3=APPLICATION_PROTOCOL_DEFINITION('INTERNATIONAL STANDARD','automotive_design',1994,#45);
#4=PRODUCT_CATEGORY_RELATIONSHIP('NONE','NONE',#46,#47);
#5=SHAPE_DEFINITION_REPRESENTATION(#48,#49);
#6= (GEOMETRIC_REPRESENTATION_CONTEXT(3)GLOBAL_UNCERTAINTY_ASSIGNED_CONTEXT((#52))GLOBAL_UNIT_ASSIGNED_CONTEXT((#54,#55,#56))REPRESENTATION_CONTEXT('NONE','WORKSPACE'));
#10=STYLED_ITEM('',(#58),#59);
#11=STYLED_ITEM('',(#60),#61);
#12=STYLED_ITEM('',(#62),#63);
#13=STYLED_ITEM('',(#64),#65);
#14=STYLED_ITEM('',(#66),#67);
#15=STYLED_ITEM('',(#68),#69);
#16=STYLED_ITEM('',(#70),#71);
#17=STYLED_ITEM('',(#72),#73);
#18=STYLED_ITEM('',(#74),#75);
#19=STYLED_ITEM('',(#76),#77);
#20=STYLED_ITEM('',(#78),#79);
#21=STYLED_ITEM('',(#80),#81);
#22=STYLED_ITEM('',(#82),#83);
#23=STYLED_ITEM('',(#84),#85);
#24=STYLED_ITEM('',(#86),#87);
#25=STYLED_ITEM('',(#88),#89);
#26=STYLED_ITEM('',(#90),#91);
#27=STYLED_ITEM('',(#92),#93);
#28=STYLED_ITEM('',(#94),#95);
#29=STYLED_ITEM('',(#96),#97);
#30=STYLED_ITEM('',(#98),#99);
#31=STYLED_ITEM('',(#100),#101);
#32=STYLED_ITEM('',(#102),#103);
#33=STYLED_ITEM('',(#104),#105);
#34=STYLED_ITEM('',(#106),#107);
#35=STYLED_ITEM('',(#108),#109);
#36=STYLED_ITEM('',(#110),#111);
#37=STYLED_ITEM('',(#112),#113);
#38=STYLED_ITEM('',(#114),#115);
#39=STYLED_ITEM('',(#116),#117);
#40=STYLED_ITEM('',(#118),#119);
#41=STYLED_ITEM('',(#120),#121);
#42=STYLED_ITEM('',(#122),#123);
#43=STYLED_ITEM('',(#124),#125);
#44=STYLED_ITEM('',(#126),#127);
#45=APPLICATION_CONTEXT(' ');
#46=PRODUCT_CATEGORY('part','NONE');
#47=PRODUCT_RELATED_PRODUCT_CATEGORY('detail',' ',(#128));
#48=PRODUCT_DEFINITION_SHAPE('NONE','NONE',#129);
#49=ADVANCED_BREP_SHAPE_REPRESENTATION('1',(#69,#130),#6);
#52=UNCERTAINTY_MEASURE_WITH_UNIT(LENGTH_MEASURE(1.0E-006),#54,'','');
#54= (CONVERSION_BASED_UNIT('MILLIMETRE',#133)LENGTH_UNIT()NAMED_UNIT(#136));
#55= (NAMED_UNIT(#138)PLANE_ANGLE_UNIT()SI_UNIT($,.RADIAN.));
#56= (NAMED_UNIT(#138)SOLID_ANGLE_UNIT()SI_UNIT($,.STERADIAN.));
#58=PRESENTATION_STYLE_ASSIGNMENT((#144));
#59=VERTEX_POINT('',#145);
#60=PRESENTATION_STYLE_ASSIGNMENT((#146));
#61=EDGE_CURVE('',#113,#105,#147,.T.);
#62=PRESENTATION_STYLE_ASSIGNMENT((#148));
#63=EDGE_CURVE('',#85,#83,#149,.T.);
#64=PRESENTATION_STYLE_ASSIGNMENT((#150));
#65=ADVANCED_FACE('',(#151),#152,.F.);
#66=PRESENTATION_STYLE_ASSIGNMENT((#153));
#67=ADVANCED_FACE('',(#154),#155,.T.);
#68=PRESENTATION_STYLE_ASSIGNMENT((#156));
#69=MANIFOLD_SOLID_BREP('1',#157);
#70=PRESENTATION_STYLE_ASSIGNMENT((#158));
#71=EDGE_CURVE('',#113,#125,#159,.T.);
#72=PRESENTATION_STYLE_ASSIGNMENT((#160));
#73=EDGE_CURVE('',#101,#85,#161,.T.);
#74=PRESENTATION_STYLE_ASSIGNMENT((#162));
#75=EDGE_CURVE('',#121,#101,#163,.T.);
#76=PRESENTATION_STYLE_ASSIGNMENT((#164));
#77=ADVANCED_FACE('',(#165,#166),#167,.T.);
#78=PRESENTATION_STYLE_ASSIGNMENT((#168));
#79=ADVANCED_FACE('',(#169),#170,.F.);
#80=PRESENTATION_STYLE_ASSIGNMENT((#171));
#81=ADVANCED_FACE('',(#172,#173),#174,.T.);
#82=PRESENTATION_STYLE_ASSIGNMENT((#175));
#83=VERTEX_POINT('',#176);
#84=PRESENTATION_STYLE_ASSIGNMENT((#177));
#85=VERTEX_POINT('',#178);
#86=PRESENTATION_STYLE_ASSIGNMENT((#179));
#87=EDGE_CURVE('',#83,#85,#180,.T.);
#88=PRESENTATION_STYLE_ASSIGNMENT((#181));
#89=EDGE_CURVE('',#105,#93,#182,.T.);
#90=PRESENTATION_STYLE_ASSIGNMENT((#183));
#91=EDGE_CURVE('',#83,#121,#184,.T.);
#92=PRESENTATION_STYLE_ASSIGNMENT((#185));
#93=VERTEX_POINT('',#186);
#94=PRESENTATION_STYLE_ASSIGNMENT((#187));
#95=EDGE_CURVE('',#59,#119,#188,.T.);
#96=PRESENTATION_STYLE_ASSIGNMENT((#189));
#97=ADVANCED_FACE('',(#190),#191,.F.);
#98=PRESENTATION_STYLE_ASSIGNMENT((#192));
#99=EDGE_CURVE('',#125,#113,#193,.T.);
#100=PRESENTATION_STYLE_ASSIGNMENT((#194));
#101=VERTEX_POINT('',#195);
#102=PRESENTATION_STYLE_ASSIGNMENT((#196));
#103=EDGE_CURVE('',#101,#121,#197,.T.);
#104=PRESENTATION_STYLE_ASSIGNMENT((#198));
#105=VERTEX_POINT('',#199);
#106=PRESENTATION_STYLE_ASSIGNMENT((#200));
#107=ADVANCED_FACE('',(#201),#202,.T.);
#108=PRESENTATION_STYLE_ASSIGNMENT((#203));
#109=EDGE_CURVE('',#121,#119,#204,.T.);
#110=PRESENTATION_STYLE_ASSIGNMENT((#205));
#111=EDGE_CURVE('',#119,#59,#206,.T.);
#112=PRESENTATION_STYLE_ASSIGNMENT((#207));
#113=VERTEX_POINT('',#208);
#114=PRESENTATION_STYLE_ASSIGNMENT((#209));
#115=ADVANCED_FACE('',(#210),#211,.F.);
#116=PRESENTATION_STYLE_ASSIGNMENT((#212));
#117=EDGE_CURVE('',#59,#101,#213,.T.);
#118=PRESENTATION_STYLE_ASSIGNMENT((#214));
#119=VERTEX_POINT('',#215);
#120=PRESENTATION_STYLE_ASSIGNMENT((#216));
#121=VERTEX_POINT('',#217);
#122=PRESENTATION_STYLE_ASSIGNMENT((#218));
#123=EDGE_CURVE('',#93,#125,#219,.T.);
#124=PRESENTATION_STYLE_ASSIGNMENT((#220));
#125=VERTEX_POINT('',#221);
#126=PRESENTATION_STYLE_ASSIGNMENT((#222));
#127=EDGE_CURVE('',#93,#105,#223,.T.);
#128=PRODUCT('1','1','PART-1-DESC',(#224));
#129=PRODUCT_DEFINITION('NONE','NONE',#225,#2);
#130=AXIS2_PLACEMENT_3D('',#226,#227,#228);
#133=LENGTH_MEASURE_WITH_UNIT(LENGTH_MEASURE(1.0),#229);
#136=DIMENSIONAL_EXPONENTS(1.0,0.0,0.0,0.0,0.0,0.0,0.0);
#138=DIMENSIONAL_EXPONENTS(0.0,0.0,0.0,0.0,0.0,0.0,0.0);
#144=POINT_STYLE(' ',#230,POSITIVE_LENGTH_MEASURE(1.0E-006),#231);
#145=CARTESIAN_POINT('',(-18.5,9.77043203936847E-015,9.49999999999997));
#146=CURVE_STYLE('',#232,POSITIVE_LENGTH_MEASURE(1.0E-006),#233);
#147=LINE('',#234,#235);
#148=CURVE_STYLE('',#236,POSITIVE_LENGTH_MEASURE(1.0E-006),#237);
#149=CIRCLE('',#238,14.0);
#150=SURFACE_STYLE_USAGE(.BOTH.,#239);
#151=FACE_OUTER_BOUND('',#240,.T.);
#152=CYLINDRICAL_SURFACE('',#241,14.0);
#153=SURFACE_STYLE_USAGE(.BOTH.,#242);
#154=FACE_OUTER_BOUND('',#243,.T.);
#155=CYLINDRICAL_SURFACE('',#244,22.0);
#156=SURFACE_STYLE_USAGE(.BOTH.,#245);
#157=CLOSED_SHELL('',(#79,#107,#115,#97,#81,#67,#77,#65));
#158=CURVE_STYLE('',#246,POSITIVE_LENGTH_MEASURE(1.0E-006),#247);
#159=CIRCLE('',#248,22.0);
#160=CURVE_STYLE('',#249,POSITIVE_LENGTH_MEASURE(1.0E-006),#250);
#161=LINE('',#251,#252);
#162=CURVE_STYLE('',#253,POSITIVE_LENGTH_MEASURE(1.0E-006),#254);
#163=CIRCLE('',#255,14.0);
#164=SURFACE_STYLE_USAGE(.BOTH.,#256);
#165=FACE_BOUND('',#257,.T.);
#166=FACE_OUTER_BOUND('',#258,.T.);
#167=PLANE('',#259);
#168=SURFACE_STYLE_USAGE(.BOTH.,#260);
#169=FACE_OUTER_BOUND('',#261,.T.);
#170=CYLINDRICAL_SURFACE('',#262,14.0);
#171=SURFACE_STYLE_USAGE(.BOTH.,#263);
#172=FACE_OUTER_BOUND('',#264,.T.);
#173=FACE_BOUND('',#265,.T.);
#174=PLANE('',#266);
#175=POINT_STYLE(' ',#267,POSITIVE_LENGTH_MEASURE(1.0E-006),#268);
#176=CARTESIAN_POINT('',(14.0,1.6046019796115E-014,-2.8421709430404E-014));
#177=POINT_STYLE(' ',#269,POSITIVE_LENGTH_MEASURE(1.0E-006),#270);
#178=CARTESIAN_POINT('',(-14.0,9.73981688052291E-015,-2.8421709430404E-014));
#179=CURVE_STYLE('',#271,POSITIVE_LENGTH_MEASURE(1.0E-006),#272);
#180=CIRCLE('',#273,14.0);
#181=CURVE_STYLE('',#274,POSITIVE_LENGTH_MEASURE(1.0E-006),#275);
#182=CIRCLE('',#276,22.0);
#183=CURVE_STYLE('',#277,POSITIVE_LENGTH_MEASURE(1.0E-006),#278);
#184=LINE('',#279,#280);
#185=POINT_STYLE(' ',#281,POSITIVE_LENGTH_MEASURE(1.0E-006),#282);
#186=CARTESIAN_POINT('',(-22.0,9.34181981553064E-015,9.49999999999997));
#187=CURVE_STYLE('',#283,POSITIVE_LENGTH_MEASURE(1.0E-006),#284);
#188=CIRCLE('',#285,18.5);
#189=SURFACE_STYLE_USAGE(.BOTH.,#286);
#190=FACE_OUTER_BOUND('',#287,.T.);
#191=CONICAL_SURFACE('',#288,16.25,1.04719755119659);
#192=CURVE_STYLE('',#289,POSITIVE_LENGTH_MEASURE(1.0E-006),#290);
#193=CIRCLE('',#291,22.0);
#194=POINT_STYLE(' ',#292,POSITIVE_LENGTH_MEASURE(1.0E-006),#293);
#195=CARTESIAN_POINT('',(-14.0,1.01624238667816E-014,6.90192378864663));
#196=CURVE_STYLE('',#294,POSITIVE_LENGTH_MEASURE(1.0E-006),#295);
#197=CIRCLE('',#296,14.0);
#198=POINT_STYLE(' ',#297,POSITIVE_LENGTH_MEASURE(1.0E-006),#298);
#199=CARTESIAN_POINT('',(22.0,1.83374860830723E-014,9.49999999999997));
#200=SURFACE_STYLE_USAGE(.BOTH.,#299);
#201=FACE_OUTER_BOUND('',#300,.T.);
#202=CYLINDRICAL_SURFACE('',#301,22.0);
#203=CURVE_STYLE('',#302,POSITIVE_LENGTH_MEASURE(1.0E-006),#303);
#204=LINE('',#304,#305);
#205=CURVE_STYLE('',#306,POSITIVE_LENGTH_MEASURE(1.0E-006),#307);
#206=CIRCLE('',#308,18.5);
#207=POINT_STYLE(' ',#309,POSITIVE_LENGTH_MEASURE(1.0E-006),#310);
#208=CARTESIAN_POINT('',(22.0,1.83374860830723E-014,-2.8421709430404E-014));
#209=SURFACE_STYLE_USAGE(.BOTH.,#311);
#210=FACE_OUTER_BOUND('',#312,.T.);
#211=CONICAL_SURFACE('',#313,16.25,1.04719755119659);
#212=CURVE_STYLE('',#314,POSITIVE_LENGTH_MEASURE(1.0E-006),#315);
#213=LINE('',#316,#317);
#214=POINT_STYLE(' ',#318,POSITIVE_LENGTH_MEASURE(1.0E-006),#319);
#215=CARTESIAN_POINT('',(18.5,1.73349695825285E-014,9.49999999999997));
#216=POINT_STYLE(' ',#320,POSITIVE_LENGTH_MEASURE(1.0E-006),#321);
#217=CARTESIAN_POINT('',(14.0,1.6046019796115E-014,6.90192378864663));
#218=CURVE_STYLE('',#322,POSITIVE_LENGTH_MEASURE(1.0E-006),#323);
#219=LINE('',#324,#325);
#220=POINT_STYLE(' ',#326,POSITIVE_LENGTH_MEASURE(1.0E-006),#327);
#221=CARTESIAN_POINT('',(-22.0,8.76013179746501E-015,-2.8421709430404E-014));
#222=CURVE_STYLE('',#328,POSITIVE_LENGTH_MEASURE(1.0E-006),#329);
#223=CIRCLE('',#330,22.0);
#224=PRODUCT_CONTEXT('',#45,'mechanical');
#225=PRODUCT_DEFINITION_FORMATION_WITH_SPECIFIED_SOURCE(' ','NONE',#128,.NOT_KNOWN.);
#226=CARTESIAN_POINT('',(0.0,0.0,0.0));
#227=DIRECTION('',(0.0,0.0,1.0));
#228=DIRECTION('',(1.0,0.0,0.0));
#229= (NAMED_UNIT(#136)LENGTH_UNIT()SI_UNIT(.MILLI.,.METRE.));
#230=PRE_DEFINED_MARKER('');
#231=COLOUR_RGB('',0.509803950786591,0.509803950786591,0.588235318660736);
#232=DRAUGHTING_PRE_DEFINED_CURVE_FONT('continuous');
#233=COLOUR_RGB('',0.509803950786591,0.509803950786591,0.588235318660736);
#234=CARTESIAN_POINT('',(22.0,1.83374860830723E-014,4.74999999999997));
#235=VECTOR('',#332,1.0);
#236=DRAUGHTING_PRE_DEFINED_CURVE_FONT('continuous');
#237=COLOUR_RGB('',0.509803950786591,0.509803950786591,0.588235318660736);
#238=AXIS2_PLACEMENT_3D('',#333,#334,#335);
#239=SURFACE_SIDE_STYLE('',(#336));
#240=EDGE_LOOP('',(#337,#338,#339,#340));
#241=AXIS2_PLACEMENT_3D('',#341,#342,#343);
#242=SURFACE_SIDE_STYLE('',(#344));
#243=EDGE_LOOP('',(#345,#346,#347,#348));
#244=AXIS2_PLACEMENT_3D('',#349,#350,#351);
#245=SURFACE_SIDE_STYLE('',(#352));
#246=DRAUGHTING_PRE_DEFINED_CURVE_FONT('continuous');
#247=COLOUR_RGB('',0.509803950786591,0.509803950786591,0.588235318660736);
#248=AXIS2_PLACEMENT_3D('',#353,#354,#355);
#249=DRAUGHTING_PRE_DEFINED_CURVE_FONT('continuous');
#250=COLOUR_RGB('',0.509803950786591,0.509803950786591,0.588235318660736);
#251=CARTESIAN_POINT('',(-14.0,8.02588779176469E-015,3.4509618943233));
#252=VECTOR('',#356,1.0);
#253=DRAUGHTING_PRE_DEFINED_CURVE_FONT('continuous');
#254=COLOUR_RGB('',0.509803950786591,0.509803950786591,0.588235318660736);
#255=AXIS2_PLACEMENT_3D('',#357,#358,#359);
#256=SURFACE_SIDE_STYLE('',(#360));
#257=EDGE_LOOP('',(#361,#362));
#258=EDGE_LOOP('',(#363,#364));
#259=AXIS2_PLACEMENT_3D('',#365,#366,#367);
#260=SURFACE_SIDE_STYLE('',(#368));
#261=EDGE_LOOP('',(#369,#370,#371,#372));
#262=AXIS2_PLACEMENT_3D('',#373,#374,#375);
#263=SURFACE_SIDE_STYLE('',(#376));
#264=EDGE_LOOP('',(#377,#378));
#265=EDGE_LOOP('',(#379,#380));
#266=AXIS2_PLACEMENT_3D('',#381,#382,#383);
#267=PRE_DEFINED_MARKER('');
#268=COLOUR_RGB('',0.509803950786591,0.509803950786591,0.588235318660736);
#269=PRE_DEFINED_MARKER('');
#270=COLOUR_RGB('',0.509803950786591,0.509803950786591,0.588235318660736);
#271=DRAUGHTING_PRE_DEFINED_CURVE_FONT('continuous');
#272=COLOUR_RGB('',0.509803950786591,0.509803950786591,0.588235318660736);
#273=AXIS2_PLACEMENT_3D('',#384,#385,#386);
#274=DRAUGHTING_PRE_DEFINED_CURVE_FONT('continuous');
#275=COLOUR_RGB('',0.509803950786591,0.509803950786591,0.588235318660736);
#276=AXIS2_PLACEMENT_3D('',#387,#388,#389);
#277=DRAUGHTING_PRE_DEFINED_CURVE_FONT('continuous');
#278=COLOUR_RGB('',0.509803950786591,0.509803950786591,0.588235318660736);
#279=CARTESIAN_POINT('',(14.0,1.6046019796115E-014,3.4509618943233));
#280=VECTOR('',#390,1.0);
#281=PRE_DEFINED_MARKER('');
#282=COLOUR_RGB('',0.509803950786591,0.509803950786591,0.588235318660736);
#283=DRAUGHTING_PRE_DEFINED_CURVE_FONT('continuous');
#284=COLOUR_RGB('',0.509803950786591,0.509803950786591,0.588235318660736);
#285=AXIS2_PLACEMENT_3D('',#391,#392,#393);
#286=SURFACE_SIDE_STYLE('',(#394));
#287=EDGE_LOOP('',(#395,#396,#397,#398));
#288=AXIS2_PLACEMENT_3D('',#399,#400,#401);
#289=DRAUGHTING_PRE_DEFINED_CURVE_FONT('continuous');
#290=COLOUR_RGB('',0.509803950786591,0.509803950786591,0.588235318660736);
#291=AXIS2_PLACEMENT_3D('',#402,#403,#404);
#292=PRE_DEFINED_MARKER('');
#293=COLOUR_RGB('',0.509803950786591,0.509803950786591,0.588235318660736);
#294=DRAUGHTING_PRE_DEFINED_CURVE_FONT('continuous');
#295=COLOUR_RGB('',0.509803950786591,0.509803950786591,0.588235318660736);
#296=AXIS2_PLACEMENT_3D('',#405,#406,#407);
#297=PRE_DEFINED_MARKER('');
#298=COLOUR_RGB('',0.509803950786591,0.509803950786591,0.588235318660736);
#299=SURFACE_SIDE_STYLE('',(#408));
#300=EDGE_LOOP('',(#409,#410,#411,#412));
#301=AXIS2_PLACEMENT_3D('',#413,#414,#415);
#302=DRAUGHTING_PRE_DEFINED_CURVE_FONT('continuous');
#303=COLOUR_RGB('',0.509803950786591,0.509803950786591,0.588235318660736);
#304=CARTESIAN_POINT('',(16.25,1.66904946893218E-014,8.2009618943233));
#305=VECTOR('',#416,1.0);
#306=DRAUGHTING_PRE_DEFINED_CURVE_FONT('continuous');
#307=COLOUR_RGB('',0.509803950786591,0.509803950786591,0.588235318660736);
#308=AXIS2_PLACEMENT_3D('',#417,#418,#419);
#309=PRE_DEFINED_MARKER('');
#310=COLOUR_RGB('',0.509803950786591,0.509803950786591,0.588235318660736);
#311=SURFACE_SIDE_STYLE('',(#420));
#312=EDGE_LOOP('',(#421,#422,#423,#424));
#313=AXIS2_PLACEMENT_3D('',#425,#426,#427);
#314=DRAUGHTING_PRE_DEFINED_CURVE_FONT('continuous');
#315=COLOUR_RGB('',0.509803950786591,0.509803950786591,0.588235318660736);
#316=CARTESIAN_POINT('',(-16.25,7.38141289855796E-015,8.2009618943233));
#317=VECTOR('',#428,1.0);
#318=PRE_DEFINED_MARKER('');
#319=COLOUR_RGB('',0.509803950786591,0.509803950786591,0.588235318660736);
#320=PRE_DEFINED_MARKER('');
#321=COLOUR_RGB('',0.509803950786591,0.509803950786591,0.588235318660736);
#322=DRAUGHTING_PRE_DEFINED_CURVE_FONT('continuous');
#323=COLOUR_RGB('',0.509803950786591,0.509803950786591,0.588235318660736);
#324=CARTESIAN_POINT('',(-22.0,5.73442150480744E-015,4.74999999999997));
#325=VECTOR('',#429,1.0);
#326=PRE_DEFINED_MARKER('');
#327=COLOUR_RGB('',0.509803950786591,0.509803950786591,0.588235318660736);
#328=DRAUGHTING_PRE_DEFINED_CURVE_FONT('continuous');
#329=COLOUR_RGB('',0.509803950786591,0.509803950786591,0.588235318660736);
#330=AXIS2_PLACEMENT_3D('',#430,#431,#432);
#332=DIRECTION('',(-0.0,-0.0,1.0));
#333=CARTESIAN_POINT('',(0.0,1.20359537939399E-014,-2.8421709430404E-014));
#334=DIRECTION('',(-0.0,0.0,-1.0));
#335=DIRECTION('',(-1.0,-1.63972650487418E-016,0.0));
#336=SURFACE_STYLE_FILL_AREA(#433);
#337=ORIENTED_EDGE('',*,*,#73,.T.);
#338=ORIENTED_EDGE('',*,*,#63,.T.);
#339=ORIENTED_EDGE('',*,*,#91,.T.);
#340=ORIENTED_EDGE('',*,*,#103,.F.);
#341=CARTESIAN_POINT('',(0.0,1.20359537939399E-014,3.4509618943233));
#342=DIRECTION('',(0.0,-0.0,1.0));
#343=DIRECTION('',(-1.0,-1.63972650487418E-016,0.0));
#344=SURFACE_STYLE_FILL_AREA(#434);
#345=ORIENTED_EDGE('',*,*,#123,.T.);
#346=ORIENTED_EDGE('',*,*,#71,.F.);
#347=ORIENTED_EDGE('',*,*,#61,.T.);
#348=ORIENTED_EDGE('',*,*,#89,.T.);
#349=CARTESIAN_POINT('',(0.0,1.20359537939399E-014,4.74999999999997));
#350=DIRECTION('',(0.0,-0.0,1.0));
#351=DIRECTION('',(-1.0,-1.63972650487418E-016,0.0));
#352=SURFACE_STYLE_FILL_AREA(#435);
#353=CARTESIAN_POINT('',(0.0,1.20359537939399E-014,-2.8421709430404E-014));
#354=DIRECTION('',(-0.0,0.0,-1.0));
#355=DIRECTION('',(-1.0,-1.63972650487418E-016,0.0));
#356=DIRECTION('',(0.0,0.0,-1.0));
#357=CARTESIAN_POINT('',(0.0,1.20359537939399E-014,6.90192378864663));
#358=DIRECTION('',(-0.0,0.0,-1.0));
#359=DIRECTION('',(-1.0,-1.63972650487418E-016,0.0));
#360=SURFACE_STYLE_FILL_AREA(#436);
#361=ORIENTED_EDGE('',*,*,#63,.F.);
#362=ORIENTED_EDGE('',*,*,#87,.F.);
#363=ORIENTED_EDGE('',*,*,#99,.T.);
#364=ORIENTED_EDGE('',*,*,#71,.T.);
#365=CARTESIAN_POINT('',(-18.0,9.24997433899396E-015,-2.8421709430404E-014));
#366=DIRECTION('',(0.0,0.0,-1.0));
#367=DIRECTION('',(1.0,1.22460635382238E-016,0.0));
#368=SURFACE_STYLE_FILL_AREA(#437);
#369=ORIENTED_EDGE('',*,*,#73,.F.);
#370=ORIENTED_EDGE('',*,*,#75,.F.);
#371=ORIENTED_EDGE('',*,*,#91,.F.);
#372=ORIENTED_EDGE('',*,*,#87,.T.);
#373=CARTESIAN_POINT('',(0.0,1.20359537939399E-014,3.4509618943233));
#374=DIRECTION('',(0.0,-0.0,1.0));
#375=DIRECTION('',(-1.0,-1.63972650487418E-016,0.0));
#376=SURFACE_STYLE_FILL_AREA(#438);
#377=ORIENTED_EDGE('',*,*,#127,.F.);
#378=ORIENTED_EDGE('',*,*,#89,.F.);
#379=ORIENTED_EDGE('',*,*,#95,.T.);
#380=ORIENTED_EDGE('',*,*,#111,.T.);
#381=CARTESIAN_POINT('',(-20.25,9.55612592744956E-015,9.49999999999997));
#382=DIRECTION('',(0.0,0.0,1.0));
#383=DIRECTION('',(-1.0,-1.22460635382238E-016,0.0));
#384=CARTESIAN_POINT('',(0.0,1.20359537939399E-014,-2.8421709430404E-014));
#385=DIRECTION('',(-0.0,0.0,-1.0));
#386=DIRECTION('',(-1.0,-1.63972650487418E-016,0.0));
#387=CARTESIAN_POINT('',(0.0,1.20359537939399E-014,9.49999999999997));
#388=DIRECTION('',(-0.0,0.0,-1.0));
#389=DIRECTION('',(-1.0,-1.63972650487418E-016,0.0));
#390=DIRECTION('',(0.0,0.0,1.0));
#391=CARTESIAN_POINT('',(0.0,1.20359537939399E-014,9.49999999999997));
#392=DIRECTION('',(-0.0,0.0,-1.0));
#393=DIRECTION('',(-1.0,-1.63972650487418E-016,0.0));
#394=SURFACE_STYLE_FILL_AREA(#439);
#395=ORIENTED_EDGE('',*,*,#117,.T.);
#396=ORIENTED_EDGE('',*,*,#103,.T.);
#397=ORIENTED_EDGE('',*,*,#109,.T.);
#398=ORIENTED_EDGE('',*,*,#95,.F.);
#399=CARTESIAN_POINT('',(0.0,1.20359537939399E-014,8.2009618943233));
#400=DIRECTION('',(0.0,-0.0,1.0));
#401=DIRECTION('',(-1.0,-1.63972650487418E-016,0.0));
#402=CARTESIAN_POINT('',(0.0,1.20359537939399E-014,-2.8421709430404E-014));
#403=DIRECTION('',(-0.0,0.0,-1.0));
#404=DIRECTION('',(-1.0,-1.63972650487418E-016,0.0));
#405=CARTESIAN_POINT('',(0.0,1.20359537939399E-014,6.90192378864663));
#406=DIRECTION('',(-0.0,0.0,-1.0));
#407=DIRECTION('',(-1.0,-1.63972650487418E-016,0.0));
#408=SURFACE_STYLE_FILL_AREA(#440);
#409=ORIENTED_EDGE('',*,*,#123,.F.);
#410=ORIENTED_EDGE('',*,*,#127,.T.);
#411=ORIENTED_EDGE('',*,*,#61,.F.);
#412=ORIENTED_EDGE('',*,*,#99,.F.);
#413=CARTESIAN_POINT('',(0.0,1.20359537939399E-014,4.74999999999997));
#414=DIRECTION('',(0.0,-0.0,1.0));
#415=DIRECTION('',(-1.0,-1.63972650487418E-016,0.0));
#416=DIRECTION('',(0.866025403784436,2.48058502052572E-016,0.500000000000004));
#417=CARTESIAN_POINT('',(0.0,1.20359537939399E-014,9.49999999999997));
#418=DIRECTION('',(-0.0,0.0,-1.0));
#419=DIRECTION('',(-1.0,-1.63972650487418E-016,0.0));
#420=SURFACE_STYLE_FILL_AREA(#441);
#421=ORIENTED_EDGE('',*,*,#117,.F.);
#422=ORIENTED_EDGE('',*,*,#111,.F.);
#423=ORIENTED_EDGE('',*,*,#109,.F.);
#424=ORIENTED_EDGE('',*,*,#75,.T.);
#425=CARTESIAN_POINT('',(0.0,1.20359537939399E-014,8.2009618943233));
#426=DIRECTION('',(0.0,-0.0,1.0));
#427=DIRECTION('',(-1.0,-1.63972650487418E-016,0.0));
#428=DIRECTION('',(0.866025403784436,2.48058502052572E-016,-0.500000000000004));
#429=DIRECTION('',(0.0,0.0,-1.0));
#430=CARTESIAN_POINT('',(0.0,1.20359537939399E-014,9.49999999999997));
#431=DIRECTION('',(-0.0,0.0,-1.0));
#432=DIRECTION('',(-1.0,-1.63972650487418E-016,0.0));
#433=FILL_AREA_STYLE('',(#442));
#434=FILL_AREA_STYLE('',(#443));
#435=FILL_AREA_STYLE('',(#444));
#436=FILL_AREA_STYLE('',(#445));
#437=FILL_AREA_STYLE('',(#446));
#438=FILL_AREA_STYLE('',(#447));
#439=FILL_AREA_STYLE('',(#448));
#440=FILL_AREA_STYLE('',(#449));
#441=FILL_AREA_STYLE('',(#450));
#442=FILL_AREA_STYLE_COLOUR('',#451);
#443=FILL_AREA_STYLE_COLOUR('',#452);
#444=FILL_AREA_STYLE_COLOUR('',#453);
#445=FILL_AREA_STYLE_COLOUR('',#454);
#446=FILL_AREA_STYLE_COLOUR('',#455);
#447=FILL_AREA_STYLE_COLOUR('',#456);
#448=FILL_AREA_STYLE_COLOUR('',#457);
#449=FILL_AREA_STYLE_COLOUR('',#458);
#450=FILL_AREA_STYLE_COLOUR('',#459);
#451=COLOUR_RGB('',0.509803950786591,0.509803950786591,0.588235318660736);
#452=COLOUR_RGB('',0.509803950786591,0.509803950786591,0.588235318660736);
#453=COLOUR_RGB('',0.509803950786591,0.509803950786591,0.588235318660736);
#454=COLOUR_RGB('',0.509803950786591,0.509803950786591,0.588235318660736);
#455=COLOUR_RGB('',0.509803950786591,0.509803950786591,0.588235318660736);
#456=COLOUR_RGB('',0.509803950786591,0.509803950786591,0.588235318660736);
#457=COLOUR_RGB('',0.509803950786591,0.509803950786591,0.588235318660736);
#458=COLOUR_RGB('',0.509803950786591,0.509803950786591,0.588235318660736);
#459=COLOUR_RGB('',0.509803950786591,0.509803950786591,0.588235318660736);
ENDSEC;
END-ISO-10303-21;
