ISO-10303-21;
HEADER;
FILE_DESCRIPTION(('STEP AP214'),'1');
FILE_NAME(' ','  ',('TraceParts'),('TraceParts S.A.'),'XStep 1.0',' ',' ');
FILE_SCHEMA(('automotive_design'));
ENDSEC;
DATA;
#1=MECHANICAL_DESIGN_GEOMETRIC_PRESENTATION_REPRESENTATION(' ',(#10,#11,#12,#13,#14,#15,#16,#17,#18,#19,#20,#21,#22,#23,#24,#25,#26,#27,#28,#29,#30,#31,#32,#33,#34,#35,#36,#37,#38,#39,#40,#41,#42,#43,#44),#6);
#2=PRODUCT_DEFINITION_CONTEXT('',#45,'design');
#3=APPLICATION_PROTOCOL_DEFINITION('INTERNATIONAL STANDARD','automotive_design',1994,#45);
#4=PRODUCT_CATEGORY_RELATIONSHIP('NONE','NONE',#46,#47);
#5=SHAPE_DEFINITION_REPRESENTATION(#48,#49);
#6= (GEOMETRIC_REPRESENTATION_CONTEXT(3)GLOBAL_UNCERTAINTY_ASSIGNED_CONTEXT((#52))GLOBAL_UNIT_ASSIGNED_CONTEXT((#54,#55,#56))REPRESENTATION_CONTEXT('NONE','WORKSPACE'));
#10=STYLED_ITEM('',(#58),#59);
#11=STYLED_ITEM('',(#60),#61);
#12=STYLED_ITEM('',(#62),#63);
#13=STYLED_ITEM('',(#64),#65);
#14=STYLED_ITEM('',(#66),#67);
#15=STYLED_ITEM('',(#68),#69);
#16=STYLED_ITEM('',(#70),#71);
#17=STYLED_ITEM('',(#72),#73);
#18=STYLED_ITEM('',(#74),#75);
#19=STYLED_ITEM('',(#76),#77);
#20=STYLED_ITEM('',(#78),#79);
#21=STYLED_ITEM('',(#80),#81);
#22=STYLED_ITEM('',(#82),#83);
#23=STYLED_ITEM('',(#84),#85);
#24=STYLED_ITEM('',(#86),#87);
#25=STYLED_ITEM('',(#88),#89);
#26=STYLED_ITEM('',(#90),#91);
#27=STYLED_ITEM('',(#92),#93);
#28=STYLED_ITEM('',(#94),#95);
#29=STYLED_ITEM('',(#96),#97);
#30=STYLED_ITEM('',(#98),#99);
#31=STYLED_ITEM('',(#100),#101);
#32=STYLED_ITEM('',(#102),#103);
#33=STYLED_ITEM('',(#104),#105);
#34=STYLED_ITEM('',(#106),#107);
#35=STYLED_ITEM('',(#108),#109);
#36=STYLED_ITEM('',(#110),#111);
#37=STYLED_ITEM('',(#112),#113);
#38=STYLED_ITEM('',(#114),#115);
#39=STYLED_ITEM('',(#116),#117);
#40=STYLED_ITEM('',(#118),#119);
#41=STYLED_ITEM('',(#120),#121);
#42=STYLED_ITEM('',(#122),#123);
#43=STYLED_ITEM('',(#124),#125);
#44=STYLED_ITEM('',(#126),#127);
#45=APPLICATION_CONTEXT(' ');
#46=PRODUCT_CATEGORY('part','NONE');
#47=PRODUCT_RELATED_PRODUCT_CATEGORY('detail',' ',(#128));
#48=PRODUCT_DEFINITION_SHAPE('NONE','NONE',#129);
#49=ADVANCED_BREP_SHAPE_REPRESENTATION('1',(#59,#130),#6);
#52=UNCERTAINTY_MEASURE_WITH_UNIT(LENGTH_MEASURE(1.0E-006),#54,'','');
#54= (CONVERSION_BASED_UNIT('MILLIMETRE',#133)LENGTH_UNIT()NAMED_UNIT(#136));
#55= (NAMED_UNIT(#138)PLANE_ANGLE_UNIT()SI_UNIT($,.RADIAN.));
#56= (NAMED_UNIT(#138)SOLID_ANGLE_UNIT()SI_UNIT($,.STERADIAN.));
#58=PRESENTATION_STYLE_ASSIGNMENT((#144));
#59=MANIFOLD_SOLID_BREP('1',#145);
#60=PRESENTATION_STYLE_ASSIGNMENT((#146));
#61=EDGE_CURVE('',#75,#117,#147,.T.);
#62=PRESENTATION_STYLE_ASSIGNMENT((#148));
#63=VERTEX_POINT('',#149);
#64=PRESENTATION_STYLE_ASSIGNMENT((#150));
#65=ADVANCED_FACE('',(#151),#152,.F.);
#66=PRESENTATION_STYLE_ASSIGNMENT((#153));
#67=EDGE_CURVE('',#117,#87,#154,.T.);
#68=PRESENTATION_STYLE_ASSIGNMENT((#155));
#69=EDGE_CURVE('',#63,#113,#156,.T.);
#70=PRESENTATION_STYLE_ASSIGNMENT((#157));
#71=EDGE_CURVE('',#63,#85,#158,.T.);
#72=PRESENTATION_STYLE_ASSIGNMENT((#159));
#73=ADVANCED_FACE('',(#160,#161),#162,.T.);
#74=PRESENTATION_STYLE_ASSIGNMENT((#163));
#75=VERTEX_POINT('',#164);
#76=PRESENTATION_STYLE_ASSIGNMENT((#165));
#77=EDGE_CURVE('',#113,#119,#166,.T.);
#78=PRESENTATION_STYLE_ASSIGNMENT((#167));
#79=ADVANCED_FACE('',(#168),#169,.F.);
#80=PRESENTATION_STYLE_ASSIGNMENT((#170));
#81=EDGE_CURVE('',#105,#75,#171,.T.);
#82=PRESENTATION_STYLE_ASSIGNMENT((#172));
#83=VERTEX_POINT('',#173);
#84=PRESENTATION_STYLE_ASSIGNMENT((#174));
#85=VERTEX_POINT('',#175);
#86=PRESENTATION_STYLE_ASSIGNMENT((#176));
#87=VERTEX_POINT('',#177);
#88=PRESENTATION_STYLE_ASSIGNMENT((#178));
#89=ADVANCED_FACE('',(#179,#180),#181,.T.);
#90=PRESENTATION_STYLE_ASSIGNMENT((#182));
#91=EDGE_CURVE('',#83,#123,#183,.T.);
#92=PRESENTATION_STYLE_ASSIGNMENT((#184));
#93=ADVANCED_FACE('',(#185),#186,.F.);
#94=PRESENTATION_STYLE_ASSIGNMENT((#187));
#95=EDGE_CURVE('',#105,#87,#188,.T.);
#96=PRESENTATION_STYLE_ASSIGNMENT((#189));
#97=ADVANCED_FACE('',(#190),#191,.T.);
#98=PRESENTATION_STYLE_ASSIGNMENT((#192));
#99=EDGE_CURVE('',#87,#105,#193,.T.);
#100=PRESENTATION_STYLE_ASSIGNMENT((#194));
#101=ADVANCED_FACE('',(#195),#196,.F.);
#102=PRESENTATION_STYLE_ASSIGNMENT((#197));
#103=EDGE_CURVE('',#87,#123,#198,.T.);
#104=PRESENTATION_STYLE_ASSIGNMENT((#199));
#105=VERTEX_POINT('',#200);
#106=PRESENTATION_STYLE_ASSIGNMENT((#201));
#107=EDGE_CURVE('',#119,#113,#202,.T.);
#108=PRESENTATION_STYLE_ASSIGNMENT((#203));
#109=EDGE_CURVE('',#123,#83,#204,.T.);
#110=PRESENTATION_STYLE_ASSIGNMENT((#205));
#111=EDGE_CURVE('',#119,#85,#206,.T.);
#112=PRESENTATION_STYLE_ASSIGNMENT((#207));
#113=VERTEX_POINT('',#208);
#114=PRESENTATION_STYLE_ASSIGNMENT((#209));
#115=EDGE_CURVE('',#117,#75,#210,.T.);
#116=PRESENTATION_STYLE_ASSIGNMENT((#211));
#117=VERTEX_POINT('',#212);
#118=PRESENTATION_STYLE_ASSIGNMENT((#213));
#119=VERTEX_POINT('',#214);
#120=PRESENTATION_STYLE_ASSIGNMENT((#215));
#121=EDGE_CURVE('',#85,#63,#216,.T.);
#122=PRESENTATION_STYLE_ASSIGNMENT((#217));
#123=VERTEX_POINT('',#218);
#124=PRESENTATION_STYLE_ASSIGNMENT((#219));
#125=EDGE_CURVE('',#83,#105,#220,.T.);
#126=PRESENTATION_STYLE_ASSIGNMENT((#221));
#127=ADVANCED_FACE('',(#222),#223,.T.);
#128=PRODUCT('1','1','PART-1-DESC',(#224));
#129=PRODUCT_DEFINITION('NONE','NONE',#225,#2);
#130=AXIS2_PLACEMENT_3D('',#226,#227,#228);
#133=LENGTH_MEASURE_WITH_UNIT(LENGTH_MEASURE(1.0),#229);
#136=DIMENSIONAL_EXPONENTS(1.0,0.0,0.0,0.0,0.0,0.0,0.0);
#138=DIMENSIONAL_EXPONENTS(0.0,0.0,0.0,0.0,0.0,0.0,0.0);
#144=SURFACE_STYLE_USAGE(.BOTH.,#230);
#145=CLOSED_SHELL('',(#93,#97,#65,#101,#73,#127,#89,#79));
#146=CURVE_STYLE('',#231,POSITIVE_LENGTH_MEASURE(1.0E-006),#232);
#147=CIRCLE('',#233,11.6);
#148=POINT_STYLE(' ',#234,POSITIVE_LENGTH_MEASURE(1.0E-006),#235);
#149=CARTESIAN_POINT('',(18.0,1.69115962625296E-014,-2.8421709430404E-014));
#150=SURFACE_STYLE_USAGE(.BOTH.,#236);
#151=FACE_OUTER_BOUND('',#237,.T.);
#152=CONICAL_SURFACE('',#238,13.55,1.04719755119659);
#153=CURVE_STYLE('',#239,POSITIVE_LENGTH_MEASURE(1.0E-006),#240);
#154=LINE('',#241,#242);
#155=CURVE_STYLE('',#243,POSITIVE_LENGTH_MEASURE(1.0E-006),#244);
#156=LINE('',#245,#246);
#157=CURVE_STYLE('',#247,POSITIVE_LENGTH_MEASURE(1.0E-006),#248);
#158=CIRCLE('',#249,18.0);
#159=SURFACE_STYLE_USAGE(.BOTH.,#250);
#160=FACE_OUTER_BOUND('',#251,.T.);
#161=FACE_BOUND('',#252,.T.);
#162=PLANE('',#253);
#163=POINT_STYLE(' ',#254,POSITIVE_LENGTH_MEASURE(1.0E-006),#255);
#164=CARTESIAN_POINT('',(-11.6,9.91126177005804E-015,-2.8421709430404E-014));
#165=CURVE_STYLE('',#256,POSITIVE_LENGTH_MEASURE(1.0E-006),#257);
#166=CIRCLE('',#258,18.0);
#167=SURFACE_STYLE_USAGE(.BOTH.,#259);
#168=FACE_OUTER_BOUND('',#260,.T.);
#169=CYLINDRICAL_SURFACE('',#261,11.6);
#170=CURVE_STYLE('',#262,POSITIVE_LENGTH_MEASURE(1.0E-006),#263);
#171=LINE('',#264,#265);
#172=POINT_STYLE(' ',#266,POSITIVE_LENGTH_MEASURE(1.0E-006),#267);
#173=CARTESIAN_POINT('',(-15.5,9.89289267475071E-015,7.49999999999997));
#174=POINT_STYLE(' ',#268,POSITIVE_LENGTH_MEASURE(1.0E-006),#269);
#175=CARTESIAN_POINT('',(-18.0,9.12751370361172E-015,-2.8421709430404E-014));
#176=POINT_STYLE(' ',#270,POSITIVE_LENGTH_MEASURE(1.0E-006),#271);
#177=CARTESIAN_POINT('',(11.6,1.50909513774259E-014,5.24833395016043));
#178=SURFACE_STYLE_USAGE(.BOTH.,#272);
#179=FACE_BOUND('',#273,.T.);
#180=FACE_OUTER_BOUND('',#274,.T.);
#181=PLANE('',#275);
#182=CURVE_STYLE('',#276,POSITIVE_LENGTH_MEASURE(1.0E-006),#277);
#183=CIRCLE('',#278,15.5);
#184=SURFACE_STYLE_USAGE(.BOTH.,#279);
#185=FACE_OUTER_BOUND('',#280,.T.);
#186=CYLINDRICAL_SURFACE('',#281,11.6);
#187=CURVE_STYLE('',#282,POSITIVE_LENGTH_MEASURE(1.0E-006),#283);
#188=CIRCLE('',#284,11.6);
#189=SURFACE_STYLE_USAGE(.BOTH.,#285);
#190=FACE_OUTER_BOUND('',#286,.T.);
#191=CYLINDRICAL_SURFACE('',#287,18.0);
#192=CURVE_STYLE('',#288,POSITIVE_LENGTH_MEASURE(1.0E-006),#289);
#193=CIRCLE('',#290,11.6);
#194=SURFACE_STYLE_USAGE(.BOTH.,#291);
#195=FACE_OUTER_BOUND('',#292,.T.);
#196=CONICAL_SURFACE('',#293,13.55,1.04719755119659);
#197=CURVE_STYLE('',#294,POSITIVE_LENGTH_MEASURE(1.0E-006),#295);
#198=LINE('',#296,#297);
#199=POINT_STYLE(' ',#298,POSITIVE_LENGTH_MEASURE(1.0E-006),#299);
#200=CARTESIAN_POINT('',(-11.6,1.02326189251754E-014,5.24833395016043));
#201=CURVE_STYLE('',#300,POSITIVE_LENGTH_MEASURE(1.0E-006),#301);
#202=CIRCLE('',#302,18.0);
#203=CURVE_STYLE('',#303,POSITIVE_LENGTH_MEASURE(1.0E-006),#304);
#204=CIRCLE('',#305,15.5);
#205=CURVE_STYLE('',#306,POSITIVE_LENGTH_MEASURE(1.0E-006),#307);
#206=LINE('',#308,#309);
#207=POINT_STYLE(' ',#310,POSITIVE_LENGTH_MEASURE(1.0E-006),#311);
#208=CARTESIAN_POINT('',(18.0,1.69115962625296E-014,7.49999999999997));
#209=CURVE_STYLE('',#312,POSITIVE_LENGTH_MEASURE(1.0E-006),#313);
#210=CIRCLE('',#314,11.6);
#211=POINT_STYLE(' ',#315,POSITIVE_LENGTH_MEASURE(1.0E-006),#316);
#212=CARTESIAN_POINT('',(11.6,1.50909513774259E-014,-2.8421709430404E-014));
#213=POINT_STYLE(' ',#317,POSITIVE_LENGTH_MEASURE(1.0E-006),#318);
#214=CARTESIAN_POINT('',(-18.0,9.58674108629511E-015,7.49999999999997));
#215=CURVE_STYLE('',#319,POSITIVE_LENGTH_MEASURE(1.0E-006),#320);
#216=CIRCLE('',#321,18.0);
#217=POINT_STYLE(' ',#322,POSITIVE_LENGTH_MEASURE(1.0E-006),#323);
#218=CARTESIAN_POINT('',(15.5,1.6200406854286E-014,7.49999999999997));
#219=CURVE_STYLE('',#324,POSITIVE_LENGTH_MEASURE(1.0E-006),#325);
#220=LINE('',#326,#327);
#221=SURFACE_STYLE_USAGE(.BOTH.,#328);
#222=FACE_OUTER_BOUND('',#329,.T.);
#223=CYLINDRICAL_SURFACE('',#330,18.0);
#224=PRODUCT_CONTEXT('',#45,'mechanical');
#225=PRODUCT_DEFINITION_FORMATION_WITH_SPECIFIED_SOURCE(' ','NONE',#128,.NOT_KNOWN.);
#226=CARTESIAN_POINT('',(0.0,0.0,0.0));
#227=DIRECTION('',(0.0,0.0,1.0));
#228=DIRECTION('',(1.0,0.0,0.0));
#229= (NAMED_UNIT(#136)LENGTH_UNIT()SI_UNIT(.MILLI.,.METRE.));
#230=SURFACE_SIDE_STYLE('',(#332));
#231=DRAUGHTING_PRE_DEFINED_CURVE_FONT('continuous');
#232=COLOUR_RGB('',0.509803950786591,0.509803950786591,0.588235318660736);
#233=AXIS2_PLACEMENT_3D('',#333,#334,#335);
#234=PRE_DEFINED_MARKER('');
#235=COLOUR_RGB('',0.509803950786591,0.509803950786591,0.588235318660736);
#236=SURFACE_SIDE_STYLE('',(#336));
#237=EDGE_LOOP('',(#337,#338,#339,#340));
#238=AXIS2_PLACEMENT_3D('',#341,#342,#343);
#239=DRAUGHTING_PRE_DEFINED_CURVE_FONT('continuous');
#240=COLOUR_RGB('',0.509803950786591,0.509803950786591,0.588235318660736);
#241=CARTESIAN_POINT('',(11.6,1.50909513774259E-014,2.6241669750802));
#242=VECTOR('',#344,1.0);
#243=DRAUGHTING_PRE_DEFINED_CURVE_FONT('continuous');
#244=COLOUR_RGB('',0.509803950786591,0.509803950786591,0.588235318660736);
#245=CARTESIAN_POINT('',(18.0,1.69115962625296E-014,3.74999999999997));
#246=VECTOR('',#345,1.0);
#247=DRAUGHTING_PRE_DEFINED_CURVE_FONT('continuous');
#248=COLOUR_RGB('',0.509803950786591,0.509803950786591,0.588235318660736);
#249=AXIS2_PLACEMENT_3D('',#346,#347,#348);
#250=SURFACE_SIDE_STYLE('',(#349));
#251=EDGE_LOOP('',(#350,#351));
#252=EDGE_LOOP('',(#352,#353));
#253=AXIS2_PLACEMENT_3D('',#354,#355,#356);
#254=PRE_DEFINED_MARKER('');
#255=COLOUR_RGB('',0.509803950786591,0.509803950786591,0.588235318660736);
#256=DRAUGHTING_PRE_DEFINED_CURVE_FONT('continuous');
#257=COLOUR_RGB('',0.509803950786591,0.509803950786591,0.588235318660736);
#258=AXIS2_PLACEMENT_3D('',#357,#358,#359);
#259=SURFACE_SIDE_STYLE('',(#360));
#260=EDGE_LOOP('',(#361,#362,#363,#364));
#261=AXIS2_PLACEMENT_3D('',#365,#366,#367);
#262=DRAUGHTING_PRE_DEFINED_CURVE_FONT('continuous');
#263=COLOUR_RGB('',0.509803950786591,0.509803950786591,0.588235318660736);
#264=CARTESIAN_POINT('',(-11.6,8.49111366892487E-015,2.6241669750802));
#265=VECTOR('',#368,1.0);
#266=PRE_DEFINED_MARKER('');
#267=COLOUR_RGB('',0.509803950786591,0.509803950786591,0.588235318660736);
#268=PRE_DEFINED_MARKER('');
#269=COLOUR_RGB('',0.509803950786591,0.509803950786591,0.588235318660736);
#270=PRE_DEFINED_MARKER('');
#271=COLOUR_RGB('',0.509803950786591,0.509803950786591,0.588235318660736);
#272=SURFACE_SIDE_STYLE('',(#369));
#273=EDGE_LOOP('',(#370,#371));
#274=EDGE_LOOP('',(#372,#373));
#275=AXIS2_PLACEMENT_3D('',#374,#375,#376);
#276=DRAUGHTING_PRE_DEFINED_CURVE_FONT('continuous');
#277=COLOUR_RGB('',0.509803950786591,0.509803950786591,0.588235318660736);
#278=AXIS2_PLACEMENT_3D('',#377,#378,#379);
#279=SURFACE_SIDE_STYLE('',(#380));
#280=EDGE_LOOP('',(#381,#382,#383,#384));
#281=AXIS2_PLACEMENT_3D('',#385,#386,#387);
#282=DRAUGHTING_PRE_DEFINED_CURVE_FONT('continuous');
#283=COLOUR_RGB('',0.509803950786591,0.509803950786591,0.588235318660736);
#284=AXIS2_PLACEMENT_3D('',#388,#389,#390);
#285=SURFACE_SIDE_STYLE('',(#391));
#286=EDGE_LOOP('',(#392,#393,#394,#395));
#287=AXIS2_PLACEMENT_3D('',#396,#397,#398);
#288=DRAUGHTING_PRE_DEFINED_CURVE_FONT('continuous');
#289=COLOUR_RGB('',0.509803950786591,0.509803950786591,0.588235318660736);
#290=AXIS2_PLACEMENT_3D('',#399,#400,#401);
#291=SURFACE_SIDE_STYLE('',(#402));
#292=EDGE_LOOP('',(#403,#404,#405,#406));
#293=AXIS2_PLACEMENT_3D('',#407,#408,#409);
#294=DRAUGHTING_PRE_DEFINED_CURVE_FONT('continuous');
#295=COLOUR_RGB('',0.509803950786591,0.509803950786591,0.588235318660736);
#296=CARTESIAN_POINT('',(13.55,1.56456791158559E-014,6.3741669750802));
#297=VECTOR('',#410,1.0);
#298=PRE_DEFINED_MARKER('');
#299=COLOUR_RGB('',0.509803950786591,0.509803950786591,0.588235318660736);
#300=DRAUGHTING_PRE_DEFINED_CURVE_FONT('continuous');
#301=COLOUR_RGB('',0.509803950786591,0.509803950786591,0.588235318660736);
#302=AXIS2_PLACEMENT_3D('',#411,#412,#413);
#303=DRAUGHTING_PRE_DEFINED_CURVE_FONT('continuous');
#304=COLOUR_RGB('',0.509803950786591,0.509803950786591,0.588235318660736);
#305=AXIS2_PLACEMENT_3D('',#414,#415,#416);
#306=DRAUGHTING_PRE_DEFINED_CURVE_FONT('continuous');
#307=COLOUR_RGB('',0.509803950786591,0.509803950786591,0.588235318660736);
#308=CARTESIAN_POINT('',(-18.0,6.67046878382116E-015,3.74999999999997));
#309=VECTOR('',#417,1.0);
#310=PRE_DEFINED_MARKER('');
#311=COLOUR_RGB('',0.509803950786591,0.509803950786591,0.588235318660736);
#312=DRAUGHTING_PRE_DEFINED_CURVE_FONT('continuous');
#313=COLOUR_RGB('',0.509803950786591,0.509803950786591,0.588235318660736);
#314=AXIS2_PLACEMENT_3D('',#418,#419,#420);
#315=PRE_DEFINED_MARKER('');
#316=COLOUR_RGB('',0.509803950786591,0.509803950786591,0.588235318660736);
#317=PRE_DEFINED_MARKER('');
#318=COLOUR_RGB('',0.509803950786591,0.509803950786591,0.588235318660736);
#319=DRAUGHTING_PRE_DEFINED_CURVE_FONT('continuous');
#320=COLOUR_RGB('',0.509803950786591,0.509803950786591,0.588235318660736);
#321=AXIS2_PLACEMENT_3D('',#421,#422,#423);
#322=PRE_DEFINED_MARKER('');
#323=COLOUR_RGB('',0.509803950786591,0.509803950786591,0.588235318660736);
#324=DRAUGHTING_PRE_DEFINED_CURVE_FONT('continuous');
#325=COLOUR_RGB('',0.509803950786591,0.509803950786591,0.588235318660736);
#326=CARTESIAN_POINT('',(-13.55,7.93638593049484E-015,6.3741669750802));
#327=VECTOR('',#424,1.0);
#328=SURFACE_SIDE_STYLE('',(#425));
#329=EDGE_LOOP('',(#426,#427,#428,#429));
#330=AXIS2_PLACEMENT_3D('',#430,#431,#432);
#332=SURFACE_STYLE_FILL_AREA(#433);
#333=CARTESIAN_POINT('',(0.0,1.17910325231754E-014,-2.8421709430404E-014));
#334=DIRECTION('',(-0.0,0.0,-1.0));
#335=DIRECTION('',(-1.0,-1.6201512791522E-016,0.0));
#336=SURFACE_STYLE_FILL_AREA(#434);
#337=ORIENTED_EDGE('',*,*,#125,.F.);
#338=ORIENTED_EDGE('',*,*,#109,.F.);
#339=ORIENTED_EDGE('',*,*,#103,.F.);
#340=ORIENTED_EDGE('',*,*,#99,.T.);
#341=CARTESIAN_POINT('',(0.0,1.17910325231754E-014,6.3741669750802));
#342=DIRECTION('',(0.0,-0.0,1.0));
#343=DIRECTION('',(-1.0,-1.6201512791522E-016,0.0));
#344=DIRECTION('',(0.0,0.0,1.0));
#345=DIRECTION('',(-0.0,-0.0,1.0));
#346=CARTESIAN_POINT('',(0.0,1.17910325231754E-014,-2.8421709430404E-014));
#347=DIRECTION('',(-0.0,0.0,-1.0));
#348=DIRECTION('',(-1.0,-1.6201512791522E-016,0.0));
#349=SURFACE_STYLE_FILL_AREA(#435);
#350=ORIENTED_EDGE('',*,*,#107,.F.);
#351=ORIENTED_EDGE('',*,*,#77,.F.);
#352=ORIENTED_EDGE('',*,*,#91,.T.);
#353=ORIENTED_EDGE('',*,*,#109,.T.);
#354=CARTESIAN_POINT('',(-16.75,9.73981688052291E-015,7.49999999999997));
#355=DIRECTION('',(0.0,0.0,1.0));
#356=DIRECTION('',(-1.0,-1.22460635382238E-016,0.0));
#357=CARTESIAN_POINT('',(0.0,1.17910325231754E-014,7.49999999999997));
#358=DIRECTION('',(-0.0,0.0,-1.0));
#359=DIRECTION('',(-1.0,-1.6201512791522E-016,0.0));
#360=SURFACE_STYLE_FILL_AREA(#436);
#361=ORIENTED_EDGE('',*,*,#81,.T.);
#362=ORIENTED_EDGE('',*,*,#61,.T.);
#363=ORIENTED_EDGE('',*,*,#67,.T.);
#364=ORIENTED_EDGE('',*,*,#95,.F.);
#365=CARTESIAN_POINT('',(0.0,1.17910325231754E-014,2.6241669750802));
#366=DIRECTION('',(0.0,-0.0,1.0));
#367=DIRECTION('',(-1.0,-1.6201512791522E-016,0.0));
#368=DIRECTION('',(0.0,0.0,-1.0));
#369=SURFACE_STYLE_FILL_AREA(#437);
#370=ORIENTED_EDGE('',*,*,#61,.F.);
#371=ORIENTED_EDGE('',*,*,#115,.F.);
#372=ORIENTED_EDGE('',*,*,#121,.T.);
#373=ORIENTED_EDGE('',*,*,#71,.T.);
#374=CARTESIAN_POINT('',(-14.8,9.51938773683488E-015,-2.8421709430404E-014));
#375=DIRECTION('',(0.0,0.0,-1.0));
#376=DIRECTION('',(1.0,1.22460635382238E-016,0.0));
#377=CARTESIAN_POINT('',(0.0,1.17910325231754E-014,7.49999999999997));
#378=DIRECTION('',(-0.0,0.0,-1.0));
#379=DIRECTION('',(-1.0,-1.6201512791522E-016,0.0));
#380=SURFACE_STYLE_FILL_AREA(#438);
#381=ORIENTED_EDGE('',*,*,#81,.F.);
#382=ORIENTED_EDGE('',*,*,#99,.F.);
#383=ORIENTED_EDGE('',*,*,#67,.F.);
#384=ORIENTED_EDGE('',*,*,#115,.T.);
#385=CARTESIAN_POINT('',(0.0,1.17910325231754E-014,2.6241669750802));
#386=DIRECTION('',(0.0,-0.0,1.0));
#387=DIRECTION('',(-1.0,-1.6201512791522E-016,0.0));
#388=CARTESIAN_POINT('',(0.0,1.17910325231754E-014,5.24833395016043));
#389=DIRECTION('',(-0.0,0.0,-1.0));
#390=DIRECTION('',(-1.0,-1.6201512791522E-016,0.0));
#391=SURFACE_STYLE_FILL_AREA(#439);
#392=ORIENTED_EDGE('',*,*,#111,.F.);
#393=ORIENTED_EDGE('',*,*,#107,.T.);
#394=ORIENTED_EDGE('',*,*,#69,.F.);
#395=ORIENTED_EDGE('',*,*,#121,.F.);
#396=CARTESIAN_POINT('',(0.0,1.17910325231754E-014,3.74999999999997));
#397=DIRECTION('',(0.0,-0.0,1.0));
#398=DIRECTION('',(-1.0,-1.6201512791522E-016,0.0));
#399=CARTESIAN_POINT('',(0.0,1.17910325231754E-014,5.24833395016043));
#400=DIRECTION('',(-0.0,0.0,-1.0));
#401=DIRECTION('',(-1.0,-1.6201512791522E-016,0.0));
#402=SURFACE_STYLE_FILL_AREA(#440);
#403=ORIENTED_EDGE('',*,*,#125,.T.);
#404=ORIENTED_EDGE('',*,*,#95,.T.);
#405=ORIENTED_EDGE('',*,*,#103,.T.);
#406=ORIENTED_EDGE('',*,*,#91,.F.);
#407=CARTESIAN_POINT('',(0.0,1.17910325231754E-014,6.3741669750802));
#408=DIRECTION('',(0.0,-0.0,1.0));
#409=DIRECTION('',(-1.0,-1.6201512791522E-016,0.0));
#410=DIRECTION('',(0.866025403784436,2.46363237776566E-016,0.500000000000005));
#411=CARTESIAN_POINT('',(0.0,1.17910325231754E-014,7.49999999999997));
#412=DIRECTION('',(-0.0,0.0,-1.0));
#413=DIRECTION('',(-1.0,-1.6201512791522E-016,0.0));
#414=CARTESIAN_POINT('',(0.0,1.17910325231754E-014,7.49999999999997));
#415=DIRECTION('',(-0.0,0.0,-1.0));
#416=DIRECTION('',(-1.0,-1.6201512791522E-016,0.0));
#417=DIRECTION('',(0.0,0.0,-1.0));
#418=CARTESIAN_POINT('',(0.0,1.17910325231754E-014,-2.8421709430404E-014));
#419=DIRECTION('',(-0.0,0.0,-1.0));
#420=DIRECTION('',(-1.0,-1.6201512791522E-016,0.0));
#421=CARTESIAN_POINT('',(0.0,1.17910325231754E-014,-2.8421709430404E-014));
#422=DIRECTION('',(-0.0,0.0,-1.0));
#423=DIRECTION('',(-1.0,-1.6201512791522E-016,0.0));
#424=DIRECTION('',(0.866025403784436,2.46363237776566E-016,-0.500000000000005));
#425=SURFACE_STYLE_FILL_AREA(#441);
#426=ORIENTED_EDGE('',*,*,#111,.T.);
#427=ORIENTED_EDGE('',*,*,#71,.F.);
#428=ORIENTED_EDGE('',*,*,#69,.T.);
#429=ORIENTED_EDGE('',*,*,#77,.T.);
#430=CARTESIAN_POINT('',(0.0,1.17910325231754E-014,3.74999999999997));
#431=DIRECTION('',(0.0,-0.0,1.0));
#432=DIRECTION('',(-1.0,-1.6201512791522E-016,0.0));
#433=FILL_AREA_STYLE('',(#442));
#434=FILL_AREA_STYLE('',(#443));
#435=FILL_AREA_STYLE('',(#444));
#436=FILL_AREA_STYLE('',(#445));
#437=FILL_AREA_STYLE('',(#446));
#438=FILL_AREA_STYLE('',(#447));
#439=FILL_AREA_STYLE('',(#448));
#440=FILL_AREA_STYLE('',(#449));
#441=FILL_AREA_STYLE('',(#450));
#442=FILL_AREA_STYLE_COLOUR('',#451);
#443=FILL_AREA_STYLE_COLOUR('',#452);
#444=FILL_AREA_STYLE_COLOUR('',#453);
#445=FILL_AREA_STYLE_COLOUR('',#454);
#446=FILL_AREA_STYLE_COLOUR('',#455);
#447=FILL_AREA_STYLE_COLOUR('',#456);
#448=FILL_AREA_STYLE_COLOUR('',#457);
#449=FILL_AREA_STYLE_COLOUR('',#458);
#450=FILL_AREA_STYLE_COLOUR('',#459);
#451=COLOUR_RGB('',0.509803950786591,0.509803950786591,0.588235318660736);
#452=COLOUR_RGB('',0.509803950786591,0.509803950786591,0.588235318660736);
#453=COLOUR_RGB('',0.509803950786591,0.509803950786591,0.588235318660736);
#454=COLOUR_RGB('',0.509803950786591,0.509803950786591,0.588235318660736);
#455=COLOUR_RGB('',0.509803950786591,0.509803950786591,0.588235318660736);
#456=COLOUR_RGB('',0.509803950786591,0.509803950786591,0.588235318660736);
#457=COLOUR_RGB('',0.509803950786591,0.509803950786591,0.588235318660736);
#458=COLOUR_RGB('',0.509803950786591,0.509803950786591,0.588235318660736);
#459=COLOUR_RGB('',0.509803950786591,0.509803950786591,0.588235318660736);
ENDSEC;
END-ISO-10303-21;
