ISO-10303-21;
HEADER;
FILE_DESCRIPTION(('STEP AP214'),'1');
FILE_NAME(' ','  ',('TraceParts'),('TraceParts S.A.'),'XStep 1.0',' ',' ');
FILE_SCHEMA(('automotive_design'));
ENDSEC;
DATA;
#1=MECHANICAL_DESIGN_GEOMETRIC_PRESENTATION_REPRESENTATION(' ',(#10,#11,#12,#13,#14,#15,#16,#17,#18,#19,#20,#21,#22,#23,#24,#25,#26,#27,#28,#29,#30,#31,#32,#33,#34,#35,#36,#37,#38,#39,#40,#41,#42,#43,#44),#6);
#2=PRODUCT_DEFINITION_CONTEXT('',#45,'design');
#3=APPLICATION_PROTOCOL_DEFINITION('INTERNATIONAL STANDARD','automotive_design',1994,#45);
#4=PRODUCT_CATEGORY_RELATIONSHIP('NONE','NONE',#46,#47);
#5=SHAPE_DEFINITION_REPRESENTATION(#48,#49);
#6= (GEOMETRIC_REPRESENTATION_CONTEXT(3)GLOBAL_UNCERTAINTY_ASSIGNED_CONTEXT((#52))GLOBAL_UNIT_ASSIGNED_CONTEXT((#54,#55,#56))REPRESENTATION_CONTEXT('NONE','WORKSPACE'));
#10=STYLED_ITEM('',(#58),#59);
#11=STYLED_ITEM('',(#60),#61);
#12=STYLED_ITEM('',(#62),#63);
#13=STYLED_ITEM('',(#64),#65);
#14=STYLED_ITEM('',(#66),#67);
#15=STYLED_ITEM('',(#68),#69);
#16=STYLED_ITEM('',(#70),#71);
#17=STYLED_ITEM('',(#72),#73);
#18=STYLED_ITEM('',(#74),#75);
#19=STYLED_ITEM('',(#76),#77);
#20=STYLED_ITEM('',(#78),#79);
#21=STYLED_ITEM('',(#80),#81);
#22=STYLED_ITEM('',(#82),#83);
#23=STYLED_ITEM('',(#84),#85);
#24=STYLED_ITEM('',(#86),#87);
#25=STYLED_ITEM('',(#88),#89);
#26=STYLED_ITEM('',(#90),#91);
#27=STYLED_ITEM('',(#92),#93);
#28=STYLED_ITEM('',(#94),#95);
#29=STYLED_ITEM('',(#96),#97);
#30=STYLED_ITEM('',(#98),#99);
#31=STYLED_ITEM('',(#100),#101);
#32=STYLED_ITEM('',(#102),#103);
#33=STYLED_ITEM('',(#104),#105);
#34=STYLED_ITEM('',(#106),#107);
#35=STYLED_ITEM('',(#108),#109);
#36=STYLED_ITEM('',(#110),#111);
#37=STYLED_ITEM('',(#112),#113);
#38=STYLED_ITEM('',(#114),#115);
#39=STYLED_ITEM('',(#116),#117);
#40=STYLED_ITEM('',(#118),#119);
#41=STYLED_ITEM('',(#120),#121);
#42=STYLED_ITEM('',(#122),#123);
#43=STYLED_ITEM('',(#124),#125);
#44=STYLED_ITEM('',(#126),#127);
#45=APPLICATION_CONTEXT(' ');
#46=PRODUCT_CATEGORY('part','NONE');
#47=PRODUCT_RELATED_PRODUCT_CATEGORY('detail',' ',(#128));
#48=PRODUCT_DEFINITION_SHAPE('NONE','NONE',#129);
#49=ADVANCED_BREP_SHAPE_REPRESENTATION('1',(#61,#130),#6);
#52=UNCERTAINTY_MEASURE_WITH_UNIT(LENGTH_MEASURE(1.0E-006),#54,'','');
#54= (CONVERSION_BASED_UNIT('MILLIMETRE',#133)LENGTH_UNIT()NAMED_UNIT(#136));
#55= (NAMED_UNIT(#138)PLANE_ANGLE_UNIT()SI_UNIT($,.RADIAN.));
#56= (NAMED_UNIT(#138)SOLID_ANGLE_UNIT()SI_UNIT($,.STERADIAN.));
#58=PRESENTATION_STYLE_ASSIGNMENT((#144));
#59=EDGE_CURVE('',#91,#117,#145,.T.);
#60=PRESENTATION_STYLE_ASSIGNMENT((#146));
#61=MANIFOLD_SOLID_BREP('1',#147);
#62=PRESENTATION_STYLE_ASSIGNMENT((#148));
#63=ADVANCED_FACE('',(#149),#150,.F.);
#64=PRESENTATION_STYLE_ASSIGNMENT((#151));
#65=EDGE_CURVE('',#105,#69,#152,.T.);
#66=PRESENTATION_STYLE_ASSIGNMENT((#153));
#67=EDGE_CURVE('',#69,#105,#154,.T.);
#68=PRESENTATION_STYLE_ASSIGNMENT((#155));
#69=VERTEX_POINT('',#156);
#70=PRESENTATION_STYLE_ASSIGNMENT((#157));
#71=ADVANCED_FACE('',(#158,#159),#160,.T.);
#72=PRESENTATION_STYLE_ASSIGNMENT((#161));
#73=EDGE_CURVE('',#97,#77,#162,.T.);
#74=PRESENTATION_STYLE_ASSIGNMENT((#163));
#75=EDGE_CURVE('',#117,#91,#164,.T.);
#76=PRESENTATION_STYLE_ASSIGNMENT((#165));
#77=VERTEX_POINT('',#166);
#78=PRESENTATION_STYLE_ASSIGNMENT((#167));
#79=EDGE_CURVE('',#95,#81,#168,.T.);
#80=PRESENTATION_STYLE_ASSIGNMENT((#169));
#81=VERTEX_POINT('',#170);
#82=PRESENTATION_STYLE_ASSIGNMENT((#171));
#83=EDGE_CURVE('',#89,#119,#172,.T.);
#84=PRESENTATION_STYLE_ASSIGNMENT((#173));
#85=EDGE_CURVE('',#69,#97,#174,.T.);
#86=PRESENTATION_STYLE_ASSIGNMENT((#175));
#87=EDGE_CURVE('',#81,#91,#176,.T.);
#88=PRESENTATION_STYLE_ASSIGNMENT((#177));
#89=VERTEX_POINT('',#178);
#90=PRESENTATION_STYLE_ASSIGNMENT((#179));
#91=VERTEX_POINT('',#180);
#92=PRESENTATION_STYLE_ASSIGNMENT((#181));
#93=ADVANCED_FACE('',(#182),#183,.F.);
#94=PRESENTATION_STYLE_ASSIGNMENT((#184));
#95=VERTEX_POINT('',#185);
#96=PRESENTATION_STYLE_ASSIGNMENT((#186));
#97=VERTEX_POINT('',#187);
#98=PRESENTATION_STYLE_ASSIGNMENT((#188));
#99=EDGE_CURVE('',#81,#95,#189,.T.);
#100=PRESENTATION_STYLE_ASSIGNMENT((#190));
#101=ADVANCED_FACE('',(#191,#192),#193,.T.);
#102=PRESENTATION_STYLE_ASSIGNMENT((#194));
#103=ADVANCED_FACE('',(#195),#196,.T.);
#104=PRESENTATION_STYLE_ASSIGNMENT((#197));
#105=VERTEX_POINT('',#198);
#106=PRESENTATION_STYLE_ASSIGNMENT((#199));
#107=EDGE_CURVE('',#77,#97,#200,.T.);
#108=PRESENTATION_STYLE_ASSIGNMENT((#201));
#109=EDGE_CURVE('',#95,#119,#202,.T.);
#110=PRESENTATION_STYLE_ASSIGNMENT((#203));
#111=ADVANCED_FACE('',(#204),#205,.F.);
#112=PRESENTATION_STYLE_ASSIGNMENT((#206));
#113=EDGE_CURVE('',#119,#89,#207,.T.);
#114=PRESENTATION_STYLE_ASSIGNMENT((#208));
#115=EDGE_CURVE('',#117,#95,#209,.T.);
#116=PRESENTATION_STYLE_ASSIGNMENT((#210));
#117=VERTEX_POINT('',#211);
#118=PRESENTATION_STYLE_ASSIGNMENT((#212));
#119=VERTEX_POINT('',#213);
#120=PRESENTATION_STYLE_ASSIGNMENT((#214));
#121=EDGE_CURVE('',#77,#105,#215,.T.);
#122=PRESENTATION_STYLE_ASSIGNMENT((#216));
#123=ADVANCED_FACE('',(#217),#218,.T.);
#124=PRESENTATION_STYLE_ASSIGNMENT((#219));
#125=EDGE_CURVE('',#89,#81,#220,.T.);
#126=PRESENTATION_STYLE_ASSIGNMENT((#221));
#127=ADVANCED_FACE('',(#222),#223,.F.);
#128=PRODUCT('1','1','PART-1-DESC',(#224));
#129=PRODUCT_DEFINITION('NONE','NONE',#225,#2);
#130=AXIS2_PLACEMENT_3D('',#226,#227,#228);
#133=LENGTH_MEASURE_WITH_UNIT(LENGTH_MEASURE(1.0),#229);
#136=DIMENSIONAL_EXPONENTS(1.0,0.0,0.0,0.0,0.0,0.0,0.0);
#138=DIMENSIONAL_EXPONENTS(0.0,0.0,0.0,0.0,0.0,0.0,0.0);
#144=CURVE_STYLE('',#230,POSITIVE_LENGTH_MEASURE(1.0E-006),#231);
#145=CIRCLE('',#232,7.09999999999999);
#146=SURFACE_STYLE_USAGE(.BOTH.,#233);
#147=CLOSED_SHELL('',(#63,#103,#127,#93,#101,#123,#71,#111));
#148=SURFACE_STYLE_USAGE(.BOTH.,#234);
#149=FACE_OUTER_BOUND('',#235,.T.);
#150=CYLINDRICAL_SURFACE('',#236,7.09999999999999);
#151=CURVE_STYLE('',#237,POSITIVE_LENGTH_MEASURE(1.0E-006),#238);
#152=CIRCLE('',#239,12.0);
#153=CURVE_STYLE('',#240,POSITIVE_LENGTH_MEASURE(1.0E-006),#241);
#154=CIRCLE('',#242,12.0);
#155=POINT_STYLE(' ',#243,POSITIVE_LENGTH_MEASURE(1.0E-006),#244);
#156=CARTESIAN_POINT('',(12.0000000000001,1.48184915263699E-014,-2.8421709430404E-014));
#157=SURFACE_STYLE_USAGE(.BOTH.,#245);
#158=FACE_BOUND('',#246,.T.);
#159=FACE_OUTER_BOUND('',#247,.T.);
#160=PLANE('',#248);
#161=CURVE_STYLE('',#249,POSITIVE_LENGTH_MEASURE(1.0E-006),#250);
#162=CIRCLE('',#251,12.0);
#163=CURVE_STYLE('',#252,POSITIVE_LENGTH_MEASURE(1.0E-006),#253);
#164=CIRCLE('',#254,7.09999999999999);
#165=POINT_STYLE(' ',#255,POSITIVE_LENGTH_MEASURE(1.0E-006),#256);
#166=CARTESIAN_POINT('',(-12.0,9.8928926747507E-015,4.99999999999997));
#167=CURVE_STYLE('',#257,POSITIVE_LENGTH_MEASURE(1.0E-006),#258);
#168=CIRCLE('',#259,7.09999999999999);
#169=POINT_STYLE(' ',#260,POSITIVE_LENGTH_MEASURE(1.0E-006),#261);
#170=CARTESIAN_POINT('',(-7.09999999999997,1.03904309009592E-014,3.32568421934999));
#171=CURVE_STYLE('',#262,POSITIVE_LENGTH_MEASURE(1.0E-006),#263);
#172=CIRCLE('',#264,10.0);
#173=CURVE_STYLE('',#265,POSITIVE_LENGTH_MEASURE(1.0E-006),#266);
#174=LINE('',#267,#268);
#175=CURVE_STYLE('',#269,POSITIVE_LENGTH_MEASURE(1.0E-006),#270);
#176=LINE('',#271,#272);
#177=POINT_STYLE(' ',#273,POSITIVE_LENGTH_MEASURE(1.0E-006),#274);
#178=CARTESIAN_POINT('',(-10.0,1.01378139455152E-014,4.99999999999997));
#179=POINT_STYLE(' ',#275,POSITIVE_LENGTH_MEASURE(1.0E-006),#276);
#180=CARTESIAN_POINT('',(-7.09999999999997,1.01867981996681E-014,-2.8421709430404E-014));
#181=SURFACE_STYLE_USAGE(.BOTH.,#277);
#182=FACE_OUTER_BOUND('',#278,.T.);
#183=CONICAL_SURFACE('',#279,8.55000000000001,1.04719755119659);
#184=POINT_STYLE(' ',#280,POSITIVE_LENGTH_MEASURE(1.0E-006),#281);
#185=CARTESIAN_POINT('',(7.10000000000002,1.34072624419983E-014,3.32568421934999));
#186=POINT_STYLE(' ',#282,POSITIVE_LENGTH_MEASURE(1.0E-006),#283);
#187=CARTESIAN_POINT('',(12.0000000000001,1.48184915263699E-014,4.99999999999997));
#188=CURVE_STYLE('',#284,POSITIVE_LENGTH_MEASURE(1.0E-006),#285);
#189=CIRCLE('',#286,7.09999999999999);
#190=SURFACE_STYLE_USAGE(.BOTH.,#287);
#191=FACE_OUTER_BOUND('',#288,.T.);
#192=FACE_BOUND('',#289,.T.);
#193=PLANE('',#290);
#194=SURFACE_STYLE_USAGE(.BOTH.,#291);
#195=FACE_OUTER_BOUND('',#292,.T.);
#196=CYLINDRICAL_SURFACE('',#293,12.0);
#197=POINT_STYLE(' ',#294,POSITIVE_LENGTH_MEASURE(1.0E-006),#295);
#198=CARTESIAN_POINT('',(-12.0,9.58674108629511E-015,-2.8421709430404E-014));
#199=CURVE_STYLE('',#296,POSITIVE_LENGTH_MEASURE(1.0E-006),#297);
#200=CIRCLE('',#298,12.0);
#201=CURVE_STYLE('',#299,POSITIVE_LENGTH_MEASURE(1.0E-006),#300);
#202=LINE('',#301,#302);
#203=SURFACE_STYLE_USAGE(.BOTH.,#303);
#204=FACE_OUTER_BOUND('',#304,.T.);
#205=CYLINDRICAL_SURFACE('',#305,7.09999999999999);
#206=CURVE_STYLE('',#306,POSITIVE_LENGTH_MEASURE(1.0E-006),#307);
#207=CIRCLE('',#308,10.0);
#208=CURVE_STYLE('',#309,POSITIVE_LENGTH_MEASURE(1.0E-006),#310);
#209=LINE('',#311,#312);
#210=POINT_STYLE(' ',#313,POSITIVE_LENGTH_MEASURE(1.0E-006),#314);
#211=CARTESIAN_POINT('',(7.10000000000002,1.34072624419983E-014,-2.8421709430404E-014));
#212=POINT_STYLE(' ',#315,POSITIVE_LENGTH_MEASURE(1.0E-006),#316);
#213=CARTESIAN_POINT('',(10.0000000000001,1.42424796551978E-014,4.99999999999997));
#214=CURVE_STYLE('',#317,POSITIVE_LENGTH_MEASURE(1.0E-006),#318);
#215=LINE('',#319,#320);
#216=SURFACE_STYLE_USAGE(.BOTH.,#321);
#217=FACE_OUTER_BOUND('',#322,.T.);
#218=CYLINDRICAL_SURFACE('',#323,12.0);
#219=CURVE_STYLE('',#324,POSITIVE_LENGTH_MEASURE(1.0E-006),#325);
#220=LINE('',#326,#327);
#221=SURFACE_STYLE_USAGE(.BOTH.,#328);
#222=FACE_OUTER_BOUND('',#329,.T.);
#223=CONICAL_SURFACE('',#330,8.55000000000001,1.04719755119659);
#224=PRODUCT_CONTEXT('',#45,'mechanical');
#225=PRODUCT_DEFINITION_FORMATION_WITH_SPECIFIED_SOURCE(' ','NONE',#128,.NOT_KNOWN.);
#226=CARTESIAN_POINT('',(0.0,0.0,0.0));
#227=DIRECTION('',(0.0,0.0,1.0));
#228=DIRECTION('',(1.0,0.0,0.0));
#229= (NAMED_UNIT(#136)LENGTH_UNIT()SI_UNIT(.MILLI.,.METRE.));
#230=DRAUGHTING_PRE_DEFINED_CURVE_FONT('continuous');
#231=COLOUR_RGB('',0.509803950786591,0.509803950786591,0.588235318660736);
#232=AXIS2_PLACEMENT_3D('',#332,#333,#334);
#233=SURFACE_SIDE_STYLE('',(#335));
#234=SURFACE_SIDE_STYLE('',(#336));
#235=EDGE_LOOP('',(#337,#338,#339,#340));
#236=AXIS2_PLACEMENT_3D('',#341,#342,#343);
#237=DRAUGHTING_PRE_DEFINED_CURVE_FONT('continuous');
#238=COLOUR_RGB('',0.509803950786591,0.509803950786591,0.588235318660736);
#239=AXIS2_PLACEMENT_3D('',#344,#345,#346);
#240=DRAUGHTING_PRE_DEFINED_CURVE_FONT('continuous');
#241=COLOUR_RGB('',0.509803950786591,0.509803950786591,0.588235318660736);
#242=AXIS2_PLACEMENT_3D('',#347,#348,#349);
#243=PRE_DEFINED_MARKER('');
#244=COLOUR_RGB('',0.509803950786591,0.509803950786591,0.588235318660736);
#245=SURFACE_SIDE_STYLE('',(#350));
#246=EDGE_LOOP('',(#351,#352));
#247=EDGE_LOOP('',(#353,#354));
#248=AXIS2_PLACEMENT_3D('',#355,#356,#357);
#249=DRAUGHTING_PRE_DEFINED_CURVE_FONT('continuous');
#250=COLOUR_RGB('',0.509803950786591,0.509803950786591,0.588235318660736);
#251=AXIS2_PLACEMENT_3D('',#358,#359,#360);
#252=DRAUGHTING_PRE_DEFINED_CURVE_FONT('continuous');
#253=COLOUR_RGB('',0.509803950786591,0.509803950786591,0.588235318660736);
#254=AXIS2_PLACEMENT_3D('',#361,#362,#363);
#255=PRE_DEFINED_MARKER('');
#256=COLOUR_RGB('',0.509803950786591,0.509803950786591,0.588235318660736);
#257=DRAUGHTING_PRE_DEFINED_CURVE_FONT('continuous');
#258=COLOUR_RGB('',0.509803950786591,0.509803950786591,0.588235318660736);
#259=AXIS2_PLACEMENT_3D('',#364,#365,#366);
#260=PRE_DEFINED_MARKER('');
#261=COLOUR_RGB('',0.509803950786591,0.509803950786591,0.588235318660736);
#262=DRAUGHTING_PRE_DEFINED_CURVE_FONT('continuous');
#263=COLOUR_RGB('',0.509803950786591,0.509803950786591,0.588235318660736);
#264=AXIS2_PLACEMENT_3D('',#367,#368,#369);
#265=DRAUGHTING_PRE_DEFINED_CURVE_FONT('continuous');
#266=COLOUR_RGB('',0.509803950786591,0.509803950786591,0.588235318660736);
#267=CARTESIAN_POINT('',(12.0000000000001,1.48184915263699E-014,2.49999999999997));
#268=VECTOR('',#370,1.0);
#269=DRAUGHTING_PRE_DEFINED_CURVE_FONT('continuous');
#270=COLOUR_RGB('',0.509803950786591,0.509803950786591,0.588235318660736);
#271=CARTESIAN_POINT('',(-7.09999999999997,9.31757815667678E-015,1.66284210967498));
#272=VECTOR('',#371,1.0);
#273=PRE_DEFINED_MARKER('');
#274=COLOUR_RGB('',0.509803950786591,0.509803950786591,0.588235318660736);
#275=PRE_DEFINED_MARKER('');
#276=COLOUR_RGB('',0.509803950786591,0.509803950786591,0.588235318660736);
#277=SURFACE_SIDE_STYLE('',(#372));
#278=EDGE_LOOP('',(#373,#374,#375,#376));
#279=AXIS2_PLACEMENT_3D('',#377,#378,#379);
#280=PRE_DEFINED_MARKER('');
#281=COLOUR_RGB('',0.509803950786591,0.509803950786591,0.588235318660736);
#282=PRE_DEFINED_MARKER('');
#283=COLOUR_RGB('',0.509803950786591,0.509803950786591,0.588235318660736);
#284=DRAUGHTING_PRE_DEFINED_CURVE_FONT('continuous');
#285=COLOUR_RGB('',0.509803950786591,0.509803950786591,0.588235318660736);
#286=AXIS2_PLACEMENT_3D('',#380,#381,#382);
#287=SURFACE_SIDE_STYLE('',(#383));
#288=EDGE_LOOP('',(#384,#385));
#289=EDGE_LOOP('',(#386,#387));
#290=AXIS2_PLACEMENT_3D('',#388,#389,#390);
#291=SURFACE_SIDE_STYLE('',(#391));
#292=EDGE_LOOP('',(#392,#393,#394,#395));
#293=AXIS2_PLACEMENT_3D('',#396,#397,#398);
#294=PRE_DEFINED_MARKER('');
#295=COLOUR_RGB('',0.509803950786591,0.509803950786591,0.588235318660736);
#296=DRAUGHTING_PRE_DEFINED_CURVE_FONT('continuous');
#297=COLOUR_RGB('',0.509803950786591,0.509803950786591,0.588235318660736);
#298=AXIS2_PLACEMENT_3D('',#399,#400,#401);
#299=DRAUGHTING_PRE_DEFINED_CURVE_FONT('continuous');
#300=COLOUR_RGB('',0.509803950786591,0.509803950786591,0.588235318660736);
#301=CARTESIAN_POINT('',(8.55000000000004,1.38248710485981E-014,4.16284210967498));
#302=VECTOR('',#402,1.0);
#303=SURFACE_SIDE_STYLE('',(#403));
#304=EDGE_LOOP('',(#404,#405,#406,#407));
#305=AXIS2_PLACEMENT_3D('',#408,#409,#410);
#306=DRAUGHTING_PRE_DEFINED_CURVE_FONT('continuous');
#307=COLOUR_RGB('',0.509803950786591,0.509803950786591,0.588235318660736);
#308=AXIS2_PLACEMENT_3D('',#411,#412,#413);
#309=DRAUGHTING_PRE_DEFINED_CURVE_FONT('continuous');
#310=COLOUR_RGB('',0.509803950786591,0.509803950786591,0.588235318660736);
#311=CARTESIAN_POINT('',(7.10000000000002,1.34072624419983E-014,1.66284210967498));
#312=VECTOR('',#414,1.0);
#313=PRE_DEFINED_MARKER('');
#314=COLOUR_RGB('',0.509803950786591,0.509803950786591,0.588235318660736);
#315=PRE_DEFINED_MARKER('');
#316=COLOUR_RGB('',0.509803950786591,0.509803950786591,0.588235318660736);
#317=DRAUGHTING_PRE_DEFINED_CURVE_FONT('continuous');
#318=COLOUR_RGB('',0.509803950786591,0.509803950786591,0.588235318660736);
#319=CARTESIAN_POINT('',(-12.0,7.90634907230524E-015,2.49999999999997));
#320=VECTOR('',#415,1.0);
#321=SURFACE_SIDE_STYLE('',(#416));
#322=EDGE_LOOP('',(#417,#418,#419,#420));
#323=AXIS2_PLACEMENT_3D('',#421,#422,#423);
#324=DRAUGHTING_PRE_DEFINED_CURVE_FONT('continuous');
#325=COLOUR_RGB('',0.509803950786591,0.509803950786591,0.588235318660736);
#326=CARTESIAN_POINT('',(-8.54999999999998,8.89996955007704E-015,4.16284210967498));
#327=VECTOR('',#424,1.0);
#328=SURFACE_SIDE_STYLE('',(#425));
#329=EDGE_LOOP('',(#426,#427,#428,#429));
#330=AXIS2_PLACEMENT_3D('',#430,#431,#432);
#332=CARTESIAN_POINT('',(2.8421709430404E-014,1.13624202993376E-014,-2.8421709430404E-014));
#333=DIRECTION('',(-0.0,0.0,-1.0));
#334=DIRECTION('',(-1.0,-1.65545300203788E-016,0.0));
#335=SURFACE_STYLE_FILL_AREA(#433);
#336=SURFACE_STYLE_FILL_AREA(#434);
#337=ORIENTED_EDGE('',*,*,#87,.F.);
#338=ORIENTED_EDGE('',*,*,#79,.F.);
#339=ORIENTED_EDGE('',*,*,#115,.F.);
#340=ORIENTED_EDGE('',*,*,#75,.T.);
#341=CARTESIAN_POINT('',(2.8421709430404E-014,1.13624202993376E-014,1.66284210967498));
#342=DIRECTION('',(0.0,-0.0,1.0));
#343=DIRECTION('',(-1.0,-1.65545300203788E-016,0.0));
#344=CARTESIAN_POINT('',(2.8421709430404E-014,1.13624202993376E-014,-2.8421709430404E-014));
#345=DIRECTION('',(-0.0,0.0,-1.0));
#346=DIRECTION('',(-1.0,-1.65545300203788E-016,0.0));
#347=CARTESIAN_POINT('',(2.8421709430404E-014,1.13624202993376E-014,-2.8421709430404E-014));
#348=DIRECTION('',(-0.0,0.0,-1.0));
#349=DIRECTION('',(-1.0,-1.65545300203788E-016,0.0));
#350=SURFACE_STYLE_FILL_AREA(#435);
#351=ORIENTED_EDGE('',*,*,#59,.F.);
#352=ORIENTED_EDGE('',*,*,#75,.F.);
#353=ORIENTED_EDGE('',*,*,#65,.T.);
#354=ORIENTED_EDGE('',*,*,#67,.T.);
#355=CARTESIAN_POINT('',(-9.54999999999998,9.88676964298159E-015,-2.8421709430404E-014));
#356=DIRECTION('',(0.0,0.0,-1.0));
#357=DIRECTION('',(1.0,1.22460635382238E-016,0.0));
#358=CARTESIAN_POINT('',(2.8421709430404E-014,1.13624202993376E-014,4.99999999999997));
#359=DIRECTION('',(-0.0,0.0,-1.0));
#360=DIRECTION('',(-1.0,-1.65545300203788E-016,0.0));
#361=CARTESIAN_POINT('',(2.8421709430404E-014,1.13624202993376E-014,-2.8421709430404E-014));
#362=DIRECTION('',(-0.0,0.0,-1.0));
#363=DIRECTION('',(-1.0,-1.65545300203788E-016,0.0));
#364=CARTESIAN_POINT('',(2.8421709430404E-014,1.13624202993376E-014,3.32568421934999));
#365=DIRECTION('',(-0.0,0.0,-1.0));
#366=DIRECTION('',(-1.0,-1.65545300203788E-016,0.0));
#367=CARTESIAN_POINT('',(2.8421709430404E-014,1.13624202993376E-014,4.99999999999997));
#368=DIRECTION('',(-0.0,0.0,-1.0));
#369=DIRECTION('',(-1.0,-1.65545300203788E-016,0.0));
#370=DIRECTION('',(-0.0,-0.0,1.0));
#371=DIRECTION('',(0.0,0.0,-1.0));
#372=SURFACE_STYLE_FILL_AREA(#436);
#373=ORIENTED_EDGE('',*,*,#125,.T.);
#374=ORIENTED_EDGE('',*,*,#99,.T.);
#375=ORIENTED_EDGE('',*,*,#109,.T.);
#376=ORIENTED_EDGE('',*,*,#83,.F.);
#377=CARTESIAN_POINT('',(2.8421709430404E-014,1.13624202993376E-014,4.16284210967498));
#378=DIRECTION('',(0.0,-0.0,1.0));
#379=DIRECTION('',(-1.0,-1.65545300203788E-016,0.0));
#380=CARTESIAN_POINT('',(2.8421709430404E-014,1.13624202993376E-014,3.32568421934999));
#381=DIRECTION('',(-0.0,0.0,-1.0));
#382=DIRECTION('',(-1.0,-1.65545300203788E-016,0.0));
#383=SURFACE_STYLE_FILL_AREA(#437);
#384=ORIENTED_EDGE('',*,*,#107,.F.);
#385=ORIENTED_EDGE('',*,*,#73,.F.);
#386=ORIENTED_EDGE('',*,*,#83,.T.);
#387=ORIENTED_EDGE('',*,*,#113,.T.);
#388=CARTESIAN_POINT('',(-11.0,1.00153533101329E-014,4.99999999999997));
#389=DIRECTION('',(0.0,0.0,1.0));
#390=DIRECTION('',(-1.0,-1.22460635382238E-016,0.0));
#391=SURFACE_STYLE_FILL_AREA(#438);
#392=ORIENTED_EDGE('',*,*,#121,.F.);
#393=ORIENTED_EDGE('',*,*,#107,.T.);
#394=ORIENTED_EDGE('',*,*,#85,.F.);
#395=ORIENTED_EDGE('',*,*,#65,.F.);
#396=CARTESIAN_POINT('',(2.8421709430404E-014,1.13624202993376E-014,2.49999999999997));
#397=DIRECTION('',(0.0,-0.0,1.0));
#398=DIRECTION('',(-1.0,-1.65545300203788E-016,0.0));
#399=CARTESIAN_POINT('',(2.8421709430404E-014,1.13624202993376E-014,4.99999999999997));
#400=DIRECTION('',(-0.0,0.0,-1.0));
#401=DIRECTION('',(-1.0,-1.65545300203788E-016,0.0));
#402=DIRECTION('',(0.866025403784433,2.49420456658201E-016,0.500000000000009));
#403=SURFACE_STYLE_FILL_AREA(#439);
#404=ORIENTED_EDGE('',*,*,#87,.T.);
#405=ORIENTED_EDGE('',*,*,#59,.T.);
#406=ORIENTED_EDGE('',*,*,#115,.T.);
#407=ORIENTED_EDGE('',*,*,#99,.F.);
#408=CARTESIAN_POINT('',(2.8421709430404E-014,1.13624202993376E-014,1.66284210967498));
#409=DIRECTION('',(0.0,-0.0,1.0));
#410=DIRECTION('',(-1.0,-1.65545300203788E-016,0.0));
#411=CARTESIAN_POINT('',(2.8421709430404E-014,1.13624202993376E-014,4.99999999999997));
#412=DIRECTION('',(-0.0,0.0,-1.0));
#413=DIRECTION('',(-1.0,-1.65545300203788E-016,0.0));
#414=DIRECTION('',(0.0,0.0,1.0));
#415=DIRECTION('',(0.0,0.0,-1.0));
#416=SURFACE_STYLE_FILL_AREA(#440);
#417=ORIENTED_EDGE('',*,*,#121,.T.);
#418=ORIENTED_EDGE('',*,*,#67,.F.);
#419=ORIENTED_EDGE('',*,*,#85,.T.);
#420=ORIENTED_EDGE('',*,*,#73,.T.);
#421=CARTESIAN_POINT('',(2.8421709430404E-014,1.13624202993376E-014,2.49999999999997));
#422=DIRECTION('',(0.0,-0.0,1.0));
#423=DIRECTION('',(-1.0,-1.65545300203788E-016,0.0));
#424=DIRECTION('',(0.866025403784433,2.49420456658201E-016,-0.500000000000009));
#425=SURFACE_STYLE_FILL_AREA(#441);
#426=ORIENTED_EDGE('',*,*,#125,.F.);
#427=ORIENTED_EDGE('',*,*,#113,.F.);
#428=ORIENTED_EDGE('',*,*,#109,.F.);
#429=ORIENTED_EDGE('',*,*,#79,.T.);
#430=CARTESIAN_POINT('',(2.8421709430404E-014,1.13624202993376E-014,4.16284210967498));
#431=DIRECTION('',(0.0,-0.0,1.0));
#432=DIRECTION('',(-1.0,-1.65545300203788E-016,0.0));
#433=FILL_AREA_STYLE('',(#442));
#434=FILL_AREA_STYLE('',(#443));
#435=FILL_AREA_STYLE('',(#444));
#436=FILL_AREA_STYLE('',(#445));
#437=FILL_AREA_STYLE('',(#446));
#438=FILL_AREA_STYLE('',(#447));
#439=FILL_AREA_STYLE('',(#448));
#440=FILL_AREA_STYLE('',(#449));
#441=FILL_AREA_STYLE('',(#450));
#442=FILL_AREA_STYLE_COLOUR('',#451);
#443=FILL_AREA_STYLE_COLOUR('',#452);
#444=FILL_AREA_STYLE_COLOUR('',#453);
#445=FILL_AREA_STYLE_COLOUR('',#454);
#446=FILL_AREA_STYLE_COLOUR('',#455);
#447=FILL_AREA_STYLE_COLOUR('',#456);
#448=FILL_AREA_STYLE_COLOUR('',#457);
#449=FILL_AREA_STYLE_COLOUR('',#458);
#450=FILL_AREA_STYLE_COLOUR('',#459);
#451=COLOUR_RGB('',0.509803950786591,0.509803950786591,0.588235318660736);
#452=COLOUR_RGB('',0.509803950786591,0.509803950786591,0.588235318660736);
#453=COLOUR_RGB('',0.509803950786591,0.509803950786591,0.588235318660736);
#454=COLOUR_RGB('',0.509803950786591,0.509803950786591,0.588235318660736);
#455=COLOUR_RGB('',0.509803950786591,0.509803950786591,0.588235318660736);
#456=COLOUR_RGB('',0.509803950786591,0.509803950786591,0.588235318660736);
#457=COLOUR_RGB('',0.509803950786591,0.509803950786591,0.588235318660736);
#458=COLOUR_RGB('',0.509803950786591,0.509803950786591,0.588235318660736);
#459=COLOUR_RGB('',0.509803950786591,0.509803950786591,0.588235318660736);
ENDSEC;
END-ISO-10303-21;
