ISO-10303-21;
HEADER;
FILE_DESCRIPTION(('STEP AP214'),'1');
FILE_NAME(' ','  ',('TraceParts'),('TraceParts S.A.'),'XStep 1.0',' ',' ');
FILE_SCHEMA(('automotive_design'));
ENDSEC;
DATA;
#1=MECHANICAL_DESIGN_GEOMETRIC_PRESENTATION_REPRESENTATION(' ',(#10,#11,#12,#13,#14,#15,#16,#17,#18,#19,#20,#21,#22,#23,#24,#25,#26,#27,#28,#29,#30,#31,#32,#33,#34,#35,#36,#37,#38,#39,#40,#41,#42,#43,#44,#45,#46,#47,#48,#49,#50,#51,#52),#6);
#2=PRODUCT_DEFINITION_CONTEXT('',#53,'design');
#3=APPLICATION_PROTOCOL_DEFINITION('INTERNATIONAL STANDARD','automotive_design',1994,#53);
#4=PRODUCT_CATEGORY_RELATIONSHIP('NONE','NONE',#54,#55);
#5=SHAPE_DEFINITION_REPRESENTATION(#56,#57);
#6= (GEOMETRIC_REPRESENTATION_CONTEXT(3)GLOBAL_UNCERTAINTY_ASSIGNED_CONTEXT((#60))GLOBAL_UNIT_ASSIGNED_CONTEXT((#62,#63,#64))REPRESENTATION_CONTEXT('NONE','WORKSPACE'));
#10=STYLED_ITEM('',(#66),#67);
#11=STYLED_ITEM('',(#68),#69);
#12=STYLED_ITEM('',(#70),#71);
#13=STYLED_ITEM('',(#72),#73);
#14=STYLED_ITEM('',(#74),#75);
#15=STYLED_ITEM('',(#76),#77);
#16=STYLED_ITEM('',(#78),#79);
#17=STYLED_ITEM('',(#80),#81);
#18=STYLED_ITEM('',(#82),#83);
#19=STYLED_ITEM('',(#84),#85);
#20=STYLED_ITEM('',(#86),#87);
#21=STYLED_ITEM('',(#88),#89);
#22=STYLED_ITEM('',(#90),#91);
#23=STYLED_ITEM('',(#92),#93);
#24=STYLED_ITEM('',(#94),#95);
#25=STYLED_ITEM('',(#96),#97);
#26=STYLED_ITEM('',(#98),#99);
#27=STYLED_ITEM('',(#100),#101);
#28=STYLED_ITEM('',(#102),#103);
#29=STYLED_ITEM('',(#104),#105);
#30=STYLED_ITEM('',(#106),#107);
#31=STYLED_ITEM('',(#108),#109);
#32=STYLED_ITEM('',(#110),#111);
#33=STYLED_ITEM('',(#112),#113);
#34=STYLED_ITEM('',(#114),#115);
#35=STYLED_ITEM('',(#116),#117);
#36=STYLED_ITEM('',(#118),#119);
#37=STYLED_ITEM('',(#120),#121);
#38=STYLED_ITEM('',(#122),#123);
#39=STYLED_ITEM('',(#124),#125);
#40=STYLED_ITEM('',(#126),#127);
#41=STYLED_ITEM('',(#128),#129);
#42=STYLED_ITEM('',(#130),#131);
#43=STYLED_ITEM('',(#132),#133);
#44=STYLED_ITEM('',(#134),#135);
#45=STYLED_ITEM('',(#136),#137);
#46=STYLED_ITEM('',(#138),#139);
#47=STYLED_ITEM('',(#140),#141);
#48=STYLED_ITEM('',(#142),#143);
#49=STYLED_ITEM('',(#144),#145);
#50=STYLED_ITEM('',(#146),#147);
#51=STYLED_ITEM('',(#148),#149);
#52=STYLED_ITEM('',(#150),#151);
#53=APPLICATION_CONTEXT(' ');
#54=PRODUCT_CATEGORY('part','NONE');
#55=PRODUCT_RELATED_PRODUCT_CATEGORY('detail',' ',(#152));
#56=PRODUCT_DEFINITION_SHAPE('NONE','NONE',#153);
#57=ADVANCED_BREP_SHAPE_REPRESENTATION('1',(#151,#154),#6);
#60=UNCERTAINTY_MEASURE_WITH_UNIT(LENGTH_MEASURE(1.0E-006),#62,'','');
#62= (CONVERSION_BASED_UNIT('MILLIMETRE',#157)LENGTH_UNIT()NAMED_UNIT(#160));
#63= (NAMED_UNIT(#162)PLANE_ANGLE_UNIT()SI_UNIT($,.RADIAN.));
#64= (NAMED_UNIT(#162)SOLID_ANGLE_UNIT()SI_UNIT($,.STERADIAN.));
#66=PRESENTATION_STYLE_ASSIGNMENT((#168));
#67=ADVANCED_FACE('',(#169),#170,.T.);
#68=PRESENTATION_STYLE_ASSIGNMENT((#171));
#69=VERTEX_POINT('',#172);
#70=PRESENTATION_STYLE_ASSIGNMENT((#173));
#71=EDGE_CURVE('',#139,#137,#174,.T.);
#72=PRESENTATION_STYLE_ASSIGNMENT((#175));
#73=VERTEX_POINT('',#176);
#74=PRESENTATION_STYLE_ASSIGNMENT((#177));
#75=EDGE_CURVE('',#149,#73,#178,.T.);
#76=PRESENTATION_STYLE_ASSIGNMENT((#179));
#77=EDGE_CURVE('',#145,#87,#180,.T.);
#78=PRESENTATION_STYLE_ASSIGNMENT((#181));
#79=EDGE_CURVE('',#69,#93,#182,.T.);
#80=PRESENTATION_STYLE_ASSIGNMENT((#183));
#81=EDGE_CURVE('',#137,#139,#184,.T.);
#82=PRESENTATION_STYLE_ASSIGNMENT((#185));
#83=EDGE_CURVE('',#93,#69,#186,.T.);
#84=PRESENTATION_STYLE_ASSIGNMENT((#187));
#85=EDGE_CURVE('',#73,#149,#188,.T.);
#86=PRESENTATION_STYLE_ASSIGNMENT((#189));
#87=VERTEX_POINT('',#190);
#88=PRESENTATION_STYLE_ASSIGNMENT((#191));
#89=EDGE_CURVE('',#87,#145,#192,.T.);
#90=PRESENTATION_STYLE_ASSIGNMENT((#193));
#91=ADVANCED_FACE('',(#194),#195,.F.);
#92=PRESENTATION_STYLE_ASSIGNMENT((#196));
#93=VERTEX_POINT('',#197);
#94=PRESENTATION_STYLE_ASSIGNMENT((#198));
#95=EDGE_CURVE('',#147,#125,#199,.T.);
#96=PRESENTATION_STYLE_ASSIGNMENT((#200));
#97=EDGE_CURVE('',#87,#73,#201,.T.);
#98=PRESENTATION_STYLE_ASSIGNMENT((#202));
#99=ADVANCED_FACE('',(#203),#204,.F.);
#100=PRESENTATION_STYLE_ASSIGNMENT((#205));
#101=ADVANCED_FACE('',(#206),#207,.F.);
#102=PRESENTATION_STYLE_ASSIGNMENT((#208));
#103=EDGE_CURVE('',#143,#135,#209,.T.);
#104=PRESENTATION_STYLE_ASSIGNMENT((#210));
#105=ADVANCED_FACE('',(#211),#212,.T.);
#106=PRESENTATION_STYLE_ASSIGNMENT((#213));
#107=EDGE_CURVE('',#69,#87,#214,.T.);
#108=PRESENTATION_STYLE_ASSIGNMENT((#215));
#109=EDGE_CURVE('',#145,#93,#216,.T.);
#110=PRESENTATION_STYLE_ASSIGNMENT((#217));
#111=ADVANCED_FACE('',(#218),#219,.T.);
#112=PRESENTATION_STYLE_ASSIGNMENT((#220));
#113=EDGE_CURVE('',#143,#125,#221,.T.);
#114=PRESENTATION_STYLE_ASSIGNMENT((#222));
#115=ADVANCED_FACE('',(#223,#224),#225,.T.);
#116=PRESENTATION_STYLE_ASSIGNMENT((#226));
#117=EDGE_CURVE('',#125,#147,#227,.T.);
#118=PRESENTATION_STYLE_ASSIGNMENT((#228));
#119=EDGE_CURVE('',#149,#145,#229,.T.);
#120=PRESENTATION_STYLE_ASSIGNMENT((#230));
#121=ADVANCED_FACE('',(#231),#232,.T.);
#122=PRESENTATION_STYLE_ASSIGNMENT((#233));
#123=EDGE_CURVE('',#137,#143,#234,.T.);
#124=PRESENTATION_STYLE_ASSIGNMENT((#235));
#125=VERTEX_POINT('',#236);
#126=PRESENTATION_STYLE_ASSIGNMENT((#237));
#127=ADVANCED_FACE('',(#238),#239,.F.);
#128=PRESENTATION_STYLE_ASSIGNMENT((#240));
#129=ADVANCED_FACE('',(#241,#242),#243,.T.);
#130=PRESENTATION_STYLE_ASSIGNMENT((#244));
#131=EDGE_CURVE('',#135,#139,#245,.T.);
#132=PRESENTATION_STYLE_ASSIGNMENT((#246));
#133=EDGE_CURVE('',#135,#143,#247,.T.);
#134=PRESENTATION_STYLE_ASSIGNMENT((#248));
#135=VERTEX_POINT('',#249);
#136=PRESENTATION_STYLE_ASSIGNMENT((#250));
#137=VERTEX_POINT('',#251);
#138=PRESENTATION_STYLE_ASSIGNMENT((#252));
#139=VERTEX_POINT('',#253);
#140=PRESENTATION_STYLE_ASSIGNMENT((#254));
#141=EDGE_CURVE('',#147,#135,#255,.T.);
#142=PRESENTATION_STYLE_ASSIGNMENT((#256));
#143=VERTEX_POINT('',#257);
#144=PRESENTATION_STYLE_ASSIGNMENT((#258));
#145=VERTEX_POINT('',#259);
#146=PRESENTATION_STYLE_ASSIGNMENT((#260));
#147=VERTEX_POINT('',#261);
#148=PRESENTATION_STYLE_ASSIGNMENT((#262));
#149=VERTEX_POINT('',#263);
#150=PRESENTATION_STYLE_ASSIGNMENT((#264));
#151=MANIFOLD_SOLID_BREP('1',#265);
#152=PRODUCT('1','1','PART-1-DESC',(#266));
#153=PRODUCT_DEFINITION('NONE','NONE',#267,#2);
#154=AXIS2_PLACEMENT_3D('',#268,#269,#270);
#157=LENGTH_MEASURE_WITH_UNIT(LENGTH_MEASURE(1.0),#271);
#160=DIMENSIONAL_EXPONENTS(1.0,0.0,0.0,0.0,0.0,0.0,0.0);
#162=DIMENSIONAL_EXPONENTS(0.0,0.0,0.0,0.0,0.0,0.0,0.0);
#168=SURFACE_STYLE_USAGE(.BOTH.,#272);
#169=FACE_OUTER_BOUND('',#273,.T.);
#170=SPHERICAL_SURFACE('',#274,58.0000000000002);
#171=POINT_STYLE(' ',#275,POSITIVE_LENGTH_MEASURE(1.0E-006),#276);
#172=CARTESIAN_POINT('',(-22.5,6.66645077590061E-015,17.0));
#173=CURVE_STYLE('',#277,POSITIVE_LENGTH_MEASURE(1.0E-006),#278);
#174=CIRCLE('',#279,39.0);
#175=POINT_STYLE(' ',#280,POSITIVE_LENGTH_MEASURE(1.0E-006),#281);
#176=CARTESIAN_POINT('',(-21.5,5.74799601053383E-015,-2.8421709430404E-014));
#177=CURVE_STYLE('',#282,POSITIVE_LENGTH_MEASURE(1.0E-006),#283);
#178=CIRCLE('',#284,21.5);
#179=CURVE_STYLE('',#285,POSITIVE_LENGTH_MEASURE(1.0E-006),#286);
#180=CIRCLE('',#287,21.5);
#181=CURVE_STYLE('',#288,POSITIVE_LENGTH_MEASURE(1.0E-006),#289);
#182=CIRCLE('',#290,22.5);
#183=CURVE_STYLE('',#291,POSITIVE_LENGTH_MEASURE(1.0E-006),#292);
#184=CIRCLE('',#293,39.0);
#185=CURVE_STYLE('',#294,POSITIVE_LENGTH_MEASURE(1.0E-006),#295);
#186=CIRCLE('',#296,22.5);
#187=CURVE_STYLE('',#297,POSITIVE_LENGTH_MEASURE(1.0E-006),#298);
#188=CIRCLE('',#299,21.5);
#189=POINT_STYLE(' ',#300,POSITIVE_LENGTH_MEASURE(1.0E-006),#301);
#190=CARTESIAN_POINT('',(-21.5,6.72768109359173E-015,16.0));
#191=CURVE_STYLE('',#302,POSITIVE_LENGTH_MEASURE(1.0E-006),#303);
#192=CIRCLE('',#304,21.5);
#193=SURFACE_STYLE_USAGE(.BOTH.,#305);
#194=FACE_OUTER_BOUND('',#306,.T.);
#195=CYLINDRICAL_SURFACE('',#307,21.5);
#196=POINT_STYLE(' ',#308,POSITIVE_LENGTH_MEASURE(1.0E-006),#309);
#197=CARTESIAN_POINT('',(22.5,1.60206126750007E-014,17.0));
#198=CURVE_STYLE('',#310,POSITIVE_LENGTH_MEASURE(1.0E-006),#311);
#199=CIRCLE('',#312,22.5658216510294);
#200=CURVE_STYLE('',#313,POSITIVE_LENGTH_MEASURE(1.0E-006),#314);
#201=LINE('',#315,#316);
#202=SURFACE_STYLE_USAGE(.BOTH.,#317);
#203=FACE_OUTER_BOUND('',#318,.T.);
#204=CONICAL_SURFACE('',#319,22.0,0.785398163397448);
#205=SURFACE_STYLE_USAGE(.BOTH.,#320);
#206=FACE_OUTER_BOUND('',#321,.T.);
#207=CYLINDRICAL_SURFACE('',#322,21.5);
#208=CURVE_STYLE('',#323,POSITIVE_LENGTH_MEASURE(1.0E-006),#324);
#209=CIRCLE('',#325,39.0);
#210=SURFACE_STYLE_USAGE(.BOTH.,#326);
#211=FACE_OUTER_BOUND('',#327,.T.);
#212=CYLINDRICAL_SURFACE('',#328,39.0);
#213=CURVE_STYLE('',#329,POSITIVE_LENGTH_MEASURE(1.0E-006),#330);
#214=LINE('',#331,#332);
#215=CURVE_STYLE('',#333,POSITIVE_LENGTH_MEASURE(1.0E-006),#334);
#216=LINE('',#335,#336);
#217=SURFACE_STYLE_USAGE(.BOTH.,#337);
#218=FACE_OUTER_BOUND('',#338,.T.);
#219=SPHERICAL_SURFACE('',#339,58.0000000000002);
#220=CURVE_STYLE('',#340,POSITIVE_LENGTH_MEASURE(1.0E-006),#341);
#221=CIRCLE('',#342,58.0000000000002);
#222=SURFACE_STYLE_USAGE(.BOTH.,#343);
#223=FACE_OUTER_BOUND('',#344,.T.);
#224=FACE_BOUND('',#345,.T.);
#225=PLANE('',#346);
#226=CURVE_STYLE('',#347,POSITIVE_LENGTH_MEASURE(1.0E-006),#348);
#227=CIRCLE('',#349,22.5658216510294);
#228=CURVE_STYLE('',#350,POSITIVE_LENGTH_MEASURE(1.0E-006),#351);
#229=LINE('',#352,#353);
#230=SURFACE_STYLE_USAGE(.BOTH.,#354);
#231=FACE_OUTER_BOUND('',#355,.T.);
#232=CYLINDRICAL_SURFACE('',#356,39.0);
#233=CURVE_STYLE('',#357,POSITIVE_LENGTH_MEASURE(1.0E-006),#358);
#234=LINE('',#359,#360);
#235=POINT_STYLE(' ',#361,POSITIVE_LENGTH_MEASURE(1.0E-006),#362);
#236=CARTESIAN_POINT('',(-22.5658216510288,5.6174748139447E-015,-3.5527136788005E-014));
#237=SURFACE_STYLE_USAGE(.BOTH.,#363);
#238=FACE_OUTER_BOUND('',#364,.T.);
#239=CONICAL_SURFACE('',#365,22.0,0.785398163397448);
#240=SURFACE_STYLE_USAGE(.BOTH.,#366);
#241=FACE_OUTER_BOUND('',#367,.T.);
#242=FACE_BOUND('',#368,.T.);
#243=PLANE('',#369);
#244=CURVE_STYLE('',#370,POSITIVE_LENGTH_MEASURE(1.0E-006),#371);
#245=LINE('',#372,#373);
#246=CURVE_STYLE('',#374,POSITIVE_LENGTH_MEASURE(1.0E-006),#375);
#247=CIRCLE('',#376,39.0);
#248=POINT_STYLE(' ',#377,POSITIVE_LENGTH_MEASURE(1.0E-006),#378);
#249=CARTESIAN_POINT('',(39.0,2.12043758737155E-014,10.4999999999999));
#250=POINT_STYLE(' ',#379,POSITIVE_LENGTH_MEASURE(1.0E-006),#380);
#251=CARTESIAN_POINT('',(-39.0,4.64585029209369E-015,17.0));
#252=POINT_STYLE(' ',#381,POSITIVE_LENGTH_MEASURE(1.0E-006),#382);
#253=CARTESIAN_POINT('',(39.0,2.08597309172005E-014,17.0));
#254=CURVE_STYLE('',#383,POSITIVE_LENGTH_MEASURE(1.0E-006),#384);
#255=CIRCLE('',#385,58.0000000000002);
#256=POINT_STYLE(' ',#386,POSITIVE_LENGTH_MEASURE(1.0E-006),#387);
#257=CARTESIAN_POINT('',(-39.0,4.24785322710142E-015,10.5));
#258=POINT_STYLE(' ',#388,POSITIVE_LENGTH_MEASURE(1.0E-006),#389);
#259=CARTESIAN_POINT('',(21.5,1.57273327815341E-014,16.0));
#260=POINT_STYLE(' ',#390,POSITIVE_LENGTH_MEASURE(1.0E-006),#391);
#261=CARTESIAN_POINT('',(22.5658216510295,1.71792960285156E-014,-1.4210854715202E-014));
#262=POINT_STYLE(' ',#392,POSITIVE_LENGTH_MEASURE(1.0E-006),#393);
#263=CARTESIAN_POINT('',(21.5,1.5727332781534E-014,-2.8421709430404E-014));
#264=SURFACE_STYLE_USAGE(.BOTH.,#394);
#265=CLOSED_SHELL('',(#91,#121,#127,#111,#67,#99,#115,#105,#129,#101));
#266=PRODUCT_CONTEXT('',#53,'mechanical');
#267=PRODUCT_DEFINITION_FORMATION_WITH_SPECIFIED_SOURCE(' ','NONE',#152,.NOT_KNOWN.);
#268=CARTESIAN_POINT('',(0.0,0.0,0.0));
#269=DIRECTION('',(0.0,0.0,1.0));
#270=DIRECTION('',(1.0,0.0,0.0));
#271= (NAMED_UNIT(#160)LENGTH_UNIT()SI_UNIT(.MILLI.,.METRE.));
#272=SURFACE_SIDE_STYLE('',(#396));
#273=EDGE_LOOP('',(#397,#398,#399,#400));
#274=AXIS2_PLACEMENT_3D('',#401,#402,#403);
#275=PRE_DEFINED_MARKER('');
#276=COLOUR_RGB('',0.509803950786591,0.509803950786591,0.588235318660736);
#277=DRAUGHTING_PRE_DEFINED_CURVE_FONT('continuous');
#278=COLOUR_RGB('',0.509803950786591,0.509803950786591,0.588235318660736);
#279=AXIS2_PLACEMENT_3D('',#404,#405,#406);
#280=PRE_DEFINED_MARKER('');
#281=COLOUR_RGB('',0.509803950786591,0.509803950786591,0.588235318660736);
#282=DRAUGHTING_PRE_DEFINED_CURVE_FONT('continuous');
#283=COLOUR_RGB('',0.509803950786591,0.509803950786591,0.588235318660736);
#284=AXIS2_PLACEMENT_3D('',#407,#408,#409);
#285=DRAUGHTING_PRE_DEFINED_CURVE_FONT('continuous');
#286=COLOUR_RGB('',0.509803950786591,0.509803950786591,0.588235318660736);
#287=AXIS2_PLACEMENT_3D('',#410,#411,#412);
#288=DRAUGHTING_PRE_DEFINED_CURVE_FONT('continuous');
#289=COLOUR_RGB('',0.509803950786591,0.509803950786591,0.588235318660736);
#290=AXIS2_PLACEMENT_3D('',#413,#414,#415);
#291=DRAUGHTING_PRE_DEFINED_CURVE_FONT('continuous');
#292=COLOUR_RGB('',0.509803950786591,0.509803950786591,0.588235318660736);
#293=AXIS2_PLACEMENT_3D('',#416,#417,#418);
#294=DRAUGHTING_PRE_DEFINED_CURVE_FONT('continuous');
#295=COLOUR_RGB('',0.509803950786591,0.509803950786591,0.588235318660736);
#296=AXIS2_PLACEMENT_3D('',#419,#420,#421);
#297=DRAUGHTING_PRE_DEFINED_CURVE_FONT('continuous');
#298=COLOUR_RGB('',0.509803950786591,0.509803950786591,0.588235318660736);
#299=AXIS2_PLACEMENT_3D('',#422,#423,#424);
#300=PRE_DEFINED_MARKER('');
#301=COLOUR_RGB('',0.509803950786591,0.509803950786591,0.588235318660736);
#302=DRAUGHTING_PRE_DEFINED_CURVE_FONT('continuous');
#303=COLOUR_RGB('',0.509803950786591,0.509803950786591,0.588235318660736);
#304=AXIS2_PLACEMENT_3D('',#425,#426,#427);
#305=SURFACE_SIDE_STYLE('',(#428));
#306=EDGE_LOOP('',(#429,#430,#431,#432));
#307=AXIS2_PLACEMENT_3D('',#433,#434,#435);
#308=PRE_DEFINED_MARKER('');
#309=COLOUR_RGB('',0.509803950786591,0.509803950786591,0.588235318660736);
#310=DRAUGHTING_PRE_DEFINED_CURVE_FONT('continuous');
#311=COLOUR_RGB('',0.509803950786591,0.509803950786591,0.588235318660736);
#312=AXIS2_PLACEMENT_3D('',#436,#437,#438);
#313=DRAUGHTING_PRE_DEFINED_CURVE_FONT('continuous');
#314=COLOUR_RGB('',0.509803950786591,0.509803950786591,0.588235318660736);
#315=CARTESIAN_POINT('',(-21.5,3.11629736246787E-015,7.99999999999999));
#316=VECTOR('',#439,1.0);
#317=SURFACE_SIDE_STYLE('',(#440));
#318=EDGE_LOOP('',(#441,#442,#443,#444));
#319=AXIS2_PLACEMENT_3D('',#445,#446,#447);
#320=SURFACE_SIDE_STYLE('',(#448));
#321=EDGE_LOOP('',(#449,#450,#451,#452));
#322=AXIS2_PLACEMENT_3D('',#453,#454,#455);
#323=DRAUGHTING_PRE_DEFINED_CURVE_FONT('continuous');
#324=COLOUR_RGB('',0.509803950786591,0.509803950786591,0.588235318660736);
#325=AXIS2_PLACEMENT_3D('',#456,#457,#458);
#326=SURFACE_SIDE_STYLE('',(#459));
#327=EDGE_LOOP('',(#460,#461,#462,#463));
#328=AXIS2_PLACEMENT_3D('',#464,#465,#466);
#329=DRAUGHTING_PRE_DEFINED_CURVE_FONT('continuous');
#330=COLOUR_RGB('',0.509803950786591,0.509803950786591,0.588235318660736);
#331=CARTESIAN_POINT('',(-22.0,2.96965741573454E-015,16.5));
#332=VECTOR('',#467,1.0);
#333=DRAUGHTING_PRE_DEFINED_CURVE_FONT('continuous');
#334=COLOUR_RGB('',0.509803950786591,0.509803950786591,0.588235318660736);
#335=CARTESIAN_POINT('',(22.0,1.58739727282674E-014,16.5));
#336=VECTOR('',#468,1.0);
#337=SURFACE_SIDE_STYLE('',(#469));
#338=EDGE_LOOP('',(#470,#471,#472,#473));
#339=AXIS2_PLACEMENT_3D('',#474,#475,#476);
#340=DRAUGHTING_PRE_DEFINED_CURVE_FONT('continuous');
#341=COLOUR_RGB('',0.509803950786591,0.509803950786591,0.588235318660736);
#342=AXIS2_PLACEMENT_3D('',#477,#478,#479);
#343=SURFACE_SIDE_STYLE('',(#480));
#344=EDGE_LOOP('',(#481,#482));
#345=EDGE_LOOP('',(#483,#484));
#346=AXIS2_PLACEMENT_3D('',#485,#486,#487);
#347=DRAUGHTING_PRE_DEFINED_CURVE_FONT('continuous');
#348=COLOUR_RGB('',0.509803950786591,0.509803950786591,0.588235318660736);
#349=AXIS2_PLACEMENT_3D('',#488,#489,#490);
#350=DRAUGHTING_PRE_DEFINED_CURVE_FONT('continuous');
#351=COLOUR_RGB('',0.509803950786591,0.509803950786591,0.588235318660736);
#352=CARTESIAN_POINT('',(21.5,1.5727332781534E-014,7.99999999999999));
#353=VECTOR('',#491,1.0);
#354=SURFACE_SIDE_STYLE('',(#492));
#355=EDGE_LOOP('',(#493,#494,#495,#496));
#356=AXIS2_PLACEMENT_3D('',#497,#498,#499);
#357=DRAUGHTING_PRE_DEFINED_CURVE_FONT('continuous');
#358=COLOUR_RGB('',0.509803950786591,0.509803950786591,0.588235318660736);
#359=CARTESIAN_POINT('',(-39.0,-2.01610077319859E-015,13.7499999999999));
#360=VECTOR('',#500,1.0);
#361=PRE_DEFINED_MARKER('');
#362=COLOUR_RGB('',0.509803950786591,0.509803950786591,0.588235318660736);
#363=SURFACE_SIDE_STYLE('',(#501));
#364=EDGE_LOOP('',(#502,#503,#504,#505));
#365=AXIS2_PLACEMENT_3D('',#506,#507,#508);
#366=SURFACE_SIDE_STYLE('',(#509));
#367=EDGE_LOOP('',(#510,#511));
#368=EDGE_LOOP('',(#512,#513));
#369=AXIS2_PLACEMENT_3D('',#514,#515,#516);
#370=DRAUGHTING_PRE_DEFINED_CURVE_FONT('continuous');
#371=COLOUR_RGB('',0.509803950786591,0.509803950786591,0.588235318660736);
#372=CARTESIAN_POINT('',(39.0,2.08597309172005E-014,13.7499999999999));
#373=VECTOR('',#517,1.0);
#374=DRAUGHTING_PRE_DEFINED_CURVE_FONT('continuous');
#375=COLOUR_RGB('',0.509803950786591,0.509803950786591,0.588235318660736);
#376=AXIS2_PLACEMENT_3D('',#518,#519,#520);
#377=PRE_DEFINED_MARKER('');
#378=COLOUR_RGB('',0.509803950786591,0.509803950786591,0.588235318660736);
#379=PRE_DEFINED_MARKER('');
#380=COLOUR_RGB('',0.509803950786591,0.509803950786591,0.588235318660736);
#381=PRE_DEFINED_MARKER('');
#382=COLOUR_RGB('',0.509803950786591,0.509803950786591,0.588235318660736);
#383=DRAUGHTING_PRE_DEFINED_CURVE_FONT('continuous');
#384=COLOUR_RGB('',0.509803950786591,0.509803950786591,0.588235318660736);
#385=AXIS2_PLACEMENT_3D('',#521,#522,#523);
#386=PRE_DEFINED_MARKER('');
#387=COLOUR_RGB('',0.509803950786591,0.509803950786591,0.588235318660736);
#388=PRE_DEFINED_MARKER('');
#389=COLOUR_RGB('',0.509803950786591,0.509803950786591,0.588235318660736);
#390=PRE_DEFINED_MARKER('');
#391=COLOUR_RGB('',0.509803950786591,0.509803950786591,0.588235318660736);
#392=PRE_DEFINED_MARKER('');
#393=COLOUR_RGB('',0.509803950786591,0.509803950786591,0.588235318660736);
#394=SURFACE_SIDE_STYLE('',(#524));
#396=SURFACE_STYLE_FILL_AREA(#525);
#397=ORIENTED_EDGE('',*,*,#141,.T.);
#398=ORIENTED_EDGE('',*,*,#103,.F.);
#399=ORIENTED_EDGE('',*,*,#113,.T.);
#400=ORIENTED_EDGE('',*,*,#95,.F.);
#401=CARTESIAN_POINT('',(1.49213974509621E-013,1.1652446313901E-014,53.4301758673314));
#402=DIRECTION('',(0.0,0.0,-1.0));
#403=DIRECTION('',(1.0,1.22460635382238E-016,0.0));
#404=CARTESIAN_POINT('',(0.0,9.42181507200096E-015,17.0));
#405=DIRECTION('',(-0.0,0.0,-1.0));
#406=DIRECTION('',(-1.0,-1.70819258084417E-016,0.0));
#407=CARTESIAN_POINT('',(0.0,9.42181507200096E-015,-2.8421709430404E-014));
#408=DIRECTION('',(-0.0,0.0,-1.0));
#409=DIRECTION('',(-1.0,-1.70819258084417E-016,0.0));
#410=CARTESIAN_POINT('',(0.0,9.42181507200096E-015,16.0));
#411=DIRECTION('',(-0.0,0.0,-1.0));
#412=DIRECTION('',(-1.0,-1.70819258084417E-016,0.0));
#413=CARTESIAN_POINT('',(0.0,9.42181507200096E-015,17.0));
#414=DIRECTION('',(-0.0,0.0,-1.0));
#415=DIRECTION('',(-1.0,-1.70819258084417E-016,0.0));
#416=CARTESIAN_POINT('',(0.0,9.42181507200096E-015,17.0));
#417=DIRECTION('',(-0.0,0.0,-1.0));
#418=DIRECTION('',(-1.0,-1.70819258084417E-016,0.0));
#419=CARTESIAN_POINT('',(0.0,9.42181507200096E-015,17.0));
#420=DIRECTION('',(-0.0,0.0,-1.0));
#421=DIRECTION('',(-1.0,-1.70819258084417E-016,0.0));
#422=CARTESIAN_POINT('',(0.0,9.42181507200096E-015,-2.8421709430404E-014));
#423=DIRECTION('',(-0.0,0.0,-1.0));
#424=DIRECTION('',(-1.0,-1.70819258084417E-016,0.0));
#425=CARTESIAN_POINT('',(0.0,9.42181507200096E-015,16.0));
#426=DIRECTION('',(-0.0,0.0,-1.0));
#427=DIRECTION('',(-1.0,-1.70819258084417E-016,0.0));
#428=SURFACE_STYLE_FILL_AREA(#526);
#429=ORIENTED_EDGE('',*,*,#97,.F.);
#430=ORIENTED_EDGE('',*,*,#77,.F.);
#431=ORIENTED_EDGE('',*,*,#119,.F.);
#432=ORIENTED_EDGE('',*,*,#75,.T.);
#433=CARTESIAN_POINT('',(0.0,9.42181507200096E-015,7.99999999999999));
#434=DIRECTION('',(0.0,-0.0,1.0));
#435=DIRECTION('',(-1.0,-1.70819258084417E-016,0.0));
#436=CARTESIAN_POINT('',(1.49213974509621E-013,1.1652446313901E-014,-1.4210854715202E-014));
#437=DIRECTION('',(0.0,0.0,-1.0));
#438=DIRECTION('',(0.0,-1.0,0.0));
#439=DIRECTION('',(0.0,0.0,-1.0));
#440=SURFACE_STYLE_FILL_AREA(#527);
#441=ORIENTED_EDGE('',*,*,#107,.T.);
#442=ORIENTED_EDGE('',*,*,#89,.T.);
#443=ORIENTED_EDGE('',*,*,#109,.T.);
#444=ORIENTED_EDGE('',*,*,#79,.F.);
#445=CARTESIAN_POINT('',(0.0,9.42181507200096E-015,16.5));
#446=DIRECTION('',(0.0,-0.0,1.0));
#447=DIRECTION('',(-1.0,-1.70819258084417E-016,0.0));
#448=SURFACE_STYLE_FILL_AREA(#528);
#449=ORIENTED_EDGE('',*,*,#97,.T.);
#450=ORIENTED_EDGE('',*,*,#85,.T.);
#451=ORIENTED_EDGE('',*,*,#119,.T.);
#452=ORIENTED_EDGE('',*,*,#89,.F.);
#453=CARTESIAN_POINT('',(0.0,9.42181507200096E-015,7.99999999999999));
#454=DIRECTION('',(0.0,-0.0,1.0));
#455=DIRECTION('',(-1.0,-1.70819258084417E-016,0.0));
#456=CARTESIAN_POINT('',(0.0,9.42181507200096E-015,10.4999999999999));
#457=DIRECTION('',(0.0,0.0,1.0));
#458=DIRECTION('',(-1.0,-1.70819258084417E-016,0.0));
#459=SURFACE_STYLE_FILL_AREA(#529);
#460=ORIENTED_EDGE('',*,*,#123,.T.);
#461=ORIENTED_EDGE('',*,*,#103,.T.);
#462=ORIENTED_EDGE('',*,*,#131,.T.);
#463=ORIENTED_EDGE('',*,*,#71,.T.);
#464=CARTESIAN_POINT('',(0.0,9.42181507200096E-015,8.5));
#465=DIRECTION('',(0.0,-0.0,1.0));
#466=DIRECTION('',(-1.0,-1.70819258084417E-016,0.0));
#467=DIRECTION('',(0.707106781186548,2.0738020145594E-016,-0.707106781186547));
#468=DIRECTION('',(0.707106781186548,2.0738020145594E-016,0.707106781186547));
#469=SURFACE_STYLE_FILL_AREA(#530);
#470=ORIENTED_EDGE('',*,*,#141,.F.);
#471=ORIENTED_EDGE('',*,*,#117,.F.);
#472=ORIENTED_EDGE('',*,*,#113,.F.);
#473=ORIENTED_EDGE('',*,*,#133,.F.);
#474=CARTESIAN_POINT('',(1.49213974509621E-013,1.1652446313901E-014,53.4301758673314));
#475=DIRECTION('',(0.0,0.0,-1.0));
#476=DIRECTION('',(1.0,1.22460635382238E-016,0.0));
#477=CARTESIAN_POINT('',(1.49213974509621E-013,1.1652446313901E-014,53.4301758673314));
#478=DIRECTION('',(2.44921270764475E-016,-1.0,0.0));
#479=DIRECTION('',(-0.0,0.0,1.0));
#480=SURFACE_STYLE_FILL_AREA(#531);
#481=ORIENTED_EDGE('',*,*,#81,.F.);
#482=ORIENTED_EDGE('',*,*,#71,.F.);
#483=ORIENTED_EDGE('',*,*,#79,.T.);
#484=ORIENTED_EDGE('',*,*,#83,.T.);
#485=CARTESIAN_POINT('',(-30.75,5.65615053399715E-015,17.0));
#486=DIRECTION('',(0.0,0.0,1.0));
#487=DIRECTION('',(-1.0,-1.22460635382238E-016,0.0));
#488=CARTESIAN_POINT('',(1.49213974509621E-013,1.1652446313901E-014,-1.4210854715202E-014));
#489=DIRECTION('',(0.0,0.0,-1.0));
#490=DIRECTION('',(0.0,-1.0,0.0));
#491=DIRECTION('',(0.0,0.0,1.0));
#492=SURFACE_STYLE_FILL_AREA(#532);
#493=ORIENTED_EDGE('',*,*,#123,.F.);
#494=ORIENTED_EDGE('',*,*,#81,.T.);
#495=ORIENTED_EDGE('',*,*,#131,.F.);
#496=ORIENTED_EDGE('',*,*,#133,.T.);
#497=CARTESIAN_POINT('',(0.0,9.42181507200096E-015,8.5));
#498=DIRECTION('',(0.0,-0.0,1.0));
#499=DIRECTION('',(-1.0,-1.70819258084417E-016,0.0));
#500=DIRECTION('',(0.0,0.0,-1.0));
#501=SURFACE_STYLE_FILL_AREA(#533);
#502=ORIENTED_EDGE('',*,*,#107,.F.);
#503=ORIENTED_EDGE('',*,*,#83,.F.);
#504=ORIENTED_EDGE('',*,*,#109,.F.);
#505=ORIENTED_EDGE('',*,*,#77,.T.);
#506=CARTESIAN_POINT('',(0.0,9.42181507200096E-015,16.5));
#507=DIRECTION('',(0.0,-0.0,1.0));
#508=DIRECTION('',(-1.0,-1.70819258084417E-016,0.0));
#509=SURFACE_STYLE_FILL_AREA(#534);
#510=ORIENTED_EDGE('',*,*,#117,.T.);
#511=ORIENTED_EDGE('',*,*,#95,.T.);
#512=ORIENTED_EDGE('',*,*,#85,.F.);
#513=ORIENTED_EDGE('',*,*,#75,.F.);
#514=CARTESIAN_POINT('',(-30.25,4.67646545093925E-015,-1.4210854715202E-014));
#515=DIRECTION('',(0.0,0.0,-1.0));
#516=DIRECTION('',(1.0,1.22460635382238E-016,0.0));
#517=DIRECTION('',(-0.0,-0.0,1.0));
#518=CARTESIAN_POINT('',(0.0,9.42181507200096E-015,10.4999999999999));
#519=DIRECTION('',(0.0,0.0,1.0));
#520=DIRECTION('',(-1.0,-1.70819258084417E-016,0.0));
#521=CARTESIAN_POINT('',(1.49213974509621E-013,1.1652446313901E-014,53.4301758673314));
#522=DIRECTION('',(2.44921270764475E-016,-1.0,0.0));
#523=DIRECTION('',(-0.0,0.0,1.0));
#524=SURFACE_STYLE_FILL_AREA(#535);
#525=FILL_AREA_STYLE('',(#536));
#526=FILL_AREA_STYLE('',(#537));
#527=FILL_AREA_STYLE('',(#538));
#528=FILL_AREA_STYLE('',(#539));
#529=FILL_AREA_STYLE('',(#540));
#530=FILL_AREA_STYLE('',(#541));
#531=FILL_AREA_STYLE('',(#542));
#532=FILL_AREA_STYLE('',(#543));
#533=FILL_AREA_STYLE('',(#544));
#534=FILL_AREA_STYLE('',(#545));
#535=FILL_AREA_STYLE('',(#546));
#536=FILL_AREA_STYLE_COLOUR('',#547);
#537=FILL_AREA_STYLE_COLOUR('',#548);
#538=FILL_AREA_STYLE_COLOUR('',#549);
#539=FILL_AREA_STYLE_COLOUR('',#550);
#540=FILL_AREA_STYLE_COLOUR('',#551);
#541=FILL_AREA_STYLE_COLOUR('',#552);
#542=FILL_AREA_STYLE_COLOUR('',#553);
#543=FILL_AREA_STYLE_COLOUR('',#554);
#544=FILL_AREA_STYLE_COLOUR('',#555);
#545=FILL_AREA_STYLE_COLOUR('',#556);
#546=FILL_AREA_STYLE_COLOUR('',#557);
#547=COLOUR_RGB('',0.509803950786591,0.509803950786591,0.588235318660736);
#548=COLOUR_RGB('',0.509803950786591,0.509803950786591,0.588235318660736);
#549=COLOUR_RGB('',0.509803950786591,0.509803950786591,0.588235318660736);
#550=COLOUR_RGB('',0.509803950786591,0.509803950786591,0.588235318660736);
#551=COLOUR_RGB('',0.509803950786591,0.509803950786591,0.588235318660736);
#552=COLOUR_RGB('',0.509803950786591,0.509803950786591,0.588235318660736);
#553=COLOUR_RGB('',0.509803950786591,0.509803950786591,0.588235318660736);
#554=COLOUR_RGB('',0.509803950786591,0.509803950786591,0.588235318660736);
#555=COLOUR_RGB('',0.509803950786591,0.509803950786591,0.588235318660736);
#556=COLOUR_RGB('',0.509803950786591,0.509803950786591,0.588235318660736);
#557=COLOUR_RGB('',0.509803950786591,0.509803950786591,0.588235318660736);
ENDSEC;
END-ISO-10303-21;
