ISO-10303-21;
HEADER;
FILE_DESCRIPTION(('STEP AP214'),'1');
FILE_NAME(' ','  ',('TraceParts'),('TraceParts S.A.'),'XStep 1.0',' ',' ');
FILE_SCHEMA(('automotive_design'));
ENDSEC;
DATA;
#1=MECHANICAL_DESIGN_GEOMETRIC_PRESENTATION_REPRESENTATION(' ',(#10,#11,#12,#13,#14,#15,#16,#17,#18,#19,#20,#21,#22,#23,#24,#25,#26,#27,#28,#29,#30,#31,#32,#33,#34,#35,#36,#37,#38,#39,#40,#41,#42,#43,#44,#45,#46,#47,#48,#49,#50,#51,#52),#6);
#2=PRODUCT_DEFINITION_CONTEXT('',#53,'design');
#3=APPLICATION_PROTOCOL_DEFINITION('INTERNATIONAL STANDARD','automotive_design',1994,#53);
#4=PRODUCT_CATEGORY_RELATIONSHIP('NONE','NONE',#54,#55);
#5=SHAPE_DEFINITION_REPRESENTATION(#56,#57);
#6= (GEOMETRIC_REPRESENTATION_CONTEXT(3)GLOBAL_UNCERTAINTY_ASSIGNED_CONTEXT((#60))GLOBAL_UNIT_ASSIGNED_CONTEXT((#62,#63,#64))REPRESENTATION_CONTEXT('NONE','WORKSPACE'));
#10=STYLED_ITEM('',(#66),#67);
#11=STYLED_ITEM('',(#68),#69);
#12=STYLED_ITEM('',(#70),#71);
#13=STYLED_ITEM('',(#72),#73);
#14=STYLED_ITEM('',(#74),#75);
#15=STYLED_ITEM('',(#76),#77);
#16=STYLED_ITEM('',(#78),#79);
#17=STYLED_ITEM('',(#80),#81);
#18=STYLED_ITEM('',(#82),#83);
#19=STYLED_ITEM('',(#84),#85);
#20=STYLED_ITEM('',(#86),#87);
#21=STYLED_ITEM('',(#88),#89);
#22=STYLED_ITEM('',(#90),#91);
#23=STYLED_ITEM('',(#92),#93);
#24=STYLED_ITEM('',(#94),#95);
#25=STYLED_ITEM('',(#96),#97);
#26=STYLED_ITEM('',(#98),#99);
#27=STYLED_ITEM('',(#100),#101);
#28=STYLED_ITEM('',(#102),#103);
#29=STYLED_ITEM('',(#104),#105);
#30=STYLED_ITEM('',(#106),#107);
#31=STYLED_ITEM('',(#108),#109);
#32=STYLED_ITEM('',(#110),#111);
#33=STYLED_ITEM('',(#112),#113);
#34=STYLED_ITEM('',(#114),#115);
#35=STYLED_ITEM('',(#116),#117);
#36=STYLED_ITEM('',(#118),#119);
#37=STYLED_ITEM('',(#120),#121);
#38=STYLED_ITEM('',(#122),#123);
#39=STYLED_ITEM('',(#124),#125);
#40=STYLED_ITEM('',(#126),#127);
#41=STYLED_ITEM('',(#128),#129);
#42=STYLED_ITEM('',(#130),#131);
#43=STYLED_ITEM('',(#132),#133);
#44=STYLED_ITEM('',(#134),#135);
#45=STYLED_ITEM('',(#136),#137);
#46=STYLED_ITEM('',(#138),#139);
#47=STYLED_ITEM('',(#140),#141);
#48=STYLED_ITEM('',(#142),#143);
#49=STYLED_ITEM('',(#144),#145);
#50=STYLED_ITEM('',(#146),#147);
#51=STYLED_ITEM('',(#148),#149);
#52=STYLED_ITEM('',(#150),#151);
#53=APPLICATION_CONTEXT(' ');
#54=PRODUCT_CATEGORY('part','NONE');
#55=PRODUCT_RELATED_PRODUCT_CATEGORY('detail',' ',(#152));
#56=PRODUCT_DEFINITION_SHAPE('NONE','NONE',#153);
#57=ADVANCED_BREP_SHAPE_REPRESENTATION('1',(#95,#154),#6);
#60=UNCERTAINTY_MEASURE_WITH_UNIT(LENGTH_MEASURE(1.0E-006),#62,'','');
#62= (CONVERSION_BASED_UNIT('MILLIMETRE',#157)LENGTH_UNIT()NAMED_UNIT(#160));
#63= (NAMED_UNIT(#162)PLANE_ANGLE_UNIT()SI_UNIT($,.RADIAN.));
#64= (NAMED_UNIT(#162)SOLID_ANGLE_UNIT()SI_UNIT($,.STERADIAN.));
#66=PRESENTATION_STYLE_ASSIGNMENT((#168));
#67=VERTEX_POINT('',#169);
#68=PRESENTATION_STYLE_ASSIGNMENT((#170));
#69=EDGE_CURVE('',#67,#79,#171,.T.);
#70=PRESENTATION_STYLE_ASSIGNMENT((#172));
#71=ADVANCED_FACE('',(#173),#174,.F.);
#72=PRESENTATION_STYLE_ASSIGNMENT((#175));
#73=ADVANCED_FACE('',(#176),#177,.T.);
#74=PRESENTATION_STYLE_ASSIGNMENT((#178));
#75=VERTEX_POINT('',#179);
#76=PRESENTATION_STYLE_ASSIGNMENT((#180));
#77=EDGE_CURVE('',#151,#85,#181,.T.);
#78=PRESENTATION_STYLE_ASSIGNMENT((#182));
#79=VERTEX_POINT('',#183);
#80=PRESENTATION_STYLE_ASSIGNMENT((#184));
#81=EDGE_CURVE('',#67,#75,#185,.T.);
#82=PRESENTATION_STYLE_ASSIGNMENT((#186));
#83=ADVANCED_FACE('',(#187),#188,.F.);
#84=PRESENTATION_STYLE_ASSIGNMENT((#189));
#85=VERTEX_POINT('',#190);
#86=PRESENTATION_STYLE_ASSIGNMENT((#191));
#87=EDGE_CURVE('',#147,#75,#192,.T.);
#88=PRESENTATION_STYLE_ASSIGNMENT((#193));
#89=EDGE_CURVE('',#79,#147,#194,.T.);
#90=PRESENTATION_STYLE_ASSIGNMENT((#195));
#91=VERTEX_POINT('',#196);
#92=PRESENTATION_STYLE_ASSIGNMENT((#197));
#93=EDGE_CURVE('',#145,#129,#198,.T.);
#94=PRESENTATION_STYLE_ASSIGNMENT((#199));
#95=MANIFOLD_SOLID_BREP('1',#200);
#96=PRESENTATION_STYLE_ASSIGNMENT((#201));
#97=EDGE_CURVE('',#143,#147,#202,.T.);
#98=PRESENTATION_STYLE_ASSIGNMENT((#203));
#99=VERTEX_POINT('',#204);
#100=PRESENTATION_STYLE_ASSIGNMENT((#205));
#101=EDGE_CURVE('',#75,#67,#206,.T.);
#102=PRESENTATION_STYLE_ASSIGNMENT((#207));
#103=EDGE_CURVE('',#99,#149,#208,.T.);
#104=PRESENTATION_STYLE_ASSIGNMENT((#209));
#105=ADVANCED_FACE('',(#210,#211),#212,.T.);
#106=PRESENTATION_STYLE_ASSIGNMENT((#213));
#107=EDGE_CURVE('',#99,#129,#214,.T.);
#108=PRESENTATION_STYLE_ASSIGNMENT((#215));
#109=ADVANCED_FACE('',(#216,#217),#218,.T.);
#110=PRESENTATION_STYLE_ASSIGNMENT((#219));
#111=EDGE_CURVE('',#85,#151,#220,.T.);
#112=PRESENTATION_STYLE_ASSIGNMENT((#221));
#113=ADVANCED_FACE('',(#222),#223,.T.);
#114=PRESENTATION_STYLE_ASSIGNMENT((#224));
#115=EDGE_CURVE('',#79,#91,#225,.T.);
#116=PRESENTATION_STYLE_ASSIGNMENT((#226));
#117=EDGE_CURVE('',#129,#145,#227,.T.);
#118=PRESENTATION_STYLE_ASSIGNMENT((#228));
#119=EDGE_CURVE('',#91,#143,#229,.T.);
#120=PRESENTATION_STYLE_ASSIGNMENT((#230));
#121=ADVANCED_FACE('',(#231),#232,.T.);
#122=PRESENTATION_STYLE_ASSIGNMENT((#233));
#123=EDGE_CURVE('',#147,#79,#234,.T.);
#124=PRESENTATION_STYLE_ASSIGNMENT((#235));
#125=ADVANCED_FACE('',(#236),#237,.F.);
#126=PRESENTATION_STYLE_ASSIGNMENT((#238));
#127=EDGE_CURVE('',#149,#151,#239,.T.);
#128=PRESENTATION_STYLE_ASSIGNMENT((#240));
#129=VERTEX_POINT('',#241);
#130=PRESENTATION_STYLE_ASSIGNMENT((#242));
#131=ADVANCED_FACE('',(#243),#244,.T.);
#132=PRESENTATION_STYLE_ASSIGNMENT((#245));
#133=EDGE_CURVE('',#143,#91,#246,.T.);
#134=PRESENTATION_STYLE_ASSIGNMENT((#247));
#135=EDGE_CURVE('',#149,#99,#248,.T.);
#136=PRESENTATION_STYLE_ASSIGNMENT((#249));
#137=EDGE_CURVE('',#145,#149,#250,.T.);
#138=PRESENTATION_STYLE_ASSIGNMENT((#251));
#139=ADVANCED_FACE('',(#252),#253,.F.);
#140=PRESENTATION_STYLE_ASSIGNMENT((#254));
#141=EDGE_CURVE('',#85,#99,#255,.T.);
#142=PRESENTATION_STYLE_ASSIGNMENT((#256));
#143=VERTEX_POINT('',#257);
#144=PRESENTATION_STYLE_ASSIGNMENT((#258));
#145=VERTEX_POINT('',#259);
#146=PRESENTATION_STYLE_ASSIGNMENT((#260));
#147=VERTEX_POINT('',#261);
#148=PRESENTATION_STYLE_ASSIGNMENT((#262));
#149=VERTEX_POINT('',#263);
#150=PRESENTATION_STYLE_ASSIGNMENT((#264));
#151=VERTEX_POINT('',#265);
#152=PRODUCT('1','1','PART-1-DESC',(#266));
#153=PRODUCT_DEFINITION('NONE','NONE',#267,#2);
#154=AXIS2_PLACEMENT_3D('',#268,#269,#270);
#157=LENGTH_MEASURE_WITH_UNIT(LENGTH_MEASURE(1.0),#271);
#160=DIMENSIONAL_EXPONENTS(1.0,0.0,0.0,0.0,0.0,0.0,0.0);
#162=DIMENSIONAL_EXPONENTS(0.0,0.0,0.0,0.0,0.0,0.0,0.0);
#168=POINT_STYLE(' ',#272,POSITIVE_LENGTH_MEASURE(1.0E-006),#273);
#169=CARTESIAN_POINT('',(-13.3,5.71125781991915E-015,8.19999999999996));
#170=CURVE_STYLE('',#274,POSITIVE_LENGTH_MEASURE(1.0E-006),#275);
#171=LINE('',#276,#277);
#172=SURFACE_STYLE_USAGE(.BOTH.,#278);
#173=FACE_OUTER_BOUND('',#279,.T.);
#174=CYLINDRICAL_SURFACE('',#280,12.5);
#175=SURFACE_STYLE_USAGE(.BOTH.,#281);
#176=FACE_OUTER_BOUND('',#282,.T.);
#177=SPHERICAL_SURFACE('',#283,32.0000000000001);
#178=POINT_STYLE(' ',#284,POSITIVE_LENGTH_MEASURE(1.0E-006),#285);
#179=CARTESIAN_POINT('',(13.3000000000001,1.11310664607358E-014,8.19999999999996));
#180=CURVE_STYLE('',#286,POSITIVE_LENGTH_MEASURE(1.0E-006),#287);
#181=CIRCLE('',#288,22.0);
#182=POINT_STYLE(' ',#289,POSITIVE_LENGTH_MEASURE(1.0E-006),#290);
#183=CARTESIAN_POINT('',(-12.5,5.76024207407205E-015,7.39999999999995));
#184=CURVE_STYLE('',#291,POSITIVE_LENGTH_MEASURE(1.0E-006),#292);
#185=CIRCLE('',#293,13.3);
#186=SURFACE_STYLE_USAGE(.BOTH.,#294);
#187=FACE_OUTER_BOUND('',#295,.T.);
#188=CONICAL_SURFACE('',#296,12.9,0.785398163397448);
#189=POINT_STYLE(' ',#297,POSITIVE_LENGTH_MEASURE(1.0E-006),#298);
#190=CARTESIAN_POINT('',(-22.0,4.64585029209369E-015,8.19999999999996));
#191=CURVE_STYLE('',#299,POSITIVE_LENGTH_MEASURE(1.0E-006),#300);
#192=LINE('',#301,#302);
#193=CURVE_STYLE('',#303,POSITIVE_LENGTH_MEASURE(1.0E-006),#304);
#194=CIRCLE('',#305,12.5);
#195=POINT_STYLE(' ',#306,POSITIVE_LENGTH_MEASURE(1.0E-006),#307);
#196=CARTESIAN_POINT('',(-12.5,5.30713772315777E-015,-2.8421709430404E-014));
#197=CURVE_STYLE('',#308,POSITIVE_LENGTH_MEASURE(1.0E-006),#309);
#198=CIRCLE('',#310,13.4462024045442);
#199=SURFACE_STYLE_USAGE(.BOTH.,#311);
#200=CLOSED_SHELL('',(#71,#131,#139,#73,#121,#83,#109,#113,#105,#125));
#201=CURVE_STYLE('',#312,POSITIVE_LENGTH_MEASURE(1.0E-006),#313);
#202=LINE('',#314,#315);
#203=POINT_STYLE(' ',#316,POSITIVE_LENGTH_MEASURE(1.0E-006),#317);
#204=CARTESIAN_POINT('',(-21.9999999999999,4.49889752963501E-015,5.79999999999997));
#205=CURVE_STYLE('',#318,POSITIVE_LENGTH_MEASURE(1.0E-006),#319);
#206=CIRCLE('',#320,13.3);
#207=CURVE_STYLE('',#321,POSITIVE_LENGTH_MEASURE(1.0E-006),#322);
#208=CIRCLE('',#323,22.0);
#209=SURFACE_STYLE_USAGE(.BOTH.,#324);
#210=FACE_OUTER_BOUND('',#325,.T.);
#211=FACE_BOUND('',#326,.T.);
#212=PLANE('',#327);
#213=CURVE_STYLE('',#328,POSITIVE_LENGTH_MEASURE(1.0E-006),#329);
#214=CIRCLE('',#330,32.0000000000001);
#215=SURFACE_STYLE_USAGE(.BOTH.,#331);
#216=FACE_OUTER_BOUND('',#332,.T.);
#217=FACE_BOUND('',#333,.T.);
#218=PLANE('',#334);
#219=CURVE_STYLE('',#335,POSITIVE_LENGTH_MEASURE(1.0E-006),#336);
#220=CIRCLE('',#337,22.0);
#221=SURFACE_STYLE_USAGE(.BOTH.,#338);
#222=FACE_OUTER_BOUND('',#339,.T.);
#223=CYLINDRICAL_SURFACE('',#340,22.0);
#224=CURVE_STYLE('',#341,POSITIVE_LENGTH_MEASURE(1.0E-006),#342);
#225=LINE('',#343,#344);
#226=CURVE_STYLE('',#345,POSITIVE_LENGTH_MEASURE(1.0E-006),#346);
#227=CIRCLE('',#347,13.4462024045442);
#228=CURVE_STYLE('',#348,POSITIVE_LENGTH_MEASURE(1.0E-006),#349);
#229=CIRCLE('',#350,12.5);
#230=SURFACE_STYLE_USAGE(.BOTH.,#351);
#231=FACE_OUTER_BOUND('',#352,.T.);
#232=SPHERICAL_SURFACE('',#353,32.0000000000001);
#233=CURVE_STYLE('',#354,POSITIVE_LENGTH_MEASURE(1.0E-006),#355);
#234=CIRCLE('',#356,12.5);
#235=SURFACE_STYLE_USAGE(.BOTH.,#357);
#236=FACE_OUTER_BOUND('',#358,.T.);
#237=CYLINDRICAL_SURFACE('',#359,12.5);
#238=CURVE_STYLE('',#360,POSITIVE_LENGTH_MEASURE(1.0E-006),#361);
#239=LINE('',#362,#363);
#240=POINT_STYLE(' ',#364,POSITIVE_LENGTH_MEASURE(1.0E-006),#365);
#241=CARTESIAN_POINT('',(-13.4462024045439,5.19126517549712E-015,-4.2632564145606E-014));
#242=SURFACE_STYLE_USAGE(.BOTH.,#366);
#243=FACE_OUTER_BOUND('',#367,.T.);
#244=CYLINDRICAL_SURFACE('',#368,22.0);
#245=CURVE_STYLE('',#369,POSITIVE_LENGTH_MEASURE(1.0E-006),#370);
#246=CIRCLE('',#371,12.5);
#247=CURVE_STYLE('',#372,POSITIVE_LENGTH_MEASURE(1.0E-006),#373);
#248=CIRCLE('',#374,22.0);
#249=CURVE_STYLE('',#375,POSITIVE_LENGTH_MEASURE(1.0E-006),#376);
#250=CIRCLE('',#377,32.0000000000001);
#251=SURFACE_STYLE_USAGE(.BOTH.,#378);
#252=FACE_OUTER_BOUND('',#379,.T.);
#253=CONICAL_SURFACE('',#380,12.9,0.785398163397448);
#254=CURVE_STYLE('',#381,POSITIVE_LENGTH_MEASURE(1.0E-006),#382);
#255=LINE('',#383,#384);
#256=POINT_STYLE(' ',#385,POSITIVE_LENGTH_MEASURE(1.0E-006),#386);
#257=CARTESIAN_POINT('',(12.5000000000001,1.09030314417744E-014,-2.8421709430404E-014));
#258=POINT_STYLE(' ',#387,POSITIVE_LENGTH_MEASURE(1.0E-006),#388);
#259=CARTESIAN_POINT('',(13.4462024045444,1.19091564921257E-014,-2.8421709430404E-014));
#260=POINT_STYLE(' ',#389,POSITIVE_LENGTH_MEASURE(1.0E-006),#390);
#261=CARTESIAN_POINT('',(12.5000000000001,1.09030314417744E-014,7.39999999999995));
#262=POINT_STYLE(' ',#391,POSITIVE_LENGTH_MEASURE(1.0E-006),#392);
#263=CARTESIAN_POINT('',(22.0000000000001,1.40041634690668E-014,5.79999999999993));
#264=POINT_STYLE(' ',#393,POSITIVE_LENGTH_MEASURE(1.0E-006),#394);
#265=CARTESIAN_POINT('',(22.0000000000001,1.36109472919408E-014,8.19999999999996));
#266=PRODUCT_CONTEXT('',#53,'mechanical');
#267=PRODUCT_DEFINITION_FORMATION_WITH_SPECIFIED_SOURCE(' ','NONE',#152,.NOT_KNOWN.);
#268=CARTESIAN_POINT('',(0.0,0.0,0.0));
#269=DIRECTION('',(0.0,0.0,1.0));
#270=DIRECTION('',(1.0,0.0,0.0));
#271= (NAMED_UNIT(#160)LENGTH_UNIT()SI_UNIT(.MILLI.,.METRE.));
#272=PRE_DEFINED_MARKER('');
#273=COLOUR_RGB('',0.509803950786591,0.509803950786591,0.588235318660736);
#274=DRAUGHTING_PRE_DEFINED_CURVE_FONT('continuous');
#275=COLOUR_RGB('',0.509803950786591,0.509803950786591,0.588235318660736);
#276=CARTESIAN_POINT('',(-12.9,3.66291958975073E-015,7.79999999999995));
#277=VECTOR('',#396,1.0);
#278=SURFACE_SIDE_STYLE('',(#397));
#279=EDGE_LOOP('',(#398,#399,#400,#401));
#280=AXIS2_PLACEMENT_3D('',#402,#403,#404);
#281=SURFACE_SIDE_STYLE('',(#405));
#282=EDGE_LOOP('',(#406,#407,#408,#409));
#283=AXIS2_PLACEMENT_3D('',#410,#411,#412);
#284=PRE_DEFINED_MARKER('');
#285=COLOUR_RGB('',0.509803950786591,0.509803950786591,0.588235318660736);
#286=DRAUGHTING_PRE_DEFINED_CURVE_FONT('continuous');
#287=COLOUR_RGB('',0.509803950786591,0.509803950786591,0.588235318660736);
#288=AXIS2_PLACEMENT_3D('',#413,#414,#415);
#289=PRE_DEFINED_MARKER('');
#290=COLOUR_RGB('',0.509803950786591,0.509803950786591,0.588235318660736);
#291=DRAUGHTING_PRE_DEFINED_CURVE_FONT('continuous');
#292=COLOUR_RGB('',0.509803950786591,0.509803950786591,0.588235318660736);
#293=AXIS2_PLACEMENT_3D('',#416,#417,#418);
#294=SURFACE_SIDE_STYLE('',(#419));
#295=EDGE_LOOP('',(#420,#421,#422,#423));
#296=AXIS2_PLACEMENT_3D('',#424,#425,#426);
#297=PRE_DEFINED_MARKER('');
#298=COLOUR_RGB('',0.509803950786591,0.509803950786591,0.588235318660736);
#299=DRAUGHTING_PRE_DEFINED_CURVE_FONT('continuous');
#300=COLOUR_RGB('',0.509803950786591,0.509803950786591,0.588235318660736);
#301=CARTESIAN_POINT('',(12.9000000000001,1.10170489512551E-014,7.79999999999995));
#302=VECTOR('',#427,1.0);
#303=DRAUGHTING_PRE_DEFINED_CURVE_FONT('continuous');
#304=COLOUR_RGB('',0.509803950786591,0.509803950786591,0.588235318660736);
#305=AXIS2_PLACEMENT_3D('',#428,#429,#430);
#306=PRE_DEFINED_MARKER('');
#307=COLOUR_RGB('',0.509803950786591,0.509803950786591,0.588235318660736);
#308=DRAUGHTING_PRE_DEFINED_CURVE_FONT('continuous');
#309=COLOUR_RGB('',0.509803950786591,0.509803950786591,0.588235318660736);
#310=AXIS2_PLACEMENT_3D('',#431,#432,#433);
#311=SURFACE_SIDE_STYLE('',(#434));
#312=DRAUGHTING_PRE_DEFINED_CURVE_FONT('continuous');
#313=COLOUR_RGB('',0.509803950786591,0.509803950786591,0.588235318660736);
#314=CARTESIAN_POINT('',(12.5000000000001,1.09030314417744E-014,3.69999999999996));
#315=VECTOR('',#435,1.0);
#316=PRE_DEFINED_MARKER('');
#317=COLOUR_RGB('',0.509803950786591,0.509803950786591,0.588235318660736);
#318=DRAUGHTING_PRE_DEFINED_CURVE_FONT('continuous');
#319=COLOUR_RGB('',0.509803950786591,0.509803950786591,0.588235318660736);
#320=AXIS2_PLACEMENT_3D('',#436,#437,#438);
#321=DRAUGHTING_PRE_DEFINED_CURVE_FONT('continuous');
#322=COLOUR_RGB('',0.509803950786591,0.509803950786591,0.588235318660736);
#323=AXIS2_PLACEMENT_3D('',#439,#440,#441);
#324=SURFACE_SIDE_STYLE('',(#442));
#325=EDGE_LOOP('',(#443,#444));
#326=EDGE_LOOP('',(#445,#446));
#327=AXIS2_PLACEMENT_3D('',#447,#448,#449);
#328=DRAUGHTING_PRE_DEFINED_CURVE_FONT('continuous');
#329=COLOUR_RGB('',0.509803950786591,0.509803950786591,0.588235318660736);
#330=AXIS2_PLACEMENT_3D('',#450,#451,#452);
#331=SURFACE_SIDE_STYLE('',(#453));
#332=EDGE_LOOP('',(#454,#455));
#333=EDGE_LOOP('',(#456,#457));
#334=AXIS2_PLACEMENT_3D('',#458,#459,#460);
#335=DRAUGHTING_PRE_DEFINED_CURVE_FONT('continuous');
#336=COLOUR_RGB('',0.509803950786591,0.509803950786591,0.588235318660736);
#337=AXIS2_PLACEMENT_3D('',#461,#462,#463);
#338=SURFACE_SIDE_STYLE('',(#464));
#339=EDGE_LOOP('',(#465,#466,#467,#468));
#340=AXIS2_PLACEMENT_3D('',#469,#470,#471);
#341=DRAUGHTING_PRE_DEFINED_CURVE_FONT('continuous');
#342=COLOUR_RGB('',0.509803950786591,0.509803950786591,0.588235318660736);
#343=CARTESIAN_POINT('',(-12.5,3.77693709923142E-015,3.69999999999996));
#344=VECTOR('',#472,1.0);
#345=DRAUGHTING_PRE_DEFINED_CURVE_FONT('continuous');
#346=COLOUR_RGB('',0.509803950786591,0.509803950786591,0.588235318660736);
#347=AXIS2_PLACEMENT_3D('',#473,#474,#475);
#348=DRAUGHTING_PRE_DEFINED_CURVE_FONT('continuous');
#349=COLOUR_RGB('',0.509803950786591,0.509803950786591,0.588235318660736);
#350=AXIS2_PLACEMENT_3D('',#476,#477,#478);
#351=SURFACE_SIDE_STYLE('',(#479));
#352=EDGE_LOOP('',(#480,#481,#482,#483));
#353=AXIS2_PLACEMENT_3D('',#484,#485,#486);
#354=DRAUGHTING_PRE_DEFINED_CURVE_FONT('continuous');
#355=COLOUR_RGB('',0.509803950786591,0.509803950786591,0.588235318660736);
#356=AXIS2_PLACEMENT_3D('',#487,#488,#489);
#357=SURFACE_SIDE_STYLE('',(#490));
#358=EDGE_LOOP('',(#491,#492,#493,#494));
#359=AXIS2_PLACEMENT_3D('',#495,#496,#497);
#360=DRAUGHTING_PRE_DEFINED_CURVE_FONT('continuous');
#361=COLOUR_RGB('',0.509803950786591,0.509803950786591,0.588235318660736);
#362=CARTESIAN_POINT('',(22.0000000000001,1.36109472919408E-014,6.99999999999994));
#363=VECTOR('',#498,1.0);
#364=PRE_DEFINED_MARKER('');
#365=COLOUR_RGB('',0.509803950786591,0.509803950786591,0.588235318660736);
#366=SURFACE_SIDE_STYLE('',(#499));
#367=EDGE_LOOP('',(#500,#501,#502,#503));
#368=AXIS2_PLACEMENT_3D('',#504,#505,#506);
#369=DRAUGHTING_PRE_DEFINED_CURVE_FONT('continuous');
#370=COLOUR_RGB('',0.509803950786591,0.509803950786591,0.588235318660736);
#371=AXIS2_PLACEMENT_3D('',#507,#508,#509);
#372=DRAUGHTING_PRE_DEFINED_CURVE_FONT('continuous');
#373=COLOUR_RGB('',0.509803950786591,0.509803950786591,0.588235318660736);
#374=AXIS2_PLACEMENT_3D('',#510,#511,#512);
#375=DRAUGHTING_PRE_DEFINED_CURVE_FONT('continuous');
#376=COLOUR_RGB('',0.509803950786591,0.509803950786591,0.588235318660736);
#377=AXIS2_PLACEMENT_3D('',#513,#514,#515);
#378=SURFACE_SIDE_STYLE('',(#516));
#379=EDGE_LOOP('',(#517,#518,#519,#520));
#380=AXIS2_PLACEMENT_3D('',#521,#522,#523);
#381=DRAUGHTING_PRE_DEFINED_CURVE_FONT('continuous');
#382=COLOUR_RGB('',0.509803950786591,0.509803950786591,0.588235318660736);
#383=CARTESIAN_POINT('',(-22.0,1.06902124906509E-015,6.99999999999994));
#384=VECTOR('',#524,1.0);
#385=PRE_DEFINED_MARKER('');
#386=COLOUR_RGB('',0.509803950786591,0.509803950786591,0.588235318660736);
#387=PRE_DEFINED_MARKER('');
#388=COLOUR_RGB('',0.509803950786591,0.509803950786591,0.588235318660736);
#389=PRE_DEFINED_MARKER('');
#390=COLOUR_RGB('',0.509803950786591,0.509803950786591,0.588235318660736);
#391=PRE_DEFINED_MARKER('');
#392=COLOUR_RGB('',0.509803950786591,0.509803950786591,0.588235318660736);
#393=PRE_DEFINED_MARKER('');
#394=COLOUR_RGB('',0.509803950786591,0.509803950786591,0.588235318660736);
#396=DIRECTION('',(0.707106781186548,2.01556385319489E-016,-0.707106781186548));
#397=SURFACE_STYLE_FILL_AREA(#525);
#398=ORIENTED_EDGE('',*,*,#115,.F.);
#399=ORIENTED_EDGE('',*,*,#123,.F.);
#400=ORIENTED_EDGE('',*,*,#97,.F.);
#401=ORIENTED_EDGE('',*,*,#133,.T.);
#402=CARTESIAN_POINT('',(2.8421709430404E-014,7.33998427050292E-015,3.69999999999996));
#403=DIRECTION('',(0.0,-0.0,1.0));
#404=DIRECTION('',(-1.0,-1.62583138319482E-016,0.0));
#405=SURFACE_STYLE_FILL_AREA(#526);
#406=ORIENTED_EDGE('',*,*,#137,.F.);
#407=ORIENTED_EDGE('',*,*,#117,.F.);
#408=ORIENTED_EDGE('',*,*,#107,.F.);
#409=ORIENTED_EDGE('',*,*,#135,.F.);
#410=CARTESIAN_POINT('',(1.11910480882216E-013,8.6158955122484E-015,29.0379000772444));
#411=DIRECTION('',(0.0,0.0,-1.0));
#412=DIRECTION('',(1.0,1.22460635382238E-016,0.0));
#413=CARTESIAN_POINT('',(2.8421709430404E-014,7.33998427050292E-015,8.19999999999996));
#414=DIRECTION('',(-0.0,0.0,-1.0));
#415=DIRECTION('',(-1.0,-1.62583138319482E-016,0.0));
#416=CARTESIAN_POINT('',(2.8421709430404E-014,7.33998427050292E-015,8.19999999999996));
#417=DIRECTION('',(-0.0,0.0,-1.0));
#418=DIRECTION('',(-1.0,-1.62583138319482E-016,0.0));
#419=SURFACE_STYLE_FILL_AREA(#527);
#420=ORIENTED_EDGE('',*,*,#69,.T.);
#421=ORIENTED_EDGE('',*,*,#89,.T.);
#422=ORIENTED_EDGE('',*,*,#87,.T.);
#423=ORIENTED_EDGE('',*,*,#81,.F.);
#424=CARTESIAN_POINT('',(2.8421709430404E-014,7.33998427050292E-015,7.79999999999995));
#425=DIRECTION('',(0.0,-0.0,1.0));
#426=DIRECTION('',(-1.0,-1.62583138319482E-016,0.0));
#427=DIRECTION('',(0.707106781186548,2.01556385319489E-016,0.707106781186548));
#428=CARTESIAN_POINT('',(2.8421709430404E-014,7.33998427050292E-015,7.39999999999995));
#429=DIRECTION('',(-0.0,0.0,-1.0));
#430=DIRECTION('',(-1.0,-1.62583138319482E-016,0.0));
#431=CARTESIAN_POINT('',(1.11910480882216E-013,8.6158955122484E-015,-2.8421709430404E-014));
#432=DIRECTION('',(0.0,0.0,-1.0));
#433=DIRECTION('',(0.0,-1.0,0.0));
#434=SURFACE_STYLE_FILL_AREA(#528);
#435=DIRECTION('',(0.0,0.0,1.0));
#436=CARTESIAN_POINT('',(2.8421709430404E-014,7.33998427050292E-015,8.19999999999996));
#437=DIRECTION('',(-0.0,0.0,-1.0));
#438=DIRECTION('',(-1.0,-1.62583138319482E-016,0.0));
#439=CARTESIAN_POINT('',(2.8421709430404E-014,7.33998427050292E-015,5.79999999999993));
#440=DIRECTION('',(0.0,0.0,1.0));
#441=DIRECTION('',(-1.0,-1.62583138319482E-016,0.0));
#442=SURFACE_STYLE_FILL_AREA(#529);
#443=ORIENTED_EDGE('',*,*,#117,.T.);
#444=ORIENTED_EDGE('',*,*,#93,.T.);
#445=ORIENTED_EDGE('',*,*,#119,.F.);
#446=ORIENTED_EDGE('',*,*,#133,.F.);
#447=CARTESIAN_POINT('',(-17.25,4.72544970509214E-015,-2.8421709430404E-014));
#448=DIRECTION('',(0.0,0.0,-1.0));
#449=DIRECTION('',(1.0,1.22460635382238E-016,0.0));
#450=CARTESIAN_POINT('',(1.11910480882216E-013,8.6158955122484E-015,29.0379000772444));
#451=DIRECTION('',(2.44921270764475E-016,-1.0,0.0));
#452=DIRECTION('',(-0.0,0.0,1.0));
#453=SURFACE_STYLE_FILL_AREA(#530);
#454=ORIENTED_EDGE('',*,*,#111,.F.);
#455=ORIENTED_EDGE('',*,*,#77,.F.);
#456=ORIENTED_EDGE('',*,*,#81,.T.);
#457=ORIENTED_EDGE('',*,*,#101,.T.);
#458=CARTESIAN_POINT('',(-17.65,5.17855405600642E-015,8.19999999999996));
#459=DIRECTION('',(0.0,0.0,1.0));
#460=DIRECTION('',(-1.0,-1.22460635382238E-016,0.0));
#461=CARTESIAN_POINT('',(2.8421709430404E-014,7.33998427050292E-015,8.19999999999996));
#462=DIRECTION('',(-0.0,0.0,-1.0));
#463=DIRECTION('',(-1.0,-1.62583138319482E-016,0.0));
#464=SURFACE_STYLE_FILL_AREA(#531);
#465=ORIENTED_EDGE('',*,*,#141,.T.);
#466=ORIENTED_EDGE('',*,*,#103,.T.);
#467=ORIENTED_EDGE('',*,*,#127,.T.);
#468=ORIENTED_EDGE('',*,*,#77,.T.);
#469=CARTESIAN_POINT('',(2.8421709430404E-014,7.33998427050292E-015,4.09999999999997));
#470=DIRECTION('',(0.0,-0.0,1.0));
#471=DIRECTION('',(-1.0,-1.62583138319482E-016,0.0));
#472=DIRECTION('',(0.0,0.0,-1.0));
#473=CARTESIAN_POINT('',(1.11910480882216E-013,8.6158955122484E-015,-2.8421709430404E-014));
#474=DIRECTION('',(0.0,0.0,-1.0));
#475=DIRECTION('',(0.0,-1.0,0.0));
#476=CARTESIAN_POINT('',(2.8421709430404E-014,7.33998427050292E-015,-2.8421709430404E-014));
#477=DIRECTION('',(-0.0,0.0,-1.0));
#478=DIRECTION('',(-1.0,-1.62583138319482E-016,0.0));
#479=SURFACE_STYLE_FILL_AREA(#532);
#480=ORIENTED_EDGE('',*,*,#137,.T.);
#481=ORIENTED_EDGE('',*,*,#103,.F.);
#482=ORIENTED_EDGE('',*,*,#107,.T.);
#483=ORIENTED_EDGE('',*,*,#93,.F.);
#484=CARTESIAN_POINT('',(1.11910480882216E-013,8.6158955122484E-015,29.0379000772444));
#485=DIRECTION('',(0.0,0.0,-1.0));
#486=DIRECTION('',(1.0,1.22460635382238E-016,0.0));
#487=CARTESIAN_POINT('',(2.8421709430404E-014,7.33998427050292E-015,7.39999999999995));
#488=DIRECTION('',(-0.0,0.0,-1.0));
#489=DIRECTION('',(-1.0,-1.62583138319482E-016,0.0));
#490=SURFACE_STYLE_FILL_AREA(#533);
#491=ORIENTED_EDGE('',*,*,#115,.T.);
#492=ORIENTED_EDGE('',*,*,#119,.T.);
#493=ORIENTED_EDGE('',*,*,#97,.T.);
#494=ORIENTED_EDGE('',*,*,#89,.F.);
#495=CARTESIAN_POINT('',(2.8421709430404E-014,7.33998427050292E-015,3.69999999999996));
#496=DIRECTION('',(0.0,-0.0,1.0));
#497=DIRECTION('',(-1.0,-1.62583138319482E-016,0.0));
#498=DIRECTION('',(-0.0,-0.0,1.0));
#499=SURFACE_STYLE_FILL_AREA(#534);
#500=ORIENTED_EDGE('',*,*,#141,.F.);
#501=ORIENTED_EDGE('',*,*,#111,.T.);
#502=ORIENTED_EDGE('',*,*,#127,.F.);
#503=ORIENTED_EDGE('',*,*,#135,.T.);
#504=CARTESIAN_POINT('',(2.8421709430404E-014,7.33998427050292E-015,4.09999999999997));
#505=DIRECTION('',(0.0,-0.0,1.0));
#506=DIRECTION('',(-1.0,-1.62583138319482E-016,0.0));
#507=CARTESIAN_POINT('',(2.8421709430404E-014,7.33998427050292E-015,-2.8421709430404E-014));
#508=DIRECTION('',(-0.0,0.0,-1.0));
#509=DIRECTION('',(-1.0,-1.62583138319482E-016,0.0));
#510=CARTESIAN_POINT('',(2.8421709430404E-014,7.33998427050292E-015,5.79999999999993));
#511=DIRECTION('',(0.0,0.0,1.0));
#512=DIRECTION('',(-1.0,-1.62583138319482E-016,0.0));
#513=CARTESIAN_POINT('',(1.11910480882216E-013,8.6158955122484E-015,29.0379000772444));
#514=DIRECTION('',(2.44921270764475E-016,-1.0,0.0));
#515=DIRECTION('',(-0.0,0.0,1.0));
#516=SURFACE_STYLE_FILL_AREA(#535);
#517=ORIENTED_EDGE('',*,*,#69,.F.);
#518=ORIENTED_EDGE('',*,*,#101,.F.);
#519=ORIENTED_EDGE('',*,*,#87,.F.);
#520=ORIENTED_EDGE('',*,*,#123,.T.);
#521=CARTESIAN_POINT('',(2.8421709430404E-014,7.33998427050292E-015,7.79999999999995));
#522=DIRECTION('',(0.0,-0.0,1.0));
#523=DIRECTION('',(-1.0,-1.62583138319482E-016,0.0));
#524=DIRECTION('',(0.0,0.0,-1.0));
#525=FILL_AREA_STYLE('',(#536));
#526=FILL_AREA_STYLE('',(#537));
#527=FILL_AREA_STYLE('',(#538));
#528=FILL_AREA_STYLE('',(#539));
#529=FILL_AREA_STYLE('',(#540));
#530=FILL_AREA_STYLE('',(#541));
#531=FILL_AREA_STYLE('',(#542));
#532=FILL_AREA_STYLE('',(#543));
#533=FILL_AREA_STYLE('',(#544));
#534=FILL_AREA_STYLE('',(#545));
#535=FILL_AREA_STYLE('',(#546));
#536=FILL_AREA_STYLE_COLOUR('',#547);
#537=FILL_AREA_STYLE_COLOUR('',#548);
#538=FILL_AREA_STYLE_COLOUR('',#549);
#539=FILL_AREA_STYLE_COLOUR('',#550);
#540=FILL_AREA_STYLE_COLOUR('',#551);
#541=FILL_AREA_STYLE_COLOUR('',#552);
#542=FILL_AREA_STYLE_COLOUR('',#553);
#543=FILL_AREA_STYLE_COLOUR('',#554);
#544=FILL_AREA_STYLE_COLOUR('',#555);
#545=FILL_AREA_STYLE_COLOUR('',#556);
#546=FILL_AREA_STYLE_COLOUR('',#557);
#547=COLOUR_RGB('',0.509803950786591,0.509803950786591,0.588235318660736);
#548=COLOUR_RGB('',0.509803950786591,0.509803950786591,0.588235318660736);
#549=COLOUR_RGB('',0.509803950786591,0.509803950786591,0.588235318660736);
#550=COLOUR_RGB('',0.509803950786591,0.509803950786591,0.588235318660736);
#551=COLOUR_RGB('',0.509803950786591,0.509803950786591,0.588235318660736);
#552=COLOUR_RGB('',0.509803950786591,0.509803950786591,0.588235318660736);
#553=COLOUR_RGB('',0.509803950786591,0.509803950786591,0.588235318660736);
#554=COLOUR_RGB('',0.509803950786591,0.509803950786591,0.588235318660736);
#555=COLOUR_RGB('',0.509803950786591,0.509803950786591,0.588235318660736);
#556=COLOUR_RGB('',0.509803950786591,0.509803950786591,0.588235318660736);
#557=COLOUR_RGB('',0.509803950786591,0.509803950786591,0.588235318660736);
ENDSEC;
END-ISO-10303-21;
