ISO-10303-21;
HEADER;
FILE_DESCRIPTION(('STEP AP214'),'1');
FILE_NAME(' ','  ',('TraceParts'),('TraceParts S.A.'),'XStep 1.0',' ',' ');
FILE_SCHEMA(('automotive_design'));
ENDSEC;
DATA;
#1=MECHANICAL_DESIGN_GEOMETRIC_PRESENTATION_REPRESENTATION(' ',(#10,#11,#12,#13,#14,#15,#16,#17,#18,#19,#20,#21,#22,#23,#24,#25,#26,#27,#28,#29,#30,#31,#32,#33,#34,#35,#36,#37,#38,#39,#40,#41,#42,#43,#44,#45,#46,#47,#48,#49,#50,#51,#52),#6);
#2=PRODUCT_DEFINITION_CONTEXT('',#53,'design');
#3=APPLICATION_PROTOCOL_DEFINITION('INTERNATIONAL STANDARD','automotive_design',1994,#53);
#4=PRODUCT_CATEGORY_RELATIONSHIP('NONE','NONE',#54,#55);
#5=SHAPE_DEFINITION_REPRESENTATION(#56,#57);
#6= (GEOMETRIC_REPRESENTATION_CONTEXT(3)GLOBAL_UNCERTAINTY_ASSIGNED_CONTEXT((#60))GLOBAL_UNIT_ASSIGNED_CONTEXT((#62,#63,#64))REPRESENTATION_CONTEXT('NONE','WORKSPACE'));
#10=STYLED_ITEM('',(#66),#67);
#11=STYLED_ITEM('',(#68),#69);
#12=STYLED_ITEM('',(#70),#71);
#13=STYLED_ITEM('',(#72),#73);
#14=STYLED_ITEM('',(#74),#75);
#15=STYLED_ITEM('',(#76),#77);
#16=STYLED_ITEM('',(#78),#79);
#17=STYLED_ITEM('',(#80),#81);
#18=STYLED_ITEM('',(#82),#83);
#19=STYLED_ITEM('',(#84),#85);
#20=STYLED_ITEM('',(#86),#87);
#21=STYLED_ITEM('',(#88),#89);
#22=STYLED_ITEM('',(#90),#91);
#23=STYLED_ITEM('',(#92),#93);
#24=STYLED_ITEM('',(#94),#95);
#25=STYLED_ITEM('',(#96),#97);
#26=STYLED_ITEM('',(#98),#99);
#27=STYLED_ITEM('',(#100),#101);
#28=STYLED_ITEM('',(#102),#103);
#29=STYLED_ITEM('',(#104),#105);
#30=STYLED_ITEM('',(#106),#107);
#31=STYLED_ITEM('',(#108),#109);
#32=STYLED_ITEM('',(#110),#111);
#33=STYLED_ITEM('',(#112),#113);
#34=STYLED_ITEM('',(#114),#115);
#35=STYLED_ITEM('',(#116),#117);
#36=STYLED_ITEM('',(#118),#119);
#37=STYLED_ITEM('',(#120),#121);
#38=STYLED_ITEM('',(#122),#123);
#39=STYLED_ITEM('',(#124),#125);
#40=STYLED_ITEM('',(#126),#127);
#41=STYLED_ITEM('',(#128),#129);
#42=STYLED_ITEM('',(#130),#131);
#43=STYLED_ITEM('',(#132),#133);
#44=STYLED_ITEM('',(#134),#135);
#45=STYLED_ITEM('',(#136),#137);
#46=STYLED_ITEM('',(#138),#139);
#47=STYLED_ITEM('',(#140),#141);
#48=STYLED_ITEM('',(#142),#143);
#49=STYLED_ITEM('',(#144),#145);
#50=STYLED_ITEM('',(#146),#147);
#51=STYLED_ITEM('',(#148),#149);
#52=STYLED_ITEM('',(#150),#151);
#53=APPLICATION_CONTEXT(' ');
#54=PRODUCT_CATEGORY('part','NONE');
#55=PRODUCT_RELATED_PRODUCT_CATEGORY('detail',' ',(#152));
#56=PRODUCT_DEFINITION_SHAPE('NONE','NONE',#153);
#57=ADVANCED_BREP_SHAPE_REPRESENTATION('1',(#103,#154),#6);
#60=UNCERTAINTY_MEASURE_WITH_UNIT(LENGTH_MEASURE(1.0E-006),#62,'','');
#62= (CONVERSION_BASED_UNIT('MILLIMETRE',#157)LENGTH_UNIT()NAMED_UNIT(#160));
#63= (NAMED_UNIT(#162)PLANE_ANGLE_UNIT()SI_UNIT($,.RADIAN.));
#64= (NAMED_UNIT(#162)SOLID_ANGLE_UNIT()SI_UNIT($,.STERADIAN.));
#66=PRESENTATION_STYLE_ASSIGNMENT((#168));
#67=ADVANCED_FACE('',(#169),#170,.T.);
#68=PRESENTATION_STYLE_ASSIGNMENT((#171));
#69=ADVANCED_FACE('',(#172),#173,.T.);
#70=PRESENTATION_STYLE_ASSIGNMENT((#174));
#71=EDGE_CURVE('',#149,#117,#175,.T.);
#72=PRESENTATION_STYLE_ASSIGNMENT((#176));
#73=VERTEX_POINT('',#177);
#74=PRESENTATION_STYLE_ASSIGNMENT((#178));
#75=EDGE_CURVE('',#139,#127,#179,.T.);
#76=PRESENTATION_STYLE_ASSIGNMENT((#180));
#77=ADVANCED_FACE('',(#181,#182),#183,.T.);
#78=PRESENTATION_STYLE_ASSIGNMENT((#184));
#79=VERTEX_POINT('',#185);
#80=PRESENTATION_STYLE_ASSIGNMENT((#186));
#81=EDGE_CURVE('',#117,#93,#187,.T.);
#82=PRESENTATION_STYLE_ASSIGNMENT((#188));
#83=ADVANCED_FACE('',(#189),#190,.F.);
#84=PRESENTATION_STYLE_ASSIGNMENT((#191));
#85=EDGE_CURVE('',#127,#73,#192,.T.);
#86=PRESENTATION_STYLE_ASSIGNMENT((#193));
#87=EDGE_CURVE('',#131,#79,#194,.T.);
#88=PRESENTATION_STYLE_ASSIGNMENT((#195));
#89=EDGE_CURVE('',#111,#139,#196,.T.);
#90=PRESENTATION_STYLE_ASSIGNMENT((#197));
#91=EDGE_CURVE('',#93,#137,#198,.T.);
#92=PRESENTATION_STYLE_ASSIGNMENT((#199));
#93=VERTEX_POINT('',#200);
#94=PRESENTATION_STYLE_ASSIGNMENT((#201));
#95=EDGE_CURVE('',#73,#111,#202,.T.);
#96=PRESENTATION_STYLE_ASSIGNMENT((#203));
#97=ADVANCED_FACE('',(#204,#205),#206,.T.);
#98=PRESENTATION_STYLE_ASSIGNMENT((#207));
#99=EDGE_CURVE('',#79,#131,#208,.T.);
#100=PRESENTATION_STYLE_ASSIGNMENT((#209));
#101=EDGE_CURVE('',#111,#73,#210,.T.);
#102=PRESENTATION_STYLE_ASSIGNMENT((#211));
#103=MANIFOLD_SOLID_BREP('1',#212);
#104=PRESENTATION_STYLE_ASSIGNMENT((#213));
#105=EDGE_CURVE('',#127,#139,#214,.T.);
#106=PRESENTATION_STYLE_ASSIGNMENT((#215));
#107=EDGE_CURVE('',#73,#79,#216,.T.);
#108=PRESENTATION_STYLE_ASSIGNMENT((#217));
#109=EDGE_CURVE('',#147,#135,#218,.T.);
#110=PRESENTATION_STYLE_ASSIGNMENT((#219));
#111=VERTEX_POINT('',#220);
#112=PRESENTATION_STYLE_ASSIGNMENT((#221));
#113=EDGE_CURVE('',#137,#149,#222,.T.);
#114=PRESENTATION_STYLE_ASSIGNMENT((#223));
#115=ADVANCED_FACE('',(#224),#225,.F.);
#116=PRESENTATION_STYLE_ASSIGNMENT((#226));
#117=VERTEX_POINT('',#227);
#118=PRESENTATION_STYLE_ASSIGNMENT((#228));
#119=EDGE_CURVE('',#137,#135,#229,.T.);
#120=PRESENTATION_STYLE_ASSIGNMENT((#230));
#121=EDGE_CURVE('',#131,#111,#231,.T.);
#122=PRESENTATION_STYLE_ASSIGNMENT((#232));
#123=ADVANCED_FACE('',(#233),#234,.T.);
#124=PRESENTATION_STYLE_ASSIGNMENT((#235));
#125=ADVANCED_FACE('',(#236),#237,.F.);
#126=PRESENTATION_STYLE_ASSIGNMENT((#238));
#127=VERTEX_POINT('',#239);
#128=PRESENTATION_STYLE_ASSIGNMENT((#240));
#129=EDGE_CURVE('',#149,#137,#241,.T.);
#130=PRESENTATION_STYLE_ASSIGNMENT((#242));
#131=VERTEX_POINT('',#243);
#132=PRESENTATION_STYLE_ASSIGNMENT((#244));
#133=EDGE_CURVE('',#135,#147,#245,.T.);
#134=PRESENTATION_STYLE_ASSIGNMENT((#246));
#135=VERTEX_POINT('',#247);
#136=PRESENTATION_STYLE_ASSIGNMENT((#248));
#137=VERTEX_POINT('',#249);
#138=PRESENTATION_STYLE_ASSIGNMENT((#250));
#139=VERTEX_POINT('',#251);
#140=PRESENTATION_STYLE_ASSIGNMENT((#252));
#141=EDGE_CURVE('',#147,#149,#253,.T.);
#142=PRESENTATION_STYLE_ASSIGNMENT((#254));
#143=EDGE_CURVE('',#93,#117,#255,.T.);
#144=PRESENTATION_STYLE_ASSIGNMENT((#256));
#145=ADVANCED_FACE('',(#257),#258,.F.);
#146=PRESENTATION_STYLE_ASSIGNMENT((#259));
#147=VERTEX_POINT('',#260);
#148=PRESENTATION_STYLE_ASSIGNMENT((#261));
#149=VERTEX_POINT('',#262);
#150=PRESENTATION_STYLE_ASSIGNMENT((#263));
#151=ADVANCED_FACE('',(#264),#265,.T.);
#152=PRODUCT('1','1','PART-1-DESC',(#266));
#153=PRODUCT_DEFINITION('NONE','NONE',#267,#2);
#154=AXIS2_PLACEMENT_3D('',#268,#269,#270);
#157=LENGTH_MEASURE_WITH_UNIT(LENGTH_MEASURE(1.0),#271);
#160=DIMENSIONAL_EXPONENTS(1.0,0.0,0.0,0.0,0.0,0.0,0.0);
#162=DIMENSIONAL_EXPONENTS(0.0,0.0,0.0,0.0,0.0,0.0,0.0);
#168=SURFACE_STYLE_USAGE(.BOTH.,#272);
#169=FACE_OUTER_BOUND('',#273,.T.);
#170=SPHERICAL_SURFACE('',#274,27.0000000000003);
#171=SURFACE_STYLE_USAGE(.BOTH.,#275);
#172=FACE_OUTER_BOUND('',#276,.T.);
#173=CYLINDRICAL_SURFACE('',#277,18.0);
#174=CURVE_STYLE('',#278,POSITIVE_LENGTH_MEASURE(1.0E-006),#279);
#175=LINE('',#280,#281);
#176=POINT_STYLE(' ',#282,POSITIVE_LENGTH_MEASURE(1.0E-006),#283);
#177=CARTESIAN_POINT('',(10.5000000000001,9.80712925636861E-015,5.80000000000001));
#178=CURVE_STYLE('',#284,POSITIVE_LENGTH_MEASURE(1.0E-006),#285);
#179=CIRCLE('',#286,10.5);
#180=SURFACE_STYLE_USAGE(.BOTH.,#287);
#181=FACE_OUTER_BOUND('',#288,.T.);
#182=FACE_BOUND('',#289,.T.);
#183=PLANE('',#290);
#184=POINT_STYLE(' ',#291,POSITIVE_LENGTH_MEASURE(1.0E-006),#292);
#185=CARTESIAN_POINT('',(11.0000000000001,9.94793818624454E-015,6.30000000000001));
#186=CURVE_STYLE('',#293,POSITIVE_LENGTH_MEASURE(1.0E-006),#294);
#187=CIRCLE('',#295,18.0);
#188=SURFACE_STYLE_USAGE(.BOTH.,#296);
#189=FACE_OUTER_BOUND('',#297,.T.);
#190=CONICAL_SURFACE('',#298,10.75,0.785398163397448);
#191=CURVE_STYLE('',#299,POSITIVE_LENGTH_MEASURE(1.0E-006),#300);
#192=LINE('',#301,#302);
#193=CURVE_STYLE('',#303,POSITIVE_LENGTH_MEASURE(1.0E-006),#304);
#194=CIRCLE('',#305,11.0);
#195=CURVE_STYLE('',#306,POSITIVE_LENGTH_MEASURE(1.0E-006),#307);
#196=LINE('',#308,#309);
#197=CURVE_STYLE('',#310,POSITIVE_LENGTH_MEASURE(1.0E-006),#311);
#198=LINE('',#312,#313);
#199=POINT_STYLE(' ',#314,POSITIVE_LENGTH_MEASURE(1.0E-006),#315);
#200=CARTESIAN_POINT('',(-18.0,4.64585029209369E-015,6.30000000000001));
#201=CURVE_STYLE('',#316,POSITIVE_LENGTH_MEASURE(1.0E-006),#317);
#202=CIRCLE('',#318,10.5);
#203=SURFACE_STYLE_USAGE(.BOTH.,#319);
#204=FACE_OUTER_BOUND('',#320,.T.);
#205=FACE_BOUND('',#321,.T.);
#206=PLANE('',#322);
#207=CURVE_STYLE('',#323,POSITIVE_LENGTH_MEASURE(1.0E-006),#324);
#208=CIRCLE('',#325,11.0);
#209=CURVE_STYLE('',#326,POSITIVE_LENGTH_MEASURE(1.0E-006),#327);
#210=CIRCLE('',#328,10.5);
#211=SURFACE_STYLE_USAGE(.BOTH.,#329);
#212=CLOSED_SHELL('',(#115,#123,#125,#67,#151,#83,#97,#69,#77,#145));
#213=CURVE_STYLE('',#330,POSITIVE_LENGTH_MEASURE(1.0E-006),#331);
#214=CIRCLE('',#332,10.5);
#215=CURVE_STYLE('',#333,POSITIVE_LENGTH_MEASURE(1.0E-006),#334);
#216=LINE('',#335,#336);
#217=CURVE_STYLE('',#337,POSITIVE_LENGTH_MEASURE(1.0E-006),#338);
#218=CIRCLE('',#339,11.5081857189362);
#219=POINT_STYLE(' ',#340,POSITIVE_LENGTH_MEASURE(1.0E-006),#341);
#220=CARTESIAN_POINT('',(-10.5,5.53368989861491E-015,5.80000000000001));
#221=CURVE_STYLE('',#342,POSITIVE_LENGTH_MEASURE(1.0E-006),#343);
#222=CIRCLE('',#344,18.0);
#223=SURFACE_STYLE_USAGE(.BOTH.,#345);
#224=FACE_OUTER_BOUND('',#346,.T.);
#225=CYLINDRICAL_SURFACE('',#347,10.5);
#226=POINT_STYLE(' ',#348,POSITIVE_LENGTH_MEASURE(1.0E-006),#349);
#227=CARTESIAN_POINT('',(18.0000000000001,1.19192632045076E-014,6.30000000000001));
#228=CURVE_STYLE('',#350,POSITIVE_LENGTH_MEASURE(1.0E-006),#351);
#229=CIRCLE('',#352,27.0000000000003);
#230=CURVE_STYLE('',#353,POSITIVE_LENGTH_MEASURE(1.0E-006),#354);
#231=LINE('',#355,#356);
#232=SURFACE_STYLE_USAGE(.BOTH.,#357);
#233=FACE_OUTER_BOUND('',#358,.T.);
#234=CYLINDRICAL_SURFACE('',#359,18.0);
#235=SURFACE_STYLE_USAGE(.BOTH.,#360);
#236=FACE_OUTER_BOUND('',#361,.T.);
#237=CONICAL_SURFACE('',#362,10.75,0.785398163397448);
#238=POINT_STYLE(' ',#363,POSITIVE_LENGTH_MEASURE(1.0E-006),#364);
#239=CARTESIAN_POINT('',(10.5000000000001,9.80712925636861E-015,-2.8421709430404E-014));
#240=CURVE_STYLE('',#365,POSITIVE_LENGTH_MEASURE(1.0E-006),#366);
#241=CIRCLE('',#367,18.0);
#242=POINT_STYLE(' ',#368,POSITIVE_LENGTH_MEASURE(1.0E-006),#369);
#243=CARTESIAN_POINT('',(-11.0,5.50307473976935E-015,6.30000000000001));
#244=CURVE_STYLE('',#370,POSITIVE_LENGTH_MEASURE(1.0E-006),#371);
#245=CIRCLE('',#372,11.5081857189362);
#246=POINT_STYLE(' ',#373,POSITIVE_LENGTH_MEASURE(1.0E-006),#374);
#247=CARTESIAN_POINT('',(-11.5081857189356,5.05509099228226E-015,-4.2632564145606E-014));
#248=POINT_STYLE(' ',#375,POSITIVE_LENGTH_MEASURE(1.0E-006),#376);
#249=CARTESIAN_POINT('',(-17.9999999999999,4.52338965671145E-015,4.29999999999997));
#250=POINT_STYLE(' ',#377,POSITIVE_LENGTH_MEASURE(1.0E-006),#378);
#251=CARTESIAN_POINT('',(-10.5,5.17855405600642E-015,-2.8421709430404E-014));
#252=CURVE_STYLE('',#379,POSITIVE_LENGTH_MEASURE(1.0E-006),#380);
#253=CIRCLE('',#381,27.0000000000003);
#254=CURVE_STYLE('',#382,POSITIVE_LENGTH_MEASURE(1.0E-006),#383);
#255=CIRCLE('',#384,18.0);
#256=SURFACE_STYLE_USAGE(.BOTH.,#385);
#257=FACE_OUTER_BOUND('',#386,.T.);
#258=CYLINDRICAL_SURFACE('',#387,10.5);
#259=POINT_STYLE(' ',#388,POSITIVE_LENGTH_MEASURE(1.0E-006),#389);
#260=CARTESIAN_POINT('',(11.5081857189363,1.07785169378384E-014,-1.4210854715202E-014));
#261=POINT_STYLE(' ',#390,POSITIVE_LENGTH_MEASURE(1.0E-006),#391);
#262=CARTESIAN_POINT('',(18.0000000000001,1.23685003411235E-014,4.29999999999984));
#263=SURFACE_STYLE_USAGE(.BOTH.,#392);
#264=FACE_OUTER_BOUND('',#393,.T.);
#265=SPHERICAL_SURFACE('',#394,27.0000000000003);
#266=PRODUCT_CONTEXT('',#53,'mechanical');
#267=PRODUCT_DEFINITION_FORMATION_WITH_SPECIFIED_SOURCE(' ','NONE',#152,.NOT_KNOWN.);
#268=CARTESIAN_POINT('',(0.0,0.0,0.0));
#269=DIRECTION('',(0.0,0.0,1.0));
#270=DIRECTION('',(1.0,0.0,0.0));
#271= (NAMED_UNIT(#160)LENGTH_UNIT()SI_UNIT(.MILLI.,.METRE.));
#272=SURFACE_SIDE_STYLE('',(#396));
#273=EDGE_LOOP('',(#397,#398,#399,#400));
#274=AXIS2_PLACEMENT_3D('',#401,#402,#403);
#275=SURFACE_SIDE_STYLE('',(#404));
#276=EDGE_LOOP('',(#405,#406,#407,#408));
#277=AXIS2_PLACEMENT_3D('',#409,#410,#411);
#278=DRAUGHTING_PRE_DEFINED_CURVE_FONT('continuous');
#279=COLOUR_RGB('',0.509803950786591,0.509803950786591,0.588235318660736);
#280=CARTESIAN_POINT('',(18.0000000000001,1.19192632045076E-014,5.29999999999993));
#281=VECTOR('',#412,1.0);
#282=PRE_DEFINED_MARKER('');
#283=COLOUR_RGB('',0.509803950786591,0.509803950786591,0.588235318660736);
#284=DRAUGHTING_PRE_DEFINED_CURVE_FONT('continuous');
#285=COLOUR_RGB('',0.509803950786591,0.509803950786591,0.588235318660736);
#286=AXIS2_PLACEMENT_3D('',#413,#414,#415);
#287=SURFACE_SIDE_STYLE('',(#416));
#288=EDGE_LOOP('',(#417,#418));
#289=EDGE_LOOP('',(#419,#420));
#290=AXIS2_PLACEMENT_3D('',#421,#422,#423);
#291=PRE_DEFINED_MARKER('');
#292=COLOUR_RGB('',0.509803950786591,0.509803950786591,0.588235318660736);
#293=DRAUGHTING_PRE_DEFINED_CURVE_FONT('continuous');
#294=COLOUR_RGB('',0.509803950786591,0.509803950786591,0.588235318660736);
#295=AXIS2_PLACEMENT_3D('',#424,#425,#426);
#296=SURFACE_SIDE_STYLE('',(#427));
#297=EDGE_LOOP('',(#428,#429,#430,#431));
#298=AXIS2_PLACEMENT_3D('',#432,#433,#434);
#299=DRAUGHTING_PRE_DEFINED_CURVE_FONT('continuous');
#300=COLOUR_RGB('',0.509803950786591,0.509803950786591,0.588235318660736);
#301=CARTESIAN_POINT('',(10.5000000000001,9.80712925636861E-015,2.89999999999999));
#302=VECTOR('',#435,1.0);
#303=DRAUGHTING_PRE_DEFINED_CURVE_FONT('continuous');
#304=COLOUR_RGB('',0.509803950786591,0.509803950786591,0.588235318660736);
#305=AXIS2_PLACEMENT_3D('',#436,#437,#438);
#306=DRAUGHTING_PRE_DEFINED_CURVE_FONT('continuous');
#307=COLOUR_RGB('',0.509803950786591,0.509803950786591,0.588235318660736);
#308=CARTESIAN_POINT('',(-10.5,3.89315420157933E-015,2.89999999999999));
#309=VECTOR('',#439,1.0);
#310=DRAUGHTING_PRE_DEFINED_CURVE_FONT('continuous');
#311=COLOUR_RGB('',0.509803950786591,0.509803950786591,0.588235318660736);
#312=CARTESIAN_POINT('',(-18.0,1.78102025344031E-015,5.29999999999993));
#313=VECTOR('',#440,1.0);
#314=PRE_DEFINED_MARKER('');
#315=COLOUR_RGB('',0.509803950786591,0.509803950786591,0.588235318660736);
#316=DRAUGHTING_PRE_DEFINED_CURVE_FONT('continuous');
#317=COLOUR_RGB('',0.509803950786591,0.509803950786591,0.588235318660736);
#318=AXIS2_PLACEMENT_3D('',#441,#442,#443);
#319=SURFACE_SIDE_STYLE('',(#444));
#320=EDGE_LOOP('',(#445,#446));
#321=EDGE_LOOP('',(#447,#448));
#322=AXIS2_PLACEMENT_3D('',#449,#450,#451);
#323=DRAUGHTING_PRE_DEFINED_CURVE_FONT('continuous');
#324=COLOUR_RGB('',0.509803950786591,0.509803950786591,0.588235318660736);
#325=AXIS2_PLACEMENT_3D('',#452,#453,#454);
#326=DRAUGHTING_PRE_DEFINED_CURVE_FONT('continuous');
#327=COLOUR_RGB('',0.509803950786591,0.509803950786591,0.588235318660736);
#328=AXIS2_PLACEMENT_3D('',#455,#456,#457);
#329=SURFACE_SIDE_STYLE('',(#458));
#330=DRAUGHTING_PRE_DEFINED_CURVE_FONT('continuous');
#331=COLOUR_RGB('',0.509803950786591,0.509803950786591,0.588235318660736);
#332=AXIS2_PLACEMENT_3D('',#459,#460,#461);
#333=DRAUGHTING_PRE_DEFINED_CURVE_FONT('continuous');
#334=COLOUR_RGB('',0.509803950786591,0.509803950786591,0.588235318660736);
#335=CARTESIAN_POINT('',(10.7500000000001,9.87753372130658E-015,6.05000000000001));
#336=VECTOR('',#462,1.0);
#337=DRAUGHTING_PRE_DEFINED_CURVE_FONT('continuous');
#338=COLOUR_RGB('',0.509803950786591,0.509803950786591,0.588235318660736);
#339=AXIS2_PLACEMENT_3D('',#463,#464,#465);
#340=PRE_DEFINED_MARKER('');
#341=COLOUR_RGB('',0.509803950786591,0.509803950786591,0.588235318660736);
#342=DRAUGHTING_PRE_DEFINED_CURVE_FONT('continuous');
#343=COLOUR_RGB('',0.509803950786591,0.509803950786591,0.588235318660736);
#344=AXIS2_PLACEMENT_3D('',#466,#467,#468);
#345=SURFACE_SIDE_STYLE('',(#469));
#346=EDGE_LOOP('',(#470,#471,#472,#473));
#347=AXIS2_PLACEMENT_3D('',#474,#475,#476);
#348=PRE_DEFINED_MARKER('');
#349=COLOUR_RGB('',0.509803950786591,0.509803950786591,0.588235318660736);
#350=DRAUGHTING_PRE_DEFINED_CURVE_FONT('continuous');
#351=COLOUR_RGB('',0.509803950786591,0.509803950786591,0.588235318660736);
#352=AXIS2_PLACEMENT_3D('',#477,#478,#479);
#353=DRAUGHTING_PRE_DEFINED_CURVE_FONT('continuous');
#354=COLOUR_RGB('',0.509803950786591,0.509803950786591,0.588235318660736);
#355=CARTESIAN_POINT('',(-10.75,3.82274973664136E-015,6.05000000000001));
#356=VECTOR('',#480,1.0);
#357=SURFACE_SIDE_STYLE('',(#481));
#358=EDGE_LOOP('',(#482,#483,#484,#485));
#359=AXIS2_PLACEMENT_3D('',#486,#487,#488);
#360=SURFACE_SIDE_STYLE('',(#489));
#361=EDGE_LOOP('',(#490,#491,#492,#493));
#362=AXIS2_PLACEMENT_3D('',#494,#495,#496);
#363=PRE_DEFINED_MARKER('');
#364=COLOUR_RGB('',0.509803950786591,0.509803950786591,0.588235318660736);
#365=DRAUGHTING_PRE_DEFINED_CURVE_FONT('continuous');
#366=COLOUR_RGB('',0.509803950786591,0.509803950786591,0.588235318660736);
#367=AXIS2_PLACEMENT_3D('',#497,#498,#499);
#368=PRE_DEFINED_MARKER('');
#369=COLOUR_RGB('',0.509803950786591,0.509803950786591,0.588235318660736);
#370=DRAUGHTING_PRE_DEFINED_CURVE_FONT('continuous');
#371=COLOUR_RGB('',0.509803950786591,0.509803950786591,0.588235318660736);
#372=AXIS2_PLACEMENT_3D('',#500,#501,#502);
#373=PRE_DEFINED_MARKER('');
#374=COLOUR_RGB('',0.509803950786591,0.509803950786591,0.588235318660736);
#375=PRE_DEFINED_MARKER('');
#376=COLOUR_RGB('',0.509803950786591,0.509803950786591,0.588235318660736);
#377=PRE_DEFINED_MARKER('');
#378=COLOUR_RGB('',0.509803950786591,0.509803950786591,0.588235318660736);
#379=DRAUGHTING_PRE_DEFINED_CURVE_FONT('continuous');
#380=COLOUR_RGB('',0.509803950786591,0.509803950786591,0.588235318660736);
#381=AXIS2_PLACEMENT_3D('',#503,#504,#505);
#382=DRAUGHTING_PRE_DEFINED_CURVE_FONT('continuous');
#383=COLOUR_RGB('',0.509803950786591,0.509803950786591,0.588235318660736);
#384=AXIS2_PLACEMENT_3D('',#506,#507,#508);
#385=SURFACE_SIDE_STYLE('',(#509));
#386=EDGE_LOOP('',(#510,#511,#512,#513));
#387=AXIS2_PLACEMENT_3D('',#514,#515,#516);
#388=PRE_DEFINED_MARKER('');
#389=COLOUR_RGB('',0.509803950786591,0.509803950786591,0.588235318660736);
#390=PRE_DEFINED_MARKER('');
#391=COLOUR_RGB('',0.509803950786591,0.509803950786591,0.588235318660736);
#392=SURFACE_SIDE_STYLE('',(#517));
#393=EDGE_LOOP('',(#518,#519,#520,#521));
#394=AXIS2_PLACEMENT_3D('',#522,#523,#524);
#396=SURFACE_STYLE_FILL_AREA(#525);
#397=ORIENTED_EDGE('',*,*,#141,.F.);
#398=ORIENTED_EDGE('',*,*,#133,.F.);
#399=ORIENTED_EDGE('',*,*,#119,.F.);
#400=ORIENTED_EDGE('',*,*,#129,.F.);
#401=CARTESIAN_POINT('',(1.58095758706622E-013,7.95991746736301E-015,24.4246117974983));
#402=DIRECTION('',(0.0,0.0,-1.0));
#403=DIRECTION('',(1.0,1.22460635382238E-016,0.0));
#404=SURFACE_STYLE_FILL_AREA(#526);
#405=ORIENTED_EDGE('',*,*,#91,.T.);
#406=ORIENTED_EDGE('',*,*,#113,.T.);
#407=ORIENTED_EDGE('',*,*,#71,.T.);
#408=ORIENTED_EDGE('',*,*,#81,.T.);
#409=CARTESIAN_POINT('',(2.8421709430404E-014,6.85014172897397E-015,3.15000000000001));
#410=DIRECTION('',(0.0,-0.0,1.0));
#411=DIRECTION('',(-1.0,-1.59157224369632E-016,0.0));
#412=DIRECTION('',(-0.0,-0.0,1.0));
#413=CARTESIAN_POINT('',(2.8421709430404E-014,6.85014172897397E-015,-2.8421709430404E-014));
#414=DIRECTION('',(-0.0,0.0,-1.0));
#415=DIRECTION('',(-1.0,-1.59157224369632E-016,0.0));
#416=SURFACE_STYLE_FILL_AREA(#527);
#417=ORIENTED_EDGE('',*,*,#133,.T.);
#418=ORIENTED_EDGE('',*,*,#109,.T.);
#419=ORIENTED_EDGE('',*,*,#75,.F.);
#420=ORIENTED_EDGE('',*,*,#105,.F.);
#421=CARTESIAN_POINT('',(-14.25,4.71932667332303E-015,-1.4210854715202E-014));
#422=DIRECTION('',(0.0,0.0,-1.0));
#423=DIRECTION('',(1.0,1.22460635382238E-016,0.0));
#424=CARTESIAN_POINT('',(2.8421709430404E-014,6.85014172897397E-015,6.30000000000001));
#425=DIRECTION('',(-0.0,0.0,-1.0));
#426=DIRECTION('',(-1.0,-1.59157224369632E-016,0.0));
#427=SURFACE_STYLE_FILL_AREA(#528);
#428=ORIENTED_EDGE('',*,*,#121,.T.);
#429=ORIENTED_EDGE('',*,*,#101,.T.);
#430=ORIENTED_EDGE('',*,*,#107,.T.);
#431=ORIENTED_EDGE('',*,*,#87,.F.);
#432=CARTESIAN_POINT('',(2.8421709430404E-014,6.85014172897397E-015,6.05000000000001));
#433=DIRECTION('',(0.0,-0.0,1.0));
#434=DIRECTION('',(-1.0,-1.59157224369632E-016,0.0));
#435=DIRECTION('',(0.0,0.0,1.0));
#436=CARTESIAN_POINT('',(2.8421709430404E-014,6.85014172897397E-015,6.30000000000001));
#437=DIRECTION('',(-0.0,0.0,-1.0));
#438=DIRECTION('',(-1.0,-1.59157224369632E-016,0.0));
#439=DIRECTION('',(0.0,0.0,-1.0));
#440=DIRECTION('',(0.0,0.0,-1.0));
#441=CARTESIAN_POINT('',(2.8421709430404E-014,6.85014172897397E-015,5.80000000000001));
#442=DIRECTION('',(-0.0,0.0,-1.0));
#443=DIRECTION('',(-1.0,-1.59157224369632E-016,0.0));
#444=SURFACE_STYLE_FILL_AREA(#529);
#445=ORIENTED_EDGE('',*,*,#143,.F.);
#446=ORIENTED_EDGE('',*,*,#81,.F.);
#447=ORIENTED_EDGE('',*,*,#87,.T.);
#448=ORIENTED_EDGE('',*,*,#99,.T.);
#449=CARTESIAN_POINT('',(-14.5,5.07446251593152E-015,6.30000000000001));
#450=DIRECTION('',(0.0,0.0,1.0));
#451=DIRECTION('',(-1.0,-1.22460635382238E-016,0.0));
#452=CARTESIAN_POINT('',(2.8421709430404E-014,6.85014172897397E-015,6.30000000000001));
#453=DIRECTION('',(-0.0,0.0,-1.0));
#454=DIRECTION('',(-1.0,-1.59157224369632E-016,0.0));
#455=CARTESIAN_POINT('',(2.8421709430404E-014,6.85014172897397E-015,5.80000000000001));
#456=DIRECTION('',(-0.0,0.0,-1.0));
#457=DIRECTION('',(-1.0,-1.59157224369632E-016,0.0));
#458=SURFACE_STYLE_FILL_AREA(#530);
#459=CARTESIAN_POINT('',(2.8421709430404E-014,6.85014172897397E-015,-2.8421709430404E-014));
#460=DIRECTION('',(-0.0,0.0,-1.0));
#461=DIRECTION('',(-1.0,-1.59157224369632E-016,0.0));
#462=DIRECTION('',(0.707106781186548,1.99133898333789E-016,0.707106781186547));
#463=CARTESIAN_POINT('',(1.58095758706622E-013,7.95991746736301E-015,-1.4210854715202E-014));
#464=DIRECTION('',(0.0,0.0,-1.0));
#465=DIRECTION('',(0.0,-1.0,0.0));
#466=CARTESIAN_POINT('',(2.8421709430404E-014,6.85014172897397E-015,4.29999999999984));
#467=DIRECTION('',(0.0,0.0,1.0));
#468=DIRECTION('',(-1.0,-1.59157224369632E-016,0.0));
#469=SURFACE_STYLE_FILL_AREA(#531);
#470=ORIENTED_EDGE('',*,*,#89,.F.);
#471=ORIENTED_EDGE('',*,*,#95,.F.);
#472=ORIENTED_EDGE('',*,*,#85,.F.);
#473=ORIENTED_EDGE('',*,*,#105,.T.);
#474=CARTESIAN_POINT('',(2.8421709430404E-014,6.85014172897397E-015,2.89999999999999));
#475=DIRECTION('',(0.0,-0.0,1.0));
#476=DIRECTION('',(-1.0,-1.59157224369632E-016,0.0));
#477=CARTESIAN_POINT('',(1.58095758706622E-013,7.95991746736301E-015,24.4246117974983));
#478=DIRECTION('',(2.44921270764476E-016,-1.0,0.0));
#479=DIRECTION('',(-0.0,0.0,1.0));
#480=DIRECTION('',(0.707106781186548,1.99133898333789E-016,-0.707106781186547));
#481=SURFACE_STYLE_FILL_AREA(#532);
#482=ORIENTED_EDGE('',*,*,#91,.F.);
#483=ORIENTED_EDGE('',*,*,#143,.T.);
#484=ORIENTED_EDGE('',*,*,#71,.F.);
#485=ORIENTED_EDGE('',*,*,#129,.T.);
#486=CARTESIAN_POINT('',(2.8421709430404E-014,6.85014172897397E-015,3.15000000000001));
#487=DIRECTION('',(0.0,-0.0,1.0));
#488=DIRECTION('',(-1.0,-1.59157224369632E-016,0.0));
#489=SURFACE_STYLE_FILL_AREA(#533);
#490=ORIENTED_EDGE('',*,*,#121,.F.);
#491=ORIENTED_EDGE('',*,*,#99,.F.);
#492=ORIENTED_EDGE('',*,*,#107,.F.);
#493=ORIENTED_EDGE('',*,*,#95,.T.);
#494=CARTESIAN_POINT('',(2.8421709430404E-014,6.85014172897397E-015,6.05000000000001));
#495=DIRECTION('',(0.0,-0.0,1.0));
#496=DIRECTION('',(-1.0,-1.59157224369632E-016,0.0));
#497=CARTESIAN_POINT('',(2.8421709430404E-014,6.85014172897397E-015,4.29999999999984));
#498=DIRECTION('',(0.0,0.0,1.0));
#499=DIRECTION('',(-1.0,-1.59157224369632E-016,0.0));
#500=CARTESIAN_POINT('',(1.58095758706622E-013,7.95991746736301E-015,-1.4210854715202E-014));
#501=DIRECTION('',(0.0,0.0,-1.0));
#502=DIRECTION('',(0.0,-1.0,0.0));
#503=CARTESIAN_POINT('',(1.58095758706622E-013,7.95991746736301E-015,24.4246117974983));
#504=DIRECTION('',(2.44921270764476E-016,-1.0,0.0));
#505=DIRECTION('',(-0.0,0.0,1.0));
#506=CARTESIAN_POINT('',(2.8421709430404E-014,6.85014172897397E-015,6.30000000000001));
#507=DIRECTION('',(-0.0,0.0,-1.0));
#508=DIRECTION('',(-1.0,-1.59157224369632E-016,0.0));
#509=SURFACE_STYLE_FILL_AREA(#534);
#510=ORIENTED_EDGE('',*,*,#89,.T.);
#511=ORIENTED_EDGE('',*,*,#75,.T.);
#512=ORIENTED_EDGE('',*,*,#85,.T.);
#513=ORIENTED_EDGE('',*,*,#101,.F.);
#514=CARTESIAN_POINT('',(2.8421709430404E-014,6.85014172897397E-015,2.89999999999999));
#515=DIRECTION('',(0.0,-0.0,1.0));
#516=DIRECTION('',(-1.0,-1.59157224369632E-016,0.0));
#517=SURFACE_STYLE_FILL_AREA(#535);
#518=ORIENTED_EDGE('',*,*,#141,.T.);
#519=ORIENTED_EDGE('',*,*,#113,.F.);
#520=ORIENTED_EDGE('',*,*,#119,.T.);
#521=ORIENTED_EDGE('',*,*,#109,.F.);
#522=CARTESIAN_POINT('',(1.58095758706622E-013,7.95991746736301E-015,24.4246117974983));
#523=DIRECTION('',(0.0,0.0,-1.0));
#524=DIRECTION('',(1.0,1.22460635382238E-016,0.0));
#525=FILL_AREA_STYLE('',(#536));
#526=FILL_AREA_STYLE('',(#537));
#527=FILL_AREA_STYLE('',(#538));
#528=FILL_AREA_STYLE('',(#539));
#529=FILL_AREA_STYLE('',(#540));
#530=FILL_AREA_STYLE('',(#541));
#531=FILL_AREA_STYLE('',(#542));
#532=FILL_AREA_STYLE('',(#543));
#533=FILL_AREA_STYLE('',(#544));
#534=FILL_AREA_STYLE('',(#545));
#535=FILL_AREA_STYLE('',(#546));
#536=FILL_AREA_STYLE_COLOUR('',#547);
#537=FILL_AREA_STYLE_COLOUR('',#548);
#538=FILL_AREA_STYLE_COLOUR('',#549);
#539=FILL_AREA_STYLE_COLOUR('',#550);
#540=FILL_AREA_STYLE_COLOUR('',#551);
#541=FILL_AREA_STYLE_COLOUR('',#552);
#542=FILL_AREA_STYLE_COLOUR('',#553);
#543=FILL_AREA_STYLE_COLOUR('',#554);
#544=FILL_AREA_STYLE_COLOUR('',#555);
#545=FILL_AREA_STYLE_COLOUR('',#556);
#546=FILL_AREA_STYLE_COLOUR('',#557);
#547=COLOUR_RGB('',0.509803950786591,0.509803950786591,0.588235318660736);
#548=COLOUR_RGB('',0.509803950786591,0.509803950786591,0.588235318660736);
#549=COLOUR_RGB('',0.509803950786591,0.509803950786591,0.588235318660736);
#550=COLOUR_RGB('',0.509803950786591,0.509803950786591,0.588235318660736);
#551=COLOUR_RGB('',0.509803950786591,0.509803950786591,0.588235318660736);
#552=COLOUR_RGB('',0.509803950786591,0.509803950786591,0.588235318660736);
#553=COLOUR_RGB('',0.509803950786591,0.509803950786591,0.588235318660736);
#554=COLOUR_RGB('',0.509803950786591,0.509803950786591,0.588235318660736);
#555=COLOUR_RGB('',0.509803950786591,0.509803950786591,0.588235318660736);
#556=COLOUR_RGB('',0.509803950786591,0.509803950786591,0.588235318660736);
#557=COLOUR_RGB('',0.509803950786591,0.509803950786591,0.588235318660736);
ENDSEC;
END-ISO-10303-21;
