ISO-10303-21;
HEADER;
FILE_DESCRIPTION(('STEP AP214'),'1');
FILE_NAME(' ','  ',('TraceParts'),('TraceParts S.A.'),'XStep 1.0',' ',' ');
FILE_SCHEMA(('automotive_design'));
ENDSEC;
DATA;
#1=MECHANICAL_DESIGN_GEOMETRIC_PRESENTATION_REPRESENTATION(' ',(#10,#11,#12,#13,#14,#15,#16,#17,#18,#19,#20,#21,#22,#23,#24,#25,#26,#27,#28,#29,#30,#31,#32,#33,#34,#35,#36,#37,#38,#39,#40,#41,#42,#43,#44,#45,#46,#47,#48,#49,#50,#51,#52),#6);
#2=PRODUCT_DEFINITION_CONTEXT('',#53,'design');
#3=APPLICATION_PROTOCOL_DEFINITION('INTERNATIONAL STANDARD','automotive_design',1994,#53);
#4=PRODUCT_CATEGORY_RELATIONSHIP('NONE','NONE',#54,#55);
#5=SHAPE_DEFINITION_REPRESENTATION(#56,#57);
#6= (GEOMETRIC_REPRESENTATION_CONTEXT(3)GLOBAL_UNCERTAINTY_ASSIGNED_CONTEXT((#60))GLOBAL_UNIT_ASSIGNED_CONTEXT((#62,#63,#64))REPRESENTATION_CONTEXT('NONE','WORKSPACE'));
#10=STYLED_ITEM('',(#66),#67);
#11=STYLED_ITEM('',(#68),#69);
#12=STYLED_ITEM('',(#70),#71);
#13=STYLED_ITEM('',(#72),#73);
#14=STYLED_ITEM('',(#74),#75);
#15=STYLED_ITEM('',(#76),#77);
#16=STYLED_ITEM('',(#78),#79);
#17=STYLED_ITEM('',(#80),#81);
#18=STYLED_ITEM('',(#82),#83);
#19=STYLED_ITEM('',(#84),#85);
#20=STYLED_ITEM('',(#86),#87);
#21=STYLED_ITEM('',(#88),#89);
#22=STYLED_ITEM('',(#90),#91);
#23=STYLED_ITEM('',(#92),#93);
#24=STYLED_ITEM('',(#94),#95);
#25=STYLED_ITEM('',(#96),#97);
#26=STYLED_ITEM('',(#98),#99);
#27=STYLED_ITEM('',(#100),#101);
#28=STYLED_ITEM('',(#102),#103);
#29=STYLED_ITEM('',(#104),#105);
#30=STYLED_ITEM('',(#106),#107);
#31=STYLED_ITEM('',(#108),#109);
#32=STYLED_ITEM('',(#110),#111);
#33=STYLED_ITEM('',(#112),#113);
#34=STYLED_ITEM('',(#114),#115);
#35=STYLED_ITEM('',(#116),#117);
#36=STYLED_ITEM('',(#118),#119);
#37=STYLED_ITEM('',(#120),#121);
#38=STYLED_ITEM('',(#122),#123);
#39=STYLED_ITEM('',(#124),#125);
#40=STYLED_ITEM('',(#126),#127);
#41=STYLED_ITEM('',(#128),#129);
#42=STYLED_ITEM('',(#130),#131);
#43=STYLED_ITEM('',(#132),#133);
#44=STYLED_ITEM('',(#134),#135);
#45=STYLED_ITEM('',(#136),#137);
#46=STYLED_ITEM('',(#138),#139);
#47=STYLED_ITEM('',(#140),#141);
#48=STYLED_ITEM('',(#142),#143);
#49=STYLED_ITEM('',(#144),#145);
#50=STYLED_ITEM('',(#146),#147);
#51=STYLED_ITEM('',(#148),#149);
#52=STYLED_ITEM('',(#150),#151);
#53=APPLICATION_CONTEXT(' ');
#54=PRODUCT_CATEGORY('part','NONE');
#55=PRODUCT_RELATED_PRODUCT_CATEGORY('detail',' ',(#152));
#56=PRODUCT_DEFINITION_SHAPE('NONE','NONE',#153);
#57=ADVANCED_BREP_SHAPE_REPRESENTATION('1',(#143,#154),#6);
#60=UNCERTAINTY_MEASURE_WITH_UNIT(LENGTH_MEASURE(1.0E-006),#62,'','');
#62= (CONVERSION_BASED_UNIT('MILLIMETRE',#157)LENGTH_UNIT()NAMED_UNIT(#160));
#63= (NAMED_UNIT(#162)PLANE_ANGLE_UNIT()SI_UNIT($,.RADIAN.));
#64= (NAMED_UNIT(#162)SOLID_ANGLE_UNIT()SI_UNIT($,.STERADIAN.));
#66=PRESENTATION_STYLE_ASSIGNMENT((#168));
#67=EDGE_CURVE('',#93,#111,#169,.T.);
#68=PRESENTATION_STYLE_ASSIGNMENT((#170));
#69=ADVANCED_FACE('',(#171),#172,.T.);
#70=PRESENTATION_STYLE_ASSIGNMENT((#173));
#71=EDGE_CURVE('',#127,#115,#174,.T.);
#72=PRESENTATION_STYLE_ASSIGNMENT((#175));
#73=ADVANCED_FACE('',(#176,#177),#178,.T.);
#74=PRESENTATION_STYLE_ASSIGNMENT((#179));
#75=EDGE_CURVE('',#149,#127,#180,.T.);
#76=PRESENTATION_STYLE_ASSIGNMENT((#181));
#77=EDGE_CURVE('',#145,#93,#182,.T.);
#78=PRESENTATION_STYLE_ASSIGNMENT((#183));
#79=EDGE_CURVE('',#101,#145,#184,.T.);
#80=PRESENTATION_STYLE_ASSIGNMENT((#185));
#81=EDGE_CURVE('',#101,#91,#186,.T.);
#82=PRESENTATION_STYLE_ASSIGNMENT((#187));
#83=ADVANCED_FACE('',(#188),#189,.F.);
#84=PRESENTATION_STYLE_ASSIGNMENT((#190));
#85=EDGE_CURVE('',#147,#125,#191,.T.);
#86=PRESENTATION_STYLE_ASSIGNMENT((#192));
#87=EDGE_CURVE('',#145,#99,#193,.T.);
#88=PRESENTATION_STYLE_ASSIGNMENT((#194));
#89=ADVANCED_FACE('',(#195),#196,.T.);
#90=PRESENTATION_STYLE_ASSIGNMENT((#197));
#91=VERTEX_POINT('',#198);
#92=PRESENTATION_STYLE_ASSIGNMENT((#199));
#93=VERTEX_POINT('',#200);
#94=PRESENTATION_STYLE_ASSIGNMENT((#201));
#95=ADVANCED_FACE('',(#202),#203,.T.);
#96=PRESENTATION_STYLE_ASSIGNMENT((#204));
#97=EDGE_CURVE('',#99,#91,#205,.T.);
#98=PRESENTATION_STYLE_ASSIGNMENT((#206));
#99=VERTEX_POINT('',#207);
#100=PRESENTATION_STYLE_ASSIGNMENT((#208));
#101=VERTEX_POINT('',#209);
#102=PRESENTATION_STYLE_ASSIGNMENT((#210));
#103=EDGE_CURVE('',#131,#149,#211,.T.);
#104=PRESENTATION_STYLE_ASSIGNMENT((#212));
#105=ADVANCED_FACE('',(#213,#214),#215,.T.);
#106=PRESENTATION_STYLE_ASSIGNMENT((#216));
#107=EDGE_CURVE('',#99,#145,#217,.T.);
#108=PRESENTATION_STYLE_ASSIGNMENT((#218));
#109=EDGE_CURVE('',#115,#127,#219,.T.);
#110=PRESENTATION_STYLE_ASSIGNMENT((#220));
#111=VERTEX_POINT('',#221);
#112=PRESENTATION_STYLE_ASSIGNMENT((#222));
#113=EDGE_CURVE('',#91,#101,#223,.T.);
#114=PRESENTATION_STYLE_ASSIGNMENT((#224));
#115=VERTEX_POINT('',#225);
#116=PRESENTATION_STYLE_ASSIGNMENT((#226));
#117=EDGE_CURVE('',#131,#125,#227,.T.);
#118=PRESENTATION_STYLE_ASSIGNMENT((#228));
#119=ADVANCED_FACE('',(#229),#230,.T.);
#120=PRESENTATION_STYLE_ASSIGNMENT((#231));
#121=EDGE_CURVE('',#125,#147,#232,.T.);
#122=PRESENTATION_STYLE_ASSIGNMENT((#233));
#123=ADVANCED_FACE('',(#234),#235,.F.);
#124=PRESENTATION_STYLE_ASSIGNMENT((#236));
#125=VERTEX_POINT('',#237);
#126=PRESENTATION_STYLE_ASSIGNMENT((#238));
#127=VERTEX_POINT('',#239);
#128=PRESENTATION_STYLE_ASSIGNMENT((#240));
#129=ADVANCED_FACE('',(#241),#242,.F.);
#130=PRESENTATION_STYLE_ASSIGNMENT((#243));
#131=VERTEX_POINT('',#244);
#132=PRESENTATION_STYLE_ASSIGNMENT((#245));
#133=EDGE_CURVE('',#111,#93,#246,.T.);
#134=PRESENTATION_STYLE_ASSIGNMENT((#247));
#135=EDGE_CURVE('',#147,#149,#248,.T.);
#136=PRESENTATION_STYLE_ASSIGNMENT((#249));
#137=EDGE_CURVE('',#115,#131,#250,.T.);
#138=PRESENTATION_STYLE_ASSIGNMENT((#251));
#139=EDGE_CURVE('',#149,#131,#252,.T.);
#140=PRESENTATION_STYLE_ASSIGNMENT((#253));
#141=ADVANCED_FACE('',(#254),#255,.F.);
#142=PRESENTATION_STYLE_ASSIGNMENT((#256));
#143=MANIFOLD_SOLID_BREP('1',#257);
#144=PRESENTATION_STYLE_ASSIGNMENT((#258));
#145=VERTEX_POINT('',#259);
#146=PRESENTATION_STYLE_ASSIGNMENT((#260));
#147=VERTEX_POINT('',#261);
#148=PRESENTATION_STYLE_ASSIGNMENT((#262));
#149=VERTEX_POINT('',#263);
#150=PRESENTATION_STYLE_ASSIGNMENT((#264));
#151=EDGE_CURVE('',#111,#99,#265,.T.);
#152=PRODUCT('1','1','PART-1-DESC',(#266));
#153=PRODUCT_DEFINITION('NONE','NONE',#267,#2);
#154=AXIS2_PLACEMENT_3D('',#268,#269,#270);
#157=LENGTH_MEASURE_WITH_UNIT(LENGTH_MEASURE(1.0),#271);
#160=DIMENSIONAL_EXPONENTS(1.0,0.0,0.0,0.0,0.0,0.0,0.0);
#162=DIMENSIONAL_EXPONENTS(0.0,0.0,0.0,0.0,0.0,0.0,0.0);
#168=CURVE_STYLE('',#272,POSITIVE_LENGTH_MEASURE(1.0E-006),#273);
#169=CIRCLE('',#274,8.50000000000003);
#170=SURFACE_STYLE_USAGE(.BOTH.,#275);
#171=FACE_OUTER_BOUND('',#276,.T.);
#172=SPHERICAL_SURFACE('',#277,21.9999999999999);
#173=CURVE_STYLE('',#278,POSITIVE_LENGTH_MEASURE(1.0E-006),#279);
#174=CIRCLE('',#280,15.0);
#175=SURFACE_STYLE_USAGE(.BOTH.,#281);
#176=FACE_OUTER_BOUND('',#282,.T.);
#177=FACE_BOUND('',#283,.T.);
#178=PLANE('',#284);
#179=CURVE_STYLE('',#285,POSITIVE_LENGTH_MEASURE(1.0E-006),#286);
#180=LINE('',#287,#288);
#181=CURVE_STYLE('',#289,POSITIVE_LENGTH_MEASURE(1.0E-006),#290);
#182=LINE('',#291,#292);
#183=CURVE_STYLE('',#293,POSITIVE_LENGTH_MEASURE(1.0E-006),#294);
#184=LINE('',#295,#296);
#185=CURVE_STYLE('',#297,POSITIVE_LENGTH_MEASURE(1.0E-006),#298);
#186=CIRCLE('',#299,9.00000000000003);
#187=SURFACE_STYLE_USAGE(.BOTH.,#300);
#188=FACE_OUTER_BOUND('',#301,.T.);
#189=CONICAL_SURFACE('',#302,8.75000000000003,0.785398163397448);
#190=CURVE_STYLE('',#303,POSITIVE_LENGTH_MEASURE(1.0E-006),#304);
#191=CIRCLE('',#305,8.9583583587927);
#192=CURVE_STYLE('',#306,POSITIVE_LENGTH_MEASURE(1.0E-006),#307);
#193=CIRCLE('',#308,8.50000000000003);
#194=SURFACE_STYLE_USAGE(.BOTH.,#309);
#195=FACE_OUTER_BOUND('',#310,.T.);
#196=SPHERICAL_SURFACE('',#311,21.9999999999999);
#197=POINT_STYLE(' ',#312,POSITIVE_LENGTH_MEASURE(1.0E-006),#313);
#198=CARTESIAN_POINT('',(9.00000000000006,9.03027862673172E-015,5.30000000000001));
#199=POINT_STYLE(' ',#314,POSITIVE_LENGTH_MEASURE(1.0E-006),#315);
#200=CARTESIAN_POINT('',(-8.5,5.1173237383153E-015,-2.8421709430404E-014));
#201=SURFACE_STYLE_USAGE(.BOTH.,#316);
#202=FACE_OUTER_BOUND('',#317,.T.);
#203=CYLINDRICAL_SURFACE('',#318,15.0);
#204=CURVE_STYLE('',#319,POSITIVE_LENGTH_MEASURE(1.0E-006),#320);
#205=LINE('',#321,#322);
#206=POINT_STYLE(' ',#323,POSITIVE_LENGTH_MEASURE(1.0E-006),#324);
#207=CARTESIAN_POINT('',(8.50000000000006,8.88874980429259E-015,4.80000000000001));
#208=POINT_STYLE(' ',#325,POSITIVE_LENGTH_MEASURE(1.0E-006),#326);
#209=CARTESIAN_POINT('',(-9.0,5.38061410438711E-015,5.30000000000001));
#210=CURVE_STYLE('',#327,POSITIVE_LENGTH_MEASURE(1.0E-006),#328);
#211=CIRCLE('',#329,15.0);
#212=SURFACE_STYLE_USAGE(.BOTH.,#330);
#213=FACE_OUTER_BOUND('',#331,.T.);
#214=FACE_BOUND('',#332,.T.);
#215=PLANE('',#333);
#216=CURVE_STYLE('',#334,POSITIVE_LENGTH_MEASURE(1.0E-006),#335);
#217=CIRCLE('',#336,8.50000000000003);
#218=CURVE_STYLE('',#337,POSITIVE_LENGTH_MEASURE(1.0E-006),#338);
#219=CIRCLE('',#339,15.0);
#220=POINT_STYLE(' ',#340,POSITIVE_LENGTH_MEASURE(1.0E-006),#341);
#221=CARTESIAN_POINT('',(8.50000000000006,8.88874980429259E-015,-2.8421709430404E-014));
#222=CURVE_STYLE('',#342,POSITIVE_LENGTH_MEASURE(1.0E-006),#343);
#223=CIRCLE('',#344,9.00000000000003);
#224=POINT_STYLE(' ',#345,POSITIVE_LENGTH_MEASURE(1.0E-006),#346);
#225=CARTESIAN_POINT('',(-15.0,4.64585029209369E-015,5.30000000000001));
#226=CURVE_STYLE('',#347,POSITIVE_LENGTH_MEASURE(1.0E-006),#348);
#227=CIRCLE('',#349,21.9999999999999);
#228=SURFACE_STYLE_USAGE(.BOTH.,#350);
#229=FACE_OUTER_BOUND('',#351,.T.);
#230=CYLINDRICAL_SURFACE('',#352,15.0);
#231=CURVE_STYLE('',#353,POSITIVE_LENGTH_MEASURE(1.0E-006),#354);
#232=CIRCLE('',#355,8.9583583587927);
#233=SURFACE_STYLE_USAGE(.BOTH.,#356);
#234=FACE_OUTER_BOUND('',#357,.T.);
#235=CYLINDRICAL_SURFACE('',#358,8.50000000000003);
#236=POINT_STYLE(' ',#359,POSITIVE_LENGTH_MEASURE(1.0E-006),#360);
#237=CARTESIAN_POINT('',(-8.95835835879261,5.0611928824648E-015,-1.77635683940025E-014));
#238=POINT_STYLE(' ',#361,POSITIVE_LENGTH_MEASURE(1.0E-006),#362);
#239=CARTESIAN_POINT('',(15.0000000000001,1.07286244960014E-014,5.30000000000001));
#240=SURFACE_STYLE_USAGE(.BOTH.,#363);
#241=FACE_OUTER_BOUND('',#364,.T.);
#242=CONICAL_SURFACE('',#365,8.75000000000003,0.785398163397448);
#243=POINT_STYLE(' ',#366,POSITIVE_LENGTH_MEASURE(1.0E-006),#367);
#244=CARTESIAN_POINT('',(-14.9999999999999,4.56625087909524E-015,4.00000000000001));
#245=CURVE_STYLE('',#368,POSITIVE_LENGTH_MEASURE(1.0E-006),#369);
#246=CIRCLE('',#370,8.50000000000003);
#247=CURVE_STYLE('',#371,POSITIVE_LENGTH_MEASURE(1.0E-006),#372);
#248=CIRCLE('',#373,21.9999999999999);
#249=CURVE_STYLE('',#374,POSITIVE_LENGTH_MEASURE(1.0E-006),#375);
#250=LINE('',#376,#377);
#251=CURVE_STYLE('',#378,POSITIVE_LENGTH_MEASURE(1.0E-006),#379);
#252=CIRCLE('',#380,15.0);
#253=SURFACE_STYLE_USAGE(.BOTH.,#381);
#254=FACE_OUTER_BOUND('',#382,.T.);
#255=CYLINDRICAL_SURFACE('',#383,8.50000000000003);
#256=SURFACE_STYLE_USAGE(.BOTH.,#384);
#257=CLOSED_SHELL('',(#141,#119,#129,#89,#69,#83,#73,#95,#105,#123));
#258=POINT_STYLE(' ',#385,POSITIVE_LENGTH_MEASURE(1.0E-006),#386);
#259=CARTESIAN_POINT('',(-8.5,5.41122926323267E-015,4.80000000000001));
#260=POINT_STYLE(' ',#387,POSITIVE_LENGTH_MEASURE(1.0E-006),#388);
#261=CARTESIAN_POINT('',(8.95835835879269,9.58266162878392E-015,-1.4210854715202E-014));
#262=POINT_STYLE(' ',#389,POSITIVE_LENGTH_MEASURE(1.0E-006),#390);
#263=CARTESIAN_POINT('',(15.0000000000001,1.1062388177052E-014,4.00000000000001));
#264=CURVE_STYLE('',#391,POSITIVE_LENGTH_MEASURE(1.0E-006),#392);
#265=LINE('',#393,#394);
#266=PRODUCT_CONTEXT('',#53,'mechanical');
#267=PRODUCT_DEFINITION_FORMATION_WITH_SPECIFIED_SOURCE(' ','NONE',#152,.NOT_KNOWN.);
#268=CARTESIAN_POINT('',(0.0,0.0,0.0));
#269=DIRECTION('',(0.0,0.0,1.0));
#270=DIRECTION('',(1.0,0.0,0.0));
#271= (NAMED_UNIT(#160)LENGTH_UNIT()SI_UNIT(.MILLI.,.METRE.));
#272=DRAUGHTING_PRE_DEFINED_CURVE_FONT('continuous');
#273=COLOUR_RGB('',0.509803950786591,0.509803950786591,0.588235318660736);
#274=AXIS2_PLACEMENT_3D('',#396,#397,#398);
#275=SURFACE_SIDE_STYLE('',(#399));
#276=EDGE_LOOP('',(#400,#401,#402,#403));
#277=AXIS2_PLACEMENT_3D('',#404,#405,#406);
#278=DRAUGHTING_PRE_DEFINED_CURVE_FONT('continuous');
#279=COLOUR_RGB('',0.509803950786591,0.509803950786591,0.588235318660736);
#280=AXIS2_PLACEMENT_3D('',#407,#408,#409);
#281=SURFACE_SIDE_STYLE('',(#410));
#282=EDGE_LOOP('',(#411,#412));
#283=EDGE_LOOP('',(#413,#414));
#284=AXIS2_PLACEMENT_3D('',#415,#416,#417);
#285=DRAUGHTING_PRE_DEFINED_CURVE_FONT('continuous');
#286=COLOUR_RGB('',0.509803950786591,0.509803950786591,0.588235318660736);
#287=CARTESIAN_POINT('',(15.0000000000001,1.07286244960014E-014,4.65000000000001));
#288=VECTOR('',#418,1.0);
#289=DRAUGHTING_PRE_DEFINED_CURVE_FONT('continuous');
#290=COLOUR_RGB('',0.509803950786591,0.509803950786591,0.588235318660736);
#291=CARTESIAN_POINT('',(-8.5,4.07676984136193E-015,2.39999999999999));
#292=VECTOR('',#419,1.0);
#293=DRAUGHTING_PRE_DEFINED_CURVE_FONT('continuous');
#294=COLOUR_RGB('',0.509803950786591,0.509803950786591,0.588235318660736);
#295=CARTESIAN_POINT('',(-8.75,4.00600543014236E-015,5.05000000000001));
#296=VECTOR('',#420,1.0);
#297=DRAUGHTING_PRE_DEFINED_CURVE_FONT('continuous');
#298=COLOUR_RGB('',0.509803950786591,0.509803950786591,0.588235318660736);
#299=AXIS2_PLACEMENT_3D('',#421,#422,#423);
#300=SURFACE_SIDE_STYLE('',(#424));
#301=EDGE_LOOP('',(#425,#426,#427,#428));
#302=AXIS2_PLACEMENT_3D('',#429,#430,#431);
#303=DRAUGHTING_PRE_DEFINED_CURVE_FONT('continuous');
#304=COLOUR_RGB('',0.509803950786591,0.509803950786591,0.588235318660736);
#305=AXIS2_PLACEMENT_3D('',#432,#433,#434);
#306=DRAUGHTING_PRE_DEFINED_CURVE_FONT('continuous');
#307=COLOUR_RGB('',0.509803950786591,0.509803950786591,0.588235318660736);
#308=AXIS2_PLACEMENT_3D('',#435,#436,#437);
#309=SURFACE_SIDE_STYLE('',(#438));
#310=EDGE_LOOP('',(#439,#440,#441,#442));
#311=AXIS2_PLACEMENT_3D('',#443,#444,#445);
#312=PRE_DEFINED_MARKER('');
#313=COLOUR_RGB('',0.509803950786591,0.509803950786591,0.588235318660736);
#314=PRE_DEFINED_MARKER('');
#315=COLOUR_RGB('',0.509803950786591,0.509803950786591,0.588235318660736);
#316=SURFACE_SIDE_STYLE('',(#446));
#317=EDGE_LOOP('',(#447,#448,#449,#450));
#318=AXIS2_PLACEMENT_3D('',#451,#452,#453);
#319=DRAUGHTING_PRE_DEFINED_CURVE_FONT('continuous');
#320=COLOUR_RGB('',0.509803950786591,0.509803950786591,0.588235318660736);
#321=CARTESIAN_POINT('',(8.75000000000006,8.95951421551215E-015,5.05000000000001));
#322=VECTOR('',#454,1.0);
#323=PRE_DEFINED_MARKER('');
#324=COLOUR_RGB('',0.509803950786591,0.509803950786591,0.588235318660736);
#325=PRE_DEFINED_MARKER('');
#326=COLOUR_RGB('',0.509803950786591,0.509803950786591,0.588235318660736);
#327=DRAUGHTING_PRE_DEFINED_CURVE_FONT('continuous');
#328=COLOUR_RGB('',0.509803950786591,0.509803950786591,0.588235318660736);
#329=AXIS2_PLACEMENT_3D('',#455,#456,#457);
#330=SURFACE_SIDE_STYLE('',(#458));
#331=EDGE_LOOP('',(#459,#460));
#332=EDGE_LOOP('',(#461,#462));
#333=AXIS2_PLACEMENT_3D('',#463,#464,#465);
#334=DRAUGHTING_PRE_DEFINED_CURVE_FONT('continuous');
#335=COLOUR_RGB('',0.509803950786591,0.509803950786591,0.588235318660736);
#336=AXIS2_PLACEMENT_3D('',#466,#467,#468);
#337=DRAUGHTING_PRE_DEFINED_CURVE_FONT('continuous');
#338=COLOUR_RGB('',0.509803950786591,0.509803950786591,0.588235318660736);
#339=AXIS2_PLACEMENT_3D('',#469,#470,#471);
#340=PRE_DEFINED_MARKER('');
#341=COLOUR_RGB('',0.509803950786591,0.509803950786591,0.588235318660736);
#342=DRAUGHTING_PRE_DEFINED_CURVE_FONT('continuous');
#343=COLOUR_RGB('',0.509803950786591,0.509803950786591,0.588235318660736);
#344=AXIS2_PLACEMENT_3D('',#472,#473,#474);
#345=PRE_DEFINED_MARKER('');
#346=COLOUR_RGB('',0.509803950786591,0.509803950786591,0.588235318660736);
#347=DRAUGHTING_PRE_DEFINED_CURVE_FONT('continuous');
#348=COLOUR_RGB('',0.509803950786591,0.509803950786591,0.588235318660736);
#349=AXIS2_PLACEMENT_3D('',#475,#476,#477);
#350=SURFACE_SIDE_STYLE('',(#478));
#351=EDGE_LOOP('',(#479,#480,#481,#482));
#352=AXIS2_PLACEMENT_3D('',#483,#484,#485);
#353=DRAUGHTING_PRE_DEFINED_CURVE_FONT('continuous');
#354=COLOUR_RGB('',0.509803950786591,0.509803950786591,0.588235318660736);
#355=AXIS2_PLACEMENT_3D('',#486,#487,#488);
#356=SURFACE_SIDE_STYLE('',(#489));
#357=EDGE_LOOP('',(#490,#491,#492,#493));
#358=AXIS2_PLACEMENT_3D('',#494,#495,#496);
#359=PRE_DEFINED_MARKER('');
#360=COLOUR_RGB('',0.509803950786591,0.509803950786591,0.588235318660736);
#361=PRE_DEFINED_MARKER('');
#362=COLOUR_RGB('',0.509803950786591,0.509803950786591,0.588235318660736);
#363=SURFACE_SIDE_STYLE('',(#497));
#364=EDGE_LOOP('',(#498,#499,#500,#501));
#365=AXIS2_PLACEMENT_3D('',#502,#503,#504);
#366=PRE_DEFINED_MARKER('');
#367=COLOUR_RGB('',0.509803950786591,0.509803950786591,0.588235318660736);
#368=DRAUGHTING_PRE_DEFINED_CURVE_FONT('continuous');
#369=COLOUR_RGB('',0.509803950786591,0.509803950786591,0.588235318660736);
#370=AXIS2_PLACEMENT_3D('',#505,#506,#507);
#371=DRAUGHTING_PRE_DEFINED_CURVE_FONT('continuous');
#372=COLOUR_RGB('',0.509803950786591,0.509803950786591,0.588235318660736);
#373=AXIS2_PLACEMENT_3D('',#508,#509,#510);
#374=DRAUGHTING_PRE_DEFINED_CURVE_FONT('continuous');
#375=COLOUR_RGB('',0.509803950786591,0.509803950786591,0.588235318660736);
#376=CARTESIAN_POINT('',(-15.0,2.23689514965315E-015,4.65000000000001));
#377=VECTOR('',#511,1.0);
#378=DRAUGHTING_PRE_DEFINED_CURVE_FONT('continuous');
#379=COLOUR_RGB('',0.509803950786591,0.509803950786591,0.588235318660736);
#380=AXIS2_PLACEMENT_3D('',#512,#513,#514);
#381=SURFACE_SIDE_STYLE('',(#515));
#382=EDGE_LOOP('',(#516,#517,#518,#519));
#383=AXIS2_PLACEMENT_3D('',#520,#521,#522);
#384=SURFACE_SIDE_STYLE('',(#523));
#385=PRE_DEFINED_MARKER('');
#386=COLOUR_RGB('',0.509803950786591,0.509803950786591,0.588235318660736);
#387=PRE_DEFINED_MARKER('');
#388=COLOUR_RGB('',0.509803950786591,0.509803950786591,0.588235318660736);
#389=PRE_DEFINED_MARKER('');
#390=COLOUR_RGB('',0.509803950786591,0.509803950786591,0.588235318660736);
#391=DRAUGHTING_PRE_DEFINED_CURVE_FONT('continuous');
#392=COLOUR_RGB('',0.509803950786591,0.509803950786591,0.588235318660736);
#393=CARTESIAN_POINT('',(8.50000000000006,8.88874980429259E-015,2.39999999999999));
#394=VECTOR('',#524,1.0);
#396=CARTESIAN_POINT('',(2.8421709430404E-014,6.48275982282726E-015,-2.8421709430404E-014));
#397=DIRECTION('',(-0.0,0.0,-1.0));
#398=DIRECTION('',(-1.0,-1.60597009496036E-016,0.0));
#399=SURFACE_STYLE_FILL_AREA(#525);
#400=ORIENTED_EDGE('',*,*,#135,.T.);
#401=ORIENTED_EDGE('',*,*,#103,.F.);
#402=ORIENTED_EDGE('',*,*,#117,.T.);
#403=ORIENTED_EDGE('',*,*,#85,.F.);
#404=CARTESIAN_POINT('',(-1.06581410364015E-014,7.38856911558485E-015,20.093476939431));
#405=DIRECTION('',(0.0,0.0,-1.0));
#406=DIRECTION('',(1.0,1.22460635382238E-016,0.0));
#407=CARTESIAN_POINT('',(2.8421709430404E-014,6.48275982282726E-015,5.30000000000001));
#408=DIRECTION('',(-0.0,0.0,-1.0));
#409=DIRECTION('',(-1.0,-1.60597009496036E-016,0.0));
#410=SURFACE_STYLE_FILL_AREA(#526);
#411=ORIENTED_EDGE('',*,*,#109,.F.);
#412=ORIENTED_EDGE('',*,*,#71,.F.);
#413=ORIENTED_EDGE('',*,*,#81,.T.);
#414=ORIENTED_EDGE('',*,*,#113,.T.);
#415=CARTESIAN_POINT('',(-12.0,5.0132321982404E-015,5.30000000000001));
#416=DIRECTION('',(0.0,0.0,1.0));
#417=DIRECTION('',(-1.0,-1.22460635382238E-016,0.0));
#418=DIRECTION('',(-0.0,-0.0,1.0));
#419=DIRECTION('',(0.0,0.0,-1.0));
#420=DIRECTION('',(0.707106781186548,2.00151980160121E-016,-0.707106781186547));
#421=CARTESIAN_POINT('',(2.8421709430404E-014,6.48275982282726E-015,5.30000000000001));
#422=DIRECTION('',(-0.0,0.0,-1.0));
#423=DIRECTION('',(-1.0,-1.60597009496036E-016,0.0));
#424=SURFACE_STYLE_FILL_AREA(#527);
#425=ORIENTED_EDGE('',*,*,#79,.T.);
#426=ORIENTED_EDGE('',*,*,#87,.T.);
#427=ORIENTED_EDGE('',*,*,#97,.T.);
#428=ORIENTED_EDGE('',*,*,#81,.F.);
#429=CARTESIAN_POINT('',(2.8421709430404E-014,6.48275982282726E-015,5.05000000000001));
#430=DIRECTION('',(0.0,-0.0,1.0));
#431=DIRECTION('',(-1.0,-1.60597009496036E-016,0.0));
#432=CARTESIAN_POINT('',(-1.06581410364015E-014,7.38856911558485E-015,-1.4210854715202E-014));
#433=DIRECTION('',(0.0,0.0,-1.0));
#434=DIRECTION('',(0.0,-1.0,0.0));
#435=CARTESIAN_POINT('',(2.8421709430404E-014,6.48275982282726E-015,4.80000000000001));
#436=DIRECTION('',(-0.0,0.0,-1.0));
#437=DIRECTION('',(-1.0,-1.60597009496036E-016,0.0));
#438=SURFACE_STYLE_FILL_AREA(#528);
#439=ORIENTED_EDGE('',*,*,#135,.F.);
#440=ORIENTED_EDGE('',*,*,#121,.F.);
#441=ORIENTED_EDGE('',*,*,#117,.F.);
#442=ORIENTED_EDGE('',*,*,#139,.F.);
#443=CARTESIAN_POINT('',(-1.06581410364015E-014,7.38856911558485E-015,20.093476939431));
#444=DIRECTION('',(0.0,0.0,-1.0));
#445=DIRECTION('',(1.0,1.22460635382238E-016,0.0));
#446=SURFACE_STYLE_FILL_AREA(#529);
#447=ORIENTED_EDGE('',*,*,#137,.T.);
#448=ORIENTED_EDGE('',*,*,#103,.T.);
#449=ORIENTED_EDGE('',*,*,#75,.T.);
#450=ORIENTED_EDGE('',*,*,#71,.T.);
#451=CARTESIAN_POINT('',(2.8421709430404E-014,6.48275982282726E-015,2.65000000000001));
#452=DIRECTION('',(0.0,-0.0,1.0));
#453=DIRECTION('',(-1.0,-1.60597009496036E-016,0.0));
#454=DIRECTION('',(0.707106781186548,2.00151980160121E-016,0.707106781186547));
#455=CARTESIAN_POINT('',(2.8421709430404E-014,6.48275982282726E-015,4.00000000000001));
#456=DIRECTION('',(0.0,0.0,1.0));
#457=DIRECTION('',(-1.0,-1.60597009496036E-016,0.0));
#458=SURFACE_STYLE_FILL_AREA(#530);
#459=ORIENTED_EDGE('',*,*,#121,.T.);
#460=ORIENTED_EDGE('',*,*,#85,.T.);
#461=ORIENTED_EDGE('',*,*,#67,.F.);
#462=ORIENTED_EDGE('',*,*,#133,.F.);
#463=CARTESIAN_POINT('',(-11.75,4.71932667332303E-015,-1.4210854715202E-014));
#464=DIRECTION('',(0.0,0.0,-1.0));
#465=DIRECTION('',(1.0,1.22460635382238E-016,0.0));
#466=CARTESIAN_POINT('',(2.8421709430404E-014,6.48275982282726E-015,4.80000000000001));
#467=DIRECTION('',(-0.0,0.0,-1.0));
#468=DIRECTION('',(-1.0,-1.60597009496036E-016,0.0));
#469=CARTESIAN_POINT('',(2.8421709430404E-014,6.48275982282726E-015,5.30000000000001));
#470=DIRECTION('',(-0.0,0.0,-1.0));
#471=DIRECTION('',(-1.0,-1.60597009496036E-016,0.0));
#472=CARTESIAN_POINT('',(2.8421709430404E-014,6.48275982282726E-015,5.30000000000001));
#473=DIRECTION('',(-0.0,0.0,-1.0));
#474=DIRECTION('',(-1.0,-1.60597009496036E-016,0.0));
#475=CARTESIAN_POINT('',(-1.06581410364015E-014,7.38856911558485E-015,20.093476939431));
#476=DIRECTION('',(2.44921270764475E-016,-1.0,0.0));
#477=DIRECTION('',(-0.0,0.0,1.0));
#478=SURFACE_STYLE_FILL_AREA(#531);
#479=ORIENTED_EDGE('',*,*,#137,.F.);
#480=ORIENTED_EDGE('',*,*,#109,.T.);
#481=ORIENTED_EDGE('',*,*,#75,.F.);
#482=ORIENTED_EDGE('',*,*,#139,.T.);
#483=CARTESIAN_POINT('',(2.8421709430404E-014,6.48275982282726E-015,2.65000000000001));
#484=DIRECTION('',(0.0,-0.0,1.0));
#485=DIRECTION('',(-1.0,-1.60597009496036E-016,0.0));
#486=CARTESIAN_POINT('',(-1.06581410364015E-014,7.38856911558485E-015,-1.4210854715202E-014));
#487=DIRECTION('',(0.0,0.0,-1.0));
#488=DIRECTION('',(0.0,-1.0,0.0));
#489=SURFACE_STYLE_FILL_AREA(#532);
#490=ORIENTED_EDGE('',*,*,#77,.T.);
#491=ORIENTED_EDGE('',*,*,#67,.T.);
#492=ORIENTED_EDGE('',*,*,#151,.T.);
#493=ORIENTED_EDGE('',*,*,#87,.F.);
#494=CARTESIAN_POINT('',(2.8421709430404E-014,6.48275982282726E-015,2.39999999999999));
#495=DIRECTION('',(0.0,-0.0,1.0));
#496=DIRECTION('',(-1.0,-1.60597009496036E-016,0.0));
#497=SURFACE_STYLE_FILL_AREA(#533);
#498=ORIENTED_EDGE('',*,*,#79,.F.);
#499=ORIENTED_EDGE('',*,*,#113,.F.);
#500=ORIENTED_EDGE('',*,*,#97,.F.);
#501=ORIENTED_EDGE('',*,*,#107,.T.);
#502=CARTESIAN_POINT('',(2.8421709430404E-014,6.48275982282726E-015,5.05000000000001));
#503=DIRECTION('',(0.0,-0.0,1.0));
#504=DIRECTION('',(-1.0,-1.60597009496036E-016,0.0));
#505=CARTESIAN_POINT('',(2.8421709430404E-014,6.48275982282726E-015,-2.8421709430404E-014));
#506=DIRECTION('',(-0.0,0.0,-1.0));
#507=DIRECTION('',(-1.0,-1.60597009496036E-016,0.0));
#508=CARTESIAN_POINT('',(-1.06581410364015E-014,7.38856911558485E-015,20.093476939431));
#509=DIRECTION('',(2.44921270764475E-016,-1.0,0.0));
#510=DIRECTION('',(-0.0,0.0,1.0));
#511=DIRECTION('',(0.0,0.0,-1.0));
#512=CARTESIAN_POINT('',(2.8421709430404E-014,6.48275982282726E-015,4.00000000000001));
#513=DIRECTION('',(0.0,0.0,1.0));
#514=DIRECTION('',(-1.0,-1.60597009496036E-016,0.0));
#515=SURFACE_STYLE_FILL_AREA(#534);
#516=ORIENTED_EDGE('',*,*,#77,.F.);
#517=ORIENTED_EDGE('',*,*,#107,.F.);
#518=ORIENTED_EDGE('',*,*,#151,.F.);
#519=ORIENTED_EDGE('',*,*,#133,.T.);
#520=CARTESIAN_POINT('',(2.8421709430404E-014,6.48275982282726E-015,2.39999999999999));
#521=DIRECTION('',(0.0,-0.0,1.0));
#522=DIRECTION('',(-1.0,-1.60597009496036E-016,0.0));
#523=SURFACE_STYLE_FILL_AREA(#535);
#524=DIRECTION('',(0.0,0.0,1.0));
#525=FILL_AREA_STYLE('',(#536));
#526=FILL_AREA_STYLE('',(#537));
#527=FILL_AREA_STYLE('',(#538));
#528=FILL_AREA_STYLE('',(#539));
#529=FILL_AREA_STYLE('',(#540));
#530=FILL_AREA_STYLE('',(#541));
#531=FILL_AREA_STYLE('',(#542));
#532=FILL_AREA_STYLE('',(#543));
#533=FILL_AREA_STYLE('',(#544));
#534=FILL_AREA_STYLE('',(#545));
#535=FILL_AREA_STYLE('',(#546));
#536=FILL_AREA_STYLE_COLOUR('',#547);
#537=FILL_AREA_STYLE_COLOUR('',#548);
#538=FILL_AREA_STYLE_COLOUR('',#549);
#539=FILL_AREA_STYLE_COLOUR('',#550);
#540=FILL_AREA_STYLE_COLOUR('',#551);
#541=FILL_AREA_STYLE_COLOUR('',#552);
#542=FILL_AREA_STYLE_COLOUR('',#553);
#543=FILL_AREA_STYLE_COLOUR('',#554);
#544=FILL_AREA_STYLE_COLOUR('',#555);
#545=FILL_AREA_STYLE_COLOUR('',#556);
#546=FILL_AREA_STYLE_COLOUR('',#557);
#547=COLOUR_RGB('',0.509803950786591,0.509803950786591,0.588235318660736);
#548=COLOUR_RGB('',0.509803950786591,0.509803950786591,0.588235318660736);
#549=COLOUR_RGB('',0.509803950786591,0.509803950786591,0.588235318660736);
#550=COLOUR_RGB('',0.509803950786591,0.509803950786591,0.588235318660736);
#551=COLOUR_RGB('',0.509803950786591,0.509803950786591,0.588235318660736);
#552=COLOUR_RGB('',0.509803950786591,0.509803950786591,0.588235318660736);
#553=COLOUR_RGB('',0.509803950786591,0.509803950786591,0.588235318660736);
#554=COLOUR_RGB('',0.509803950786591,0.509803950786591,0.588235318660736);
#555=COLOUR_RGB('',0.509803950786591,0.509803950786591,0.588235318660736);
#556=COLOUR_RGB('',0.509803950786591,0.509803950786591,0.588235318660736);
#557=COLOUR_RGB('',0.509803950786591,0.509803950786591,0.588235318660736);
ENDSEC;
END-ISO-10303-21;
