ISO-10303-21;
HEADER;
FILE_DESCRIPTION(('STEP AP214'),'1');
FILE_NAME(' ','  ',('TraceParts'),('TraceParts S.A.'),'XStep 1.0',' ',' ');
FILE_SCHEMA(('automotive_design'));
ENDSEC;
DATA;
#1=MECHANICAL_DESIGN_GEOMETRIC_PRESENTATION_REPRESENTATION(' ',(#10,#11,#12,#13,#14,#15,#16,#17,#18,#19,#20,#21,#22,#23,#24,#25,#26,#27,#28,#29,#30,#31,#32,#33,#34,#35,#36,#37,#38,#39,#40,#41,#42,#43,#44,#45,#46,#47,#48,#49,#50,#51,#52),#6);
#2=PRODUCT_DEFINITION_CONTEXT('',#53,'design');
#3=APPLICATION_PROTOCOL_DEFINITION('INTERNATIONAL STANDARD','automotive_design',1994,#53);
#4=PRODUCT_CATEGORY_RELATIONSHIP('NONE','NONE',#54,#55);
#5=SHAPE_DEFINITION_REPRESENTATION(#56,#57);
#6= (GEOMETRIC_REPRESENTATION_CONTEXT(3)GLOBAL_UNCERTAINTY_ASSIGNED_CONTEXT((#60))GLOBAL_UNIT_ASSIGNED_CONTEXT((#62,#63,#64))REPRESENTATION_CONTEXT('NONE','WORKSPACE'));
#10=STYLED_ITEM('',(#66),#67);
#11=STYLED_ITEM('',(#68),#69);
#12=STYLED_ITEM('',(#70),#71);
#13=STYLED_ITEM('',(#72),#73);
#14=STYLED_ITEM('',(#74),#75);
#15=STYLED_ITEM('',(#76),#77);
#16=STYLED_ITEM('',(#78),#79);
#17=STYLED_ITEM('',(#80),#81);
#18=STYLED_ITEM('',(#82),#83);
#19=STYLED_ITEM('',(#84),#85);
#20=STYLED_ITEM('',(#86),#87);
#21=STYLED_ITEM('',(#88),#89);
#22=STYLED_ITEM('',(#90),#91);
#23=STYLED_ITEM('',(#92),#93);
#24=STYLED_ITEM('',(#94),#95);
#25=STYLED_ITEM('',(#96),#97);
#26=STYLED_ITEM('',(#98),#99);
#27=STYLED_ITEM('',(#100),#101);
#28=STYLED_ITEM('',(#102),#103);
#29=STYLED_ITEM('',(#104),#105);
#30=STYLED_ITEM('',(#106),#107);
#31=STYLED_ITEM('',(#108),#109);
#32=STYLED_ITEM('',(#110),#111);
#33=STYLED_ITEM('',(#112),#113);
#34=STYLED_ITEM('',(#114),#115);
#35=STYLED_ITEM('',(#116),#117);
#36=STYLED_ITEM('',(#118),#119);
#37=STYLED_ITEM('',(#120),#121);
#38=STYLED_ITEM('',(#122),#123);
#39=STYLED_ITEM('',(#124),#125);
#40=STYLED_ITEM('',(#126),#127);
#41=STYLED_ITEM('',(#128),#129);
#42=STYLED_ITEM('',(#130),#131);
#43=STYLED_ITEM('',(#132),#133);
#44=STYLED_ITEM('',(#134),#135);
#45=STYLED_ITEM('',(#136),#137);
#46=STYLED_ITEM('',(#138),#139);
#47=STYLED_ITEM('',(#140),#141);
#48=STYLED_ITEM('',(#142),#143);
#49=STYLED_ITEM('',(#144),#145);
#50=STYLED_ITEM('',(#146),#147);
#51=STYLED_ITEM('',(#148),#149);
#52=STYLED_ITEM('',(#150),#151);
#53=APPLICATION_CONTEXT(' ');
#54=PRODUCT_CATEGORY('part','NONE');
#55=PRODUCT_RELATED_PRODUCT_CATEGORY('detail',' ',(#152));
#56=PRODUCT_DEFINITION_SHAPE('NONE','NONE',#153);
#57=ADVANCED_BREP_SHAPE_REPRESENTATION('1',(#67,#154),#6);
#60=UNCERTAINTY_MEASURE_WITH_UNIT(LENGTH_MEASURE(1.0E-006),#62,'','');
#62= (CONVERSION_BASED_UNIT('MILLIMETRE',#157)LENGTH_UNIT()NAMED_UNIT(#160));
#63= (NAMED_UNIT(#162)PLANE_ANGLE_UNIT()SI_UNIT($,.RADIAN.));
#64= (NAMED_UNIT(#162)SOLID_ANGLE_UNIT()SI_UNIT($,.STERADIAN.));
#66=PRESENTATION_STYLE_ASSIGNMENT((#168));
#67=MANIFOLD_SOLID_BREP('1',#169);
#68=PRESENTATION_STYLE_ASSIGNMENT((#170));
#69=ADVANCED_FACE('',(#171),#172,.F.);
#70=PRESENTATION_STYLE_ASSIGNMENT((#173));
#71=VERTEX_POINT('',#174);
#72=PRESENTATION_STYLE_ASSIGNMENT((#175));
#73=ADVANCED_FACE('',(#176),#177,.F.);
#74=PRESENTATION_STYLE_ASSIGNMENT((#178));
#75=EDGE_CURVE('',#87,#127,#179,.T.);
#76=PRESENTATION_STYLE_ASSIGNMENT((#180));
#77=ADVANCED_FACE('',(#181),#182,.T.);
#78=PRESENTATION_STYLE_ASSIGNMENT((#183));
#79=VERTEX_POINT('',#184);
#80=PRESENTATION_STYLE_ASSIGNMENT((#185));
#81=VERTEX_POINT('',#186);
#82=PRESENTATION_STYLE_ASSIGNMENT((#187));
#83=EDGE_CURVE('',#137,#79,#188,.T.);
#84=PRESENTATION_STYLE_ASSIGNMENT((#189));
#85=VERTEX_POINT('',#190);
#86=PRESENTATION_STYLE_ASSIGNMENT((#191));
#87=VERTEX_POINT('',#192);
#88=PRESENTATION_STYLE_ASSIGNMENT((#193));
#89=ADVANCED_FACE('',(#194,#195),#196,.T.);
#90=PRESENTATION_STYLE_ASSIGNMENT((#197));
#91=EDGE_CURVE('',#71,#79,#198,.T.);
#92=PRESENTATION_STYLE_ASSIGNMENT((#199));
#93=ADVANCED_FACE('',(#200,#201),#202,.T.);
#94=PRESENTATION_STYLE_ASSIGNMENT((#203));
#95=VERTEX_POINT('',#204);
#96=PRESENTATION_STYLE_ASSIGNMENT((#205));
#97=EDGE_CURVE('',#79,#71,#206,.T.);
#98=PRESENTATION_STYLE_ASSIGNMENT((#207));
#99=EDGE_CURVE('',#137,#85,#208,.T.);
#100=PRESENTATION_STYLE_ASSIGNMENT((#209));
#101=EDGE_CURVE('',#109,#145,#210,.T.);
#102=PRESENTATION_STYLE_ASSIGNMENT((#211));
#103=EDGE_CURVE('',#109,#71,#212,.T.);
#104=PRESENTATION_STYLE_ASSIGNMENT((#213));
#105=EDGE_CURVE('',#145,#109,#214,.T.);
#106=PRESENTATION_STYLE_ASSIGNMENT((#215));
#107=EDGE_CURVE('',#127,#87,#216,.T.);
#108=PRESENTATION_STYLE_ASSIGNMENT((#217));
#109=VERTEX_POINT('',#218);
#110=PRESENTATION_STYLE_ASSIGNMENT((#219));
#111=ADVANCED_FACE('',(#220),#221,.T.);
#112=PRESENTATION_STYLE_ASSIGNMENT((#222));
#113=EDGE_CURVE('',#149,#135,#223,.T.);
#114=PRESENTATION_STYLE_ASSIGNMENT((#224));
#115=ADVANCED_FACE('',(#225),#226,.F.);
#116=PRESENTATION_STYLE_ASSIGNMENT((#227));
#117=EDGE_CURVE('',#95,#81,#228,.T.);
#118=PRESENTATION_STYLE_ASSIGNMENT((#229));
#119=ADVANCED_FACE('',(#230),#231,.T.);
#120=PRESENTATION_STYLE_ASSIGNMENT((#232));
#121=EDGE_CURVE('',#81,#95,#233,.T.);
#122=PRESENTATION_STYLE_ASSIGNMENT((#234));
#123=EDGE_CURVE('',#79,#145,#235,.T.);
#124=PRESENTATION_STYLE_ASSIGNMENT((#236));
#125=EDGE_CURVE('',#81,#135,#237,.T.);
#126=PRESENTATION_STYLE_ASSIGNMENT((#238));
#127=VERTEX_POINT('',#239);
#128=PRESENTATION_STYLE_ASSIGNMENT((#240));
#129=ADVANCED_FACE('',(#241),#242,.T.);
#130=PRESENTATION_STYLE_ASSIGNMENT((#243));
#131=EDGE_CURVE('',#127,#81,#244,.T.);
#132=PRESENTATION_STYLE_ASSIGNMENT((#245));
#133=EDGE_CURVE('',#135,#149,#246,.T.);
#134=PRESENTATION_STYLE_ASSIGNMENT((#247));
#135=VERTEX_POINT('',#248);
#136=PRESENTATION_STYLE_ASSIGNMENT((#249));
#137=VERTEX_POINT('',#250);
#138=PRESENTATION_STYLE_ASSIGNMENT((#251));
#139=EDGE_CURVE('',#85,#137,#252,.T.);
#140=PRESENTATION_STYLE_ASSIGNMENT((#253));
#141=EDGE_CURVE('',#149,#95,#254,.T.);
#142=PRESENTATION_STYLE_ASSIGNMENT((#255));
#143=ADVANCED_FACE('',(#256),#257,.F.);
#144=PRESENTATION_STYLE_ASSIGNMENT((#258));
#145=VERTEX_POINT('',#259);
#146=PRESENTATION_STYLE_ASSIGNMENT((#260));
#147=EDGE_CURVE('',#71,#85,#261,.T.);
#148=PRESENTATION_STYLE_ASSIGNMENT((#262));
#149=VERTEX_POINT('',#263);
#150=PRESENTATION_STYLE_ASSIGNMENT((#264));
#151=EDGE_CURVE('',#95,#87,#265,.T.);
#152=PRODUCT('1','1','PART-1-DESC',(#266));
#153=PRODUCT_DEFINITION('NONE','NONE',#267,#2);
#154=AXIS2_PLACEMENT_3D('',#268,#269,#270);
#157=LENGTH_MEASURE_WITH_UNIT(LENGTH_MEASURE(1.0),#271);
#160=DIMENSIONAL_EXPONENTS(1.0,0.0,0.0,0.0,0.0,0.0,0.0);
#162=DIMENSIONAL_EXPONENTS(0.0,0.0,0.0,0.0,0.0,0.0,0.0);
#168=SURFACE_STYLE_USAGE(.BOTH.,#272);
#169=CLOSED_SHELL('',(#143,#119,#73,#129,#111,#69,#93,#77,#89,#115));
#170=SURFACE_STYLE_USAGE(.BOTH.,#273);
#171=FACE_OUTER_BOUND('',#274,.T.);
#172=CONICAL_SURFACE('',#275,6.75000000000003,0.785398163397448);
#173=POINT_STYLE(' ',#276,POSITIVE_LENGTH_MEASURE(1.0E-006),#277);
#174=CARTESIAN_POINT('',(6.50000000000006,7.98871685353667E-015,4.09999999999999));
#175=SURFACE_STYLE_USAGE(.BOTH.,#278);
#176=FACE_OUTER_BOUND('',#279,.T.);
#177=CONICAL_SURFACE('',#280,6.75000000000003,0.785398163397448);
#178=CURVE_STYLE('',#281,POSITIVE_LENGTH_MEASURE(1.0E-006),#282);
#179=CIRCLE('',#283,12.0);
#180=SURFACE_STYLE_USAGE(.BOTH.,#284);
#181=FACE_OUTER_BOUND('',#285,.T.);
#182=CYLINDRICAL_SURFACE('',#286,12.0);
#183=POINT_STYLE(' ',#287,POSITIVE_LENGTH_MEASURE(1.0E-006),#288);
#184=CARTESIAN_POINT('',(-6.5,5.28876862785044E-015,4.09999999999999));
#185=POINT_STYLE(' ',#289,POSITIVE_LENGTH_MEASURE(1.0E-006),#290);
#186=CARTESIAN_POINT('',(-12.0,4.57849694263346E-015,3.49999999999996));
#187=CURVE_STYLE('',#291,POSITIVE_LENGTH_MEASURE(1.0E-006),#292);
#188=LINE('',#293,#294);
#189=POINT_STYLE(' ',#295,POSITIVE_LENGTH_MEASURE(1.0E-006),#296);
#190=CARTESIAN_POINT('',(7.00000000000006,8.13281984867945E-015,4.59999999999999));
#191=POINT_STYLE(' ',#297,POSITIVE_LENGTH_MEASURE(1.0E-006),#298);
#192=CARTESIAN_POINT('',(12.0000000000001,9.57384980010723E-015,4.59999999999999));
#193=SURFACE_STYLE_USAGE(.BOTH.,#299);
#194=FACE_OUTER_BOUND('',#300,.T.);
#195=FACE_BOUND('',#301,.T.);
#196=PLANE('',#302);
#197=CURVE_STYLE('',#303,POSITIVE_LENGTH_MEASURE(1.0E-006),#304);
#198=CIRCLE('',#305,6.50000000000003);
#199=SURFACE_STYLE_USAGE(.BOTH.,#306);
#200=FACE_OUTER_BOUND('',#307,.T.);
#201=FACE_BOUND('',#308,.T.);
#202=PLANE('',#309);
#203=POINT_STYLE(' ',#310,POSITIVE_LENGTH_MEASURE(1.0E-006),#311);
#204=CARTESIAN_POINT('',(12.0000000000001,9.72439047796114E-015,3.49999999999987));
#205=CURVE_STYLE('',#312,POSITIVE_LENGTH_MEASURE(1.0E-006),#313);
#206=CIRCLE('',#314,6.50000000000003);
#207=CURVE_STYLE('',#315,POSITIVE_LENGTH_MEASURE(1.0E-006),#316);
#208=CIRCLE('',#317,7.00000000000003);
#209=CURVE_STYLE('',#318,POSITIVE_LENGTH_MEASURE(1.0E-006),#319);
#210=CIRCLE('',#320,6.50000000000003);
#211=CURVE_STYLE('',#321,POSITIVE_LENGTH_MEASURE(1.0E-006),#322);
#212=LINE('',#323,#324);
#213=CURVE_STYLE('',#325,POSITIVE_LENGTH_MEASURE(1.0E-006),#326);
#214=CIRCLE('',#327,6.50000000000003);
#215=CURVE_STYLE('',#328,POSITIVE_LENGTH_MEASURE(1.0E-006),#329);
#216=CIRCLE('',#330,12.0);
#217=POINT_STYLE(' ',#331,POSITIVE_LENGTH_MEASURE(1.0E-006),#332);
#218=CARTESIAN_POINT('',(6.50000000000006,7.98871685353667E-015,-2.8421709430404E-014));
#219=SURFACE_STYLE_USAGE(.BOTH.,#333);
#220=FACE_OUTER_BOUND('',#334,.T.);
#221=SPHERICAL_SURFACE('',#335,17.0);
#222=CURVE_STYLE('',#336,POSITIVE_LENGTH_MEASURE(1.0E-006),#337);
#223=CIRCLE('',#338,6.88903751974513);
#224=SURFACE_STYLE_USAGE(.BOTH.,#339);
#225=FACE_OUTER_BOUND('',#340,.T.);
#226=CYLINDRICAL_SURFACE('',#341,6.50000000000003);
#227=CURVE_STYLE('',#342,POSITIVE_LENGTH_MEASURE(1.0E-006),#343);
#228=CIRCLE('',#344,12.0);
#229=SURFACE_STYLE_USAGE(.BOTH.,#345);
#230=FACE_OUTER_BOUND('',#346,.T.);
#231=CYLINDRICAL_SURFACE('',#347,12.0);
#232=CURVE_STYLE('',#348,POSITIVE_LENGTH_MEASURE(1.0E-006),#349);
#233=CIRCLE('',#350,12.0);
#234=CURVE_STYLE('',#351,POSITIVE_LENGTH_MEASURE(1.0E-006),#352);
#235=LINE('',#353,#354);
#236=CURVE_STYLE('',#355,POSITIVE_LENGTH_MEASURE(1.0E-006),#356);
#237=CIRCLE('',#357,17.0);
#238=POINT_STYLE(' ',#358,POSITIVE_LENGTH_MEASURE(1.0E-006),#359);
#239=CARTESIAN_POINT('',(-12.0,4.64585029209369E-015,4.59999999999999));
#240=SURFACE_STYLE_USAGE(.BOTH.,#360);
#241=FACE_OUTER_BOUND('',#361,.T.);
#242=SPHERICAL_SURFACE('',#362,17.0);
#243=CURVE_STYLE('',#363,POSITIVE_LENGTH_MEASURE(1.0E-006),#364);
#244=LINE('',#365,#366);
#245=CURVE_STYLE('',#367,POSITIVE_LENGTH_MEASURE(1.0E-006),#368);
#246=CIRCLE('',#369,6.88903751974513);
#247=POINT_STYLE(' ',#370,POSITIVE_LENGTH_MEASURE(1.0E-006),#371);
#248=CARTESIAN_POINT('',(-6.88903751974492,4.99008254346135E-015,-3.5527136788005E-014));
#249=POINT_STYLE(' ',#372,POSITIVE_LENGTH_MEASURE(1.0E-006),#373);
#250=CARTESIAN_POINT('',(-7.0,5.25815346900488E-015,4.59999999999999));
#251=CURVE_STYLE('',#374,POSITIVE_LENGTH_MEASURE(1.0E-006),#375);
#252=CIRCLE('',#376,7.00000000000003);
#253=CURVE_STYLE('',#377,POSITIVE_LENGTH_MEASURE(1.0E-006),#378);
#254=CIRCLE('',#379,17.0);
#255=SURFACE_STYLE_USAGE(.BOTH.,#380);
#256=FACE_OUTER_BOUND('',#381,.T.);
#257=CYLINDRICAL_SURFACE('',#382,6.50000000000003);
#258=POINT_STYLE(' ',#383,POSITIVE_LENGTH_MEASURE(1.0E-006),#384);
#259=CARTESIAN_POINT('',(-6.5,5.03772432531685E-015,-2.8421709430404E-014));
#260=CURVE_STYLE('',#385,POSITIVE_LENGTH_MEASURE(1.0E-006),#386);
#261=LINE('',#387,#388);
#262=POINT_STYLE(' ',#389,POSITIVE_LENGTH_MEASURE(1.0E-006),#390);
#263=CARTESIAN_POINT('',(6.88903751974507,8.47260705246753E-015,-1.4210854715202E-014));
#264=CURVE_STYLE('',#391,POSITIVE_LENGTH_MEASURE(1.0E-006),#392);
#265=LINE('',#393,#394);
#266=PRODUCT_CONTEXT('',#53,'mechanical');
#267=PRODUCT_DEFINITION_FORMATION_WITH_SPECIFIED_SOURCE(' ','NONE',#152,.NOT_KNOWN.);
#268=CARTESIAN_POINT('',(0.0,0.0,0.0));
#269=DIRECTION('',(0.0,0.0,1.0));
#270=DIRECTION('',(1.0,0.0,0.0));
#271= (NAMED_UNIT(#160)LENGTH_UNIT()SI_UNIT(.MILLI.,.METRE.));
#272=SURFACE_SIDE_STYLE('',(#396));
#273=SURFACE_SIDE_STYLE('',(#397));
#274=EDGE_LOOP('',(#398,#399,#400,#401));
#275=AXIS2_PLACEMENT_3D('',#402,#403,#404);
#276=PRE_DEFINED_MARKER('');
#277=COLOUR_RGB('',0.509803950786591,0.509803950786591,0.588235318660736);
#278=SURFACE_SIDE_STYLE('',(#405));
#279=EDGE_LOOP('',(#406,#407,#408,#409));
#280=AXIS2_PLACEMENT_3D('',#410,#411,#412);
#281=DRAUGHTING_PRE_DEFINED_CURVE_FONT('continuous');
#282=COLOUR_RGB('',0.509803950786591,0.509803950786591,0.588235318660736);
#283=AXIS2_PLACEMENT_3D('',#413,#414,#415);
#284=SURFACE_SIDE_STYLE('',(#416));
#285=EDGE_LOOP('',(#417,#418,#419,#420));
#286=AXIS2_PLACEMENT_3D('',#421,#422,#423);
#287=PRE_DEFINED_MARKER('');
#288=COLOUR_RGB('',0.509803950786591,0.509803950786591,0.588235318660736);
#289=PRE_DEFINED_MARKER('');
#290=COLOUR_RGB('',0.509803950786591,0.509803950786591,0.588235318660736);
#291=DRAUGHTING_PRE_DEFINED_CURVE_FONT('continuous');
#292=COLOUR_RGB('',0.509803950786591,0.509803950786591,0.588235318660736);
#293=CARTESIAN_POINT('',(-6.75,4.16998748225302E-015,4.34999999999999));
#294=VECTOR('',#424,1.0);
#295=PRE_DEFINED_MARKER('');
#296=COLOUR_RGB('',0.509803950786591,0.509803950786591,0.588235318660736);
#297=PRE_DEFINED_MARKER('');
#298=COLOUR_RGB('',0.509803950786591,0.509803950786591,0.588235318660736);
#299=SURFACE_SIDE_STYLE('',(#425));
#300=EDGE_LOOP('',(#426,#427));
#301=EDGE_LOOP('',(#428,#429));
#302=AXIS2_PLACEMENT_3D('',#430,#431,#432);
#303=DRAUGHTING_PRE_DEFINED_CURVE_FONT('continuous');
#304=COLOUR_RGB('',0.509803950786591,0.509803950786591,0.588235318660736);
#305=AXIS2_PLACEMENT_3D('',#433,#434,#435);
#306=SURFACE_SIDE_STYLE('',(#436));
#307=EDGE_LOOP('',(#437,#438));
#308=EDGE_LOOP('',(#439,#440));
#309=AXIS2_PLACEMENT_3D('',#441,#442,#443);
#310=PRE_DEFINED_MARKER('');
#311=COLOUR_RGB('',0.509803950786591,0.509803950786591,0.588235318660736);
#312=DRAUGHTING_PRE_DEFINED_CURVE_FONT('continuous');
#313=COLOUR_RGB('',0.509803950786591,0.509803950786591,0.588235318660736);
#314=AXIS2_PLACEMENT_3D('',#444,#445,#446);
#315=DRAUGHTING_PRE_DEFINED_CURVE_FONT('continuous');
#316=COLOUR_RGB('',0.509803950786591,0.509803950786591,0.588235318660736);
#317=AXIS2_PLACEMENT_3D('',#447,#448,#449);
#318=DRAUGHTING_PRE_DEFINED_CURVE_FONT('continuous');
#319=COLOUR_RGB('',0.509803950786591,0.509803950786591,0.588235318660736);
#320=AXIS2_PLACEMENT_3D('',#450,#451,#452);
#321=DRAUGHTING_PRE_DEFINED_CURVE_FONT('continuous');
#322=COLOUR_RGB('',0.509803950786591,0.509803950786591,0.588235318660736);
#323=CARTESIAN_POINT('',(6.50000000000006,7.98871685353667E-015,2.04999999999998));
#324=VECTOR('',#453,1.0);
#325=DRAUGHTING_PRE_DEFINED_CURVE_FONT('continuous');
#326=COLOUR_RGB('',0.509803950786591,0.509803950786591,0.588235318660736);
#327=AXIS2_PLACEMENT_3D('',#454,#455,#456);
#328=DRAUGHTING_PRE_DEFINED_CURVE_FONT('continuous');
#329=COLOUR_RGB('',0.509803950786591,0.509803950786591,0.588235318660736);
#330=AXIS2_PLACEMENT_3D('',#457,#458,#459);
#331=PRE_DEFINED_MARKER('');
#332=COLOUR_RGB('',0.509803950786591,0.509803950786591,0.588235318660736);
#333=SURFACE_SIDE_STYLE('',(#460));
#334=EDGE_LOOP('',(#461,#462,#463,#464));
#335=AXIS2_PLACEMENT_3D('',#465,#466,#467);
#336=DRAUGHTING_PRE_DEFINED_CURVE_FONT('continuous');
#337=COLOUR_RGB('',0.509803950786591,0.509803950786591,0.588235318660736);
#338=AXIS2_PLACEMENT_3D('',#468,#469,#470);
#339=SURFACE_SIDE_STYLE('',(#471));
#340=EDGE_LOOP('',(#472,#473,#474,#475));
#341=AXIS2_PLACEMENT_3D('',#476,#477,#478);
#342=DRAUGHTING_PRE_DEFINED_CURVE_FONT('continuous');
#343=COLOUR_RGB('',0.509803950786591,0.509803950786591,0.588235318660736);
#344=AXIS2_PLACEMENT_3D('',#479,#480,#481);
#345=SURFACE_SIDE_STYLE('',(#482));
#346=EDGE_LOOP('',(#483,#484,#485,#486));
#347=AXIS2_PLACEMENT_3D('',#487,#488,#489);
#348=DRAUGHTING_PRE_DEFINED_CURVE_FONT('continuous');
#349=COLOUR_RGB('',0.509803950786591,0.509803950786591,0.588235318660736);
#350=AXIS2_PLACEMENT_3D('',#490,#491,#492);
#351=DRAUGHTING_PRE_DEFINED_CURVE_FONT('continuous');
#352=COLOUR_RGB('',0.509803950786591,0.509803950786591,0.588235318660736);
#353=CARTESIAN_POINT('',(-6.5,4.24203897982441E-015,2.04999999999998));
#354=VECTOR('',#493,1.0);
#355=DRAUGHTING_PRE_DEFINED_CURVE_FONT('continuous');
#356=COLOUR_RGB('',0.509803950786591,0.509803950786591,0.588235318660736);
#357=AXIS2_PLACEMENT_3D('',#494,#495,#496);
#358=PRE_DEFINED_MARKER('');
#359=COLOUR_RGB('',0.509803950786591,0.509803950786591,0.588235318660736);
#360=SURFACE_SIDE_STYLE('',(#497));
#361=EDGE_LOOP('',(#498,#499,#500,#501));
#362=AXIS2_PLACEMENT_3D('',#502,#503,#504);
#363=DRAUGHTING_PRE_DEFINED_CURVE_FONT('continuous');
#364=COLOUR_RGB('',0.509803950786591,0.509803950786591,0.588235318660736);
#365=CARTESIAN_POINT('',(-12.0,2.65690603325385E-015,4.04999999999993));
#366=VECTOR('',#505,1.0);
#367=DRAUGHTING_PRE_DEFINED_CURVE_FONT('continuous');
#368=COLOUR_RGB('',0.509803950786591,0.509803950786591,0.588235318660736);
#369=AXIS2_PLACEMENT_3D('',#506,#507,#508);
#370=PRE_DEFINED_MARKER('');
#371=COLOUR_RGB('',0.509803950786591,0.509803950786591,0.588235318660736);
#372=PRE_DEFINED_MARKER('');
#373=COLOUR_RGB('',0.509803950786591,0.509803950786591,0.588235318660736);
#374=DRAUGHTING_PRE_DEFINED_CURVE_FONT('continuous');
#375=COLOUR_RGB('',0.509803950786591,0.509803950786591,0.588235318660736);
#376=AXIS2_PLACEMENT_3D('',#509,#510,#511);
#377=DRAUGHTING_PRE_DEFINED_CURVE_FONT('continuous');
#378=COLOUR_RGB('',0.509803950786591,0.509803950786591,0.588235318660736);
#379=AXIS2_PLACEMENT_3D('',#512,#513,#514);
#380=SURFACE_SIDE_STYLE('',(#515));
#381=EDGE_LOOP('',(#516,#517,#518,#519));
#382=AXIS2_PLACEMENT_3D('',#520,#521,#522);
#383=PRE_DEFINED_MARKER('');
#384=COLOUR_RGB('',0.509803950786591,0.509803950786591,0.588235318660736);
#385=DRAUGHTING_PRE_DEFINED_CURVE_FONT('continuous');
#386=COLOUR_RGB('',0.509803950786591,0.509803950786591,0.588235318660736);
#387=CARTESIAN_POINT('',(6.75000000000006,8.06076835110806E-015,4.34999999999999));
#388=VECTOR('',#523,1.0);
#389=PRE_DEFINED_MARKER('');
#390=COLOUR_RGB('',0.509803950786591,0.509803950786591,0.588235318660736);
#391=DRAUGHTING_PRE_DEFINED_CURVE_FONT('continuous');
#392=COLOUR_RGB('',0.509803950786591,0.509803950786591,0.588235318660736);
#393=CARTESIAN_POINT('',(12.0000000000001,9.57384980010723E-015,4.04999999999993));
#394=VECTOR('',#524,1.0);
#396=SURFACE_STYLE_FILL_AREA(#525);
#397=SURFACE_STYLE_FILL_AREA(#526);
#398=ORIENTED_EDGE('',*,*,#83,.T.);
#399=ORIENTED_EDGE('',*,*,#97,.T.);
#400=ORIENTED_EDGE('',*,*,#147,.T.);
#401=ORIENTED_EDGE('',*,*,#99,.F.);
#402=CARTESIAN_POINT('',(2.8421709430404E-014,6.11537791668054E-015,4.34999999999999));
#403=DIRECTION('',(0.0,-0.0,1.0));
#404=DIRECTION('',(-1.0,-1.65745354903319E-016,0.0));
#405=SURFACE_STYLE_FILL_AREA(#527);
#406=ORIENTED_EDGE('',*,*,#83,.F.);
#407=ORIENTED_EDGE('',*,*,#139,.F.);
#408=ORIENTED_EDGE('',*,*,#147,.F.);
#409=ORIENTED_EDGE('',*,*,#91,.T.);
#410=CARTESIAN_POINT('',(2.8421709430404E-014,6.11537791668054E-015,4.34999999999999));
#411=DIRECTION('',(0.0,-0.0,1.0));
#412=DIRECTION('',(-1.0,-1.65745354903319E-016,0.0));
#413=CARTESIAN_POINT('',(2.8421709430404E-014,6.11537791668054E-015,4.59999999999999));
#414=DIRECTION('',(-0.0,0.0,-1.0));
#415=DIRECTION('',(-1.0,-1.65745354903319E-016,0.0));
#416=SURFACE_STYLE_FILL_AREA(#528);
#417=ORIENTED_EDGE('',*,*,#131,.T.);
#418=ORIENTED_EDGE('',*,*,#121,.T.);
#419=ORIENTED_EDGE('',*,*,#151,.T.);
#420=ORIENTED_EDGE('',*,*,#75,.T.);
#421=CARTESIAN_POINT('',(2.8421709430404E-014,6.11537791668054E-015,2.3));
#422=DIRECTION('',(0.0,-0.0,1.0));
#423=DIRECTION('',(-1.0,-1.65745354903319E-016,0.0));
#424=DIRECTION('',(0.707106781186548,2.03792410109501E-016,-0.707106781186547));
#425=SURFACE_STYLE_FILL_AREA(#529);
#426=ORIENTED_EDGE('',*,*,#133,.T.);
#427=ORIENTED_EDGE('',*,*,#113,.T.);
#428=ORIENTED_EDGE('',*,*,#105,.F.);
#429=ORIENTED_EDGE('',*,*,#101,.F.);
#430=CARTESIAN_POINT('',(-9.25,4.70095757801569E-015,-1.4210854715202E-014));
#431=DIRECTION('',(0.0,0.0,-1.0));
#432=DIRECTION('',(1.0,1.22460635382238E-016,0.0));
#433=CARTESIAN_POINT('',(2.8421709430404E-014,6.11537791668054E-015,4.09999999999999));
#434=DIRECTION('',(-0.0,0.0,-1.0));
#435=DIRECTION('',(-1.0,-1.65745354903319E-016,0.0));
#436=SURFACE_STYLE_FILL_AREA(#530);
#437=ORIENTED_EDGE('',*,*,#107,.F.);
#438=ORIENTED_EDGE('',*,*,#75,.F.);
#439=ORIENTED_EDGE('',*,*,#99,.T.);
#440=ORIENTED_EDGE('',*,*,#139,.T.);
#441=CARTESIAN_POINT('',(-9.5,4.95200188054928E-015,4.59999999999999));
#442=DIRECTION('',(0.0,0.0,1.0));
#443=DIRECTION('',(-1.0,-1.22460635382238E-016,0.0));
#444=CARTESIAN_POINT('',(2.8421709430404E-014,6.11537791668054E-015,4.09999999999999));
#445=DIRECTION('',(-0.0,0.0,-1.0));
#446=DIRECTION('',(-1.0,-1.65745354903319E-016,0.0));
#447=CARTESIAN_POINT('',(2.8421709430404E-014,6.11537791668054E-015,4.59999999999999));
#448=DIRECTION('',(-0.0,0.0,-1.0));
#449=DIRECTION('',(-1.0,-1.65745354903319E-016,0.0));
#450=CARTESIAN_POINT('',(2.8421709430404E-014,6.11537791668054E-015,-2.8421709430404E-014));
#451=DIRECTION('',(-0.0,0.0,-1.0));
#452=DIRECTION('',(-1.0,-1.65745354903319E-016,0.0));
#453=DIRECTION('',(0.0,0.0,1.0));
#454=CARTESIAN_POINT('',(2.8421709430404E-014,6.11537791668054E-015,-2.8421709430404E-014));
#455=DIRECTION('',(-0.0,0.0,-1.0));
#456=DIRECTION('',(-1.0,-1.65745354903319E-016,0.0));
#457=CARTESIAN_POINT('',(2.8421709430404E-014,6.11537791668054E-015,4.59999999999999));
#458=DIRECTION('',(-0.0,0.0,-1.0));
#459=DIRECTION('',(-1.0,-1.65745354903319E-016,0.0));
#460=SURFACE_STYLE_FILL_AREA(#531);
#461=ORIENTED_EDGE('',*,*,#141,.T.);
#462=ORIENTED_EDGE('',*,*,#121,.F.);
#463=ORIENTED_EDGE('',*,*,#125,.T.);
#464=ORIENTED_EDGE('',*,*,#113,.F.);
#465=CARTESIAN_POINT('',(-5.15143483426073E-014,6.7853352287874E-015,15.5415945787922));
#466=DIRECTION('',(0.0,0.0,-1.0));
#467=DIRECTION('',(1.0,1.22460635382238E-016,0.0));
#468=CARTESIAN_POINT('',(-5.15143483426073E-014,6.7853352287874E-015,-1.4210854715202E-014));
#469=DIRECTION('',(0.0,0.0,-1.0));
#470=DIRECTION('',(0.0,-1.0,0.0));
#471=SURFACE_STYLE_FILL_AREA(#532);
#472=ORIENTED_EDGE('',*,*,#123,.T.);
#473=ORIENTED_EDGE('',*,*,#105,.T.);
#474=ORIENTED_EDGE('',*,*,#103,.T.);
#475=ORIENTED_EDGE('',*,*,#97,.F.);
#476=CARTESIAN_POINT('',(2.8421709430404E-014,6.11537791668054E-015,2.04999999999998));
#477=DIRECTION('',(0.0,-0.0,1.0));
#478=DIRECTION('',(-1.0,-1.65745354903319E-016,0.0));
#479=CARTESIAN_POINT('',(2.8421709430404E-014,6.11537791668054E-015,3.49999999999987));
#480=DIRECTION('',(0.0,0.0,1.0));
#481=DIRECTION('',(-1.0,-1.65745354903319E-016,0.0));
#482=SURFACE_STYLE_FILL_AREA(#533);
#483=ORIENTED_EDGE('',*,*,#131,.F.);
#484=ORIENTED_EDGE('',*,*,#107,.T.);
#485=ORIENTED_EDGE('',*,*,#151,.F.);
#486=ORIENTED_EDGE('',*,*,#117,.T.);
#487=CARTESIAN_POINT('',(2.8421709430404E-014,6.11537791668054E-015,2.3));
#488=DIRECTION('',(0.0,-0.0,1.0));
#489=DIRECTION('',(-1.0,-1.65745354903319E-016,0.0));
#490=CARTESIAN_POINT('',(2.8421709430404E-014,6.11537791668054E-015,3.49999999999987));
#491=DIRECTION('',(0.0,0.0,1.0));
#492=DIRECTION('',(-1.0,-1.65745354903319E-016,0.0));
#493=DIRECTION('',(0.0,0.0,-1.0));
#494=CARTESIAN_POINT('',(-5.15143483426073E-014,6.7853352287874E-015,15.5415945787922));
#495=DIRECTION('',(2.44921270764475E-016,-1.0,0.0));
#496=DIRECTION('',(-0.0,0.0,1.0));
#497=SURFACE_STYLE_FILL_AREA(#534);
#498=ORIENTED_EDGE('',*,*,#141,.F.);
#499=ORIENTED_EDGE('',*,*,#133,.F.);
#500=ORIENTED_EDGE('',*,*,#125,.F.);
#501=ORIENTED_EDGE('',*,*,#117,.F.);
#502=CARTESIAN_POINT('',(-5.15143483426073E-014,6.7853352287874E-015,15.5415945787922));
#503=DIRECTION('',(0.0,0.0,-1.0));
#504=DIRECTION('',(1.0,1.22460635382238E-016,0.0));
#505=DIRECTION('',(0.0,0.0,-1.0));
#506=CARTESIAN_POINT('',(-5.15143483426073E-014,6.7853352287874E-015,-1.4210854715202E-014));
#507=DIRECTION('',(0.0,0.0,-1.0));
#508=DIRECTION('',(0.0,-1.0,0.0));
#509=CARTESIAN_POINT('',(2.8421709430404E-014,6.11537791668054E-015,4.59999999999999));
#510=DIRECTION('',(-0.0,0.0,-1.0));
#511=DIRECTION('',(-1.0,-1.65745354903319E-016,0.0));
#512=CARTESIAN_POINT('',(-5.15143483426073E-014,6.7853352287874E-015,15.5415945787922));
#513=DIRECTION('',(2.44921270764475E-016,-1.0,0.0));
#514=DIRECTION('',(-0.0,0.0,1.0));
#515=SURFACE_STYLE_FILL_AREA(#535);
#516=ORIENTED_EDGE('',*,*,#123,.F.);
#517=ORIENTED_EDGE('',*,*,#91,.F.);
#518=ORIENTED_EDGE('',*,*,#103,.F.);
#519=ORIENTED_EDGE('',*,*,#101,.T.);
#520=CARTESIAN_POINT('',(2.8421709430404E-014,6.11537791668054E-015,2.04999999999998));
#521=DIRECTION('',(0.0,-0.0,1.0));
#522=DIRECTION('',(-1.0,-1.65745354903319E-016,0.0));
#523=DIRECTION('',(0.707106781186548,2.03792410109501E-016,0.707106781186547));
#524=DIRECTION('',(-0.0,-0.0,1.0));
#525=FILL_AREA_STYLE('',(#536));
#526=FILL_AREA_STYLE('',(#537));
#527=FILL_AREA_STYLE('',(#538));
#528=FILL_AREA_STYLE('',(#539));
#529=FILL_AREA_STYLE('',(#540));
#530=FILL_AREA_STYLE('',(#541));
#531=FILL_AREA_STYLE('',(#542));
#532=FILL_AREA_STYLE('',(#543));
#533=FILL_AREA_STYLE('',(#544));
#534=FILL_AREA_STYLE('',(#545));
#535=FILL_AREA_STYLE('',(#546));
#536=FILL_AREA_STYLE_COLOUR('',#547);
#537=FILL_AREA_STYLE_COLOUR('',#548);
#538=FILL_AREA_STYLE_COLOUR('',#549);
#539=FILL_AREA_STYLE_COLOUR('',#550);
#540=FILL_AREA_STYLE_COLOUR('',#551);
#541=FILL_AREA_STYLE_COLOUR('',#552);
#542=FILL_AREA_STYLE_COLOUR('',#553);
#543=FILL_AREA_STYLE_COLOUR('',#554);
#544=FILL_AREA_STYLE_COLOUR('',#555);
#545=FILL_AREA_STYLE_COLOUR('',#556);
#546=FILL_AREA_STYLE_COLOUR('',#557);
#547=COLOUR_RGB('',0.509803950786591,0.509803950786591,0.588235318660736);
#548=COLOUR_RGB('',0.509803950786591,0.509803950786591,0.588235318660736);
#549=COLOUR_RGB('',0.509803950786591,0.509803950786591,0.588235318660736);
#550=COLOUR_RGB('',0.509803950786591,0.509803950786591,0.588235318660736);
#551=COLOUR_RGB('',0.509803950786591,0.509803950786591,0.588235318660736);
#552=COLOUR_RGB('',0.509803950786591,0.509803950786591,0.588235318660736);
#553=COLOUR_RGB('',0.509803950786591,0.509803950786591,0.588235318660736);
#554=COLOUR_RGB('',0.509803950786591,0.509803950786591,0.588235318660736);
#555=COLOUR_RGB('',0.509803950786591,0.509803950786591,0.588235318660736);
#556=COLOUR_RGB('',0.509803950786591,0.509803950786591,0.588235318660736);
#557=COLOUR_RGB('',0.509803950786591,0.509803950786591,0.588235318660736);
ENDSEC;
END-ISO-10303-21;
