ISO-10303-21;
HEADER;
FILE_DESCRIPTION(('STEP AP214'),'1');
FILE_NAME(' ','  ',('TraceParts'),('TraceParts S.A.'),'XStep 1.0',' ',' ');
FILE_SCHEMA(('automotive_design'));
ENDSEC;
DATA;
#1=MECHANICAL_DESIGN_GEOMETRIC_PRESENTATION_REPRESENTATION(' ',(#10,#11,#12,#13,#14,#15,#16,#17,#18,#19,#20,#21,#22,#23,#24,#25,#26,#27,#28,#29,#30,#31,#32,#33,#34,#35,#36,#37,#38,#39,#40,#41,#42,#43,#44),#6);
#2=PRODUCT_DEFINITION_CONTEXT('',#45,'design');
#3=APPLICATION_PROTOCOL_DEFINITION('INTERNATIONAL STANDARD','automotive_design',1994,#45);
#4=PRODUCT_CATEGORY_RELATIONSHIP('NONE','NONE',#46,#47);
#5=SHAPE_DEFINITION_REPRESENTATION(#48,#49);
#6= (GEOMETRIC_REPRESENTATION_CONTEXT(3)GLOBAL_UNCERTAINTY_ASSIGNED_CONTEXT((#52))GLOBAL_UNIT_ASSIGNED_CONTEXT((#54,#55,#56))REPRESENTATION_CONTEXT('NONE','WORKSPACE'));
#10=STYLED_ITEM('',(#58),#59);
#11=STYLED_ITEM('',(#60),#61);
#12=STYLED_ITEM('',(#62),#63);
#13=STYLED_ITEM('',(#64),#65);
#14=STYLED_ITEM('',(#66),#67);
#15=STYLED_ITEM('',(#68),#69);
#16=STYLED_ITEM('',(#70),#71);
#17=STYLED_ITEM('',(#72),#73);
#18=STYLED_ITEM('',(#74),#75);
#19=STYLED_ITEM('',(#76),#77);
#20=STYLED_ITEM('',(#78),#79);
#21=STYLED_ITEM('',(#80),#81);
#22=STYLED_ITEM('',(#82),#83);
#23=STYLED_ITEM('',(#84),#85);
#24=STYLED_ITEM('',(#86),#87);
#25=STYLED_ITEM('',(#88),#89);
#26=STYLED_ITEM('',(#90),#91);
#27=STYLED_ITEM('',(#92),#93);
#28=STYLED_ITEM('',(#94),#95);
#29=STYLED_ITEM('',(#96),#97);
#30=STYLED_ITEM('',(#98),#99);
#31=STYLED_ITEM('',(#100),#101);
#32=STYLED_ITEM('',(#102),#103);
#33=STYLED_ITEM('',(#104),#105);
#34=STYLED_ITEM('',(#106),#107);
#35=STYLED_ITEM('',(#108),#109);
#36=STYLED_ITEM('',(#110),#111);
#37=STYLED_ITEM('',(#112),#113);
#38=STYLED_ITEM('',(#114),#115);
#39=STYLED_ITEM('',(#116),#117);
#40=STYLED_ITEM('',(#118),#119);
#41=STYLED_ITEM('',(#120),#121);
#42=STYLED_ITEM('',(#122),#123);
#43=STYLED_ITEM('',(#124),#125);
#44=STYLED_ITEM('',(#126),#127);
#45=APPLICATION_CONTEXT(' ');
#46=PRODUCT_CATEGORY('part','NONE');
#47=PRODUCT_RELATED_PRODUCT_CATEGORY('detail',' ',(#128));
#48=PRODUCT_DEFINITION_SHAPE('NONE','NONE',#129);
#49=ADVANCED_BREP_SHAPE_REPRESENTATION('1',(#65,#130),#6);
#52=UNCERTAINTY_MEASURE_WITH_UNIT(LENGTH_MEASURE(1.0E-006),#54,'','');
#54= (CONVERSION_BASED_UNIT('MILLIMETRE',#133)LENGTH_UNIT()NAMED_UNIT(#136));
#55= (NAMED_UNIT(#138)PLANE_ANGLE_UNIT()SI_UNIT($,.RADIAN.));
#56= (NAMED_UNIT(#138)SOLID_ANGLE_UNIT()SI_UNIT($,.STERADIAN.));
#58=PRESENTATION_STYLE_ASSIGNMENT((#144));
#59=ADVANCED_FACE('',(#145),#146,.F.);
#60=PRESENTATION_STYLE_ASSIGNMENT((#147));
#61=EDGE_CURVE('',#103,#67,#148,.T.);
#62=PRESENTATION_STYLE_ASSIGNMENT((#149));
#63=EDGE_CURVE('',#67,#111,#150,.T.);
#64=PRESENTATION_STYLE_ASSIGNMENT((#151));
#65=MANIFOLD_SOLID_BREP('1',#152);
#66=PRESENTATION_STYLE_ASSIGNMENT((#153));
#67=VERTEX_POINT('',#154);
#68=PRESENTATION_STYLE_ASSIGNMENT((#155));
#69=ADVANCED_FACE('',(#156),#157,.F.);
#70=PRESENTATION_STYLE_ASSIGNMENT((#158));
#71=EDGE_CURVE('',#75,#85,#159,.T.);
#72=PRESENTATION_STYLE_ASSIGNMENT((#160));
#73=EDGE_CURVE('',#115,#85,#161,.T.);
#74=PRESENTATION_STYLE_ASSIGNMENT((#162));
#75=VERTEX_POINT('',#163);
#76=PRESENTATION_STYLE_ASSIGNMENT((#164));
#77=EDGE_CURVE('',#113,#75,#165,.T.);
#78=PRESENTATION_STYLE_ASSIGNMENT((#166));
#79=ADVANCED_FACE('',(#167),#168,.T.);
#80=PRESENTATION_STYLE_ASSIGNMENT((#169));
#81=EDGE_CURVE('',#87,#123,#170,.T.);
#82=PRESENTATION_STYLE_ASSIGNMENT((#171));
#83=ADVANCED_FACE('',(#172),#173,.T.);
#84=PRESENTATION_STYLE_ASSIGNMENT((#174));
#85=VERTEX_POINT('',#175);
#86=PRESENTATION_STYLE_ASSIGNMENT((#176));
#87=VERTEX_POINT('',#177);
#88=PRESENTATION_STYLE_ASSIGNMENT((#178));
#89=ADVANCED_FACE('',(#179,#180),#181,.T.);
#90=PRESENTATION_STYLE_ASSIGNMENT((#182));
#91=EDGE_CURVE('',#103,#97,#183,.T.);
#92=PRESENTATION_STYLE_ASSIGNMENT((#184));
#93=EDGE_CURVE('',#97,#103,#185,.T.);
#94=PRESENTATION_STYLE_ASSIGNMENT((#186));
#95=EDGE_CURVE('',#85,#115,#187,.T.);
#96=PRESENTATION_STYLE_ASSIGNMENT((#188));
#97=VERTEX_POINT('',#189);
#98=PRESENTATION_STYLE_ASSIGNMENT((#190));
#99=EDGE_CURVE('',#97,#123,#191,.T.);
#100=PRESENTATION_STYLE_ASSIGNMENT((#192));
#101=EDGE_CURVE('',#115,#113,#193,.T.);
#102=PRESENTATION_STYLE_ASSIGNMENT((#194));
#103=VERTEX_POINT('',#195);
#104=PRESENTATION_STYLE_ASSIGNMENT((#196));
#105=EDGE_CURVE('',#111,#67,#197,.T.);
#106=PRESENTATION_STYLE_ASSIGNMENT((#198));
#107=ADVANCED_FACE('',(#199,#200),#201,.T.);
#108=PRESENTATION_STYLE_ASSIGNMENT((#202));
#109=ADVANCED_FACE('',(#203),#204,.F.);
#110=PRESENTATION_STYLE_ASSIGNMENT((#205));
#111=VERTEX_POINT('',#206);
#112=PRESENTATION_STYLE_ASSIGNMENT((#207));
#113=VERTEX_POINT('',#208);
#114=PRESENTATION_STYLE_ASSIGNMENT((#209));
#115=VERTEX_POINT('',#210);
#116=PRESENTATION_STYLE_ASSIGNMENT((#211));
#117=EDGE_CURVE('',#123,#87,#212,.T.);
#118=PRESENTATION_STYLE_ASSIGNMENT((#213));
#119=ADVANCED_FACE('',(#214),#215,.F.);
#120=PRESENTATION_STYLE_ASSIGNMENT((#216));
#121=EDGE_CURVE('',#75,#113,#217,.T.);
#122=PRESENTATION_STYLE_ASSIGNMENT((#218));
#123=VERTEX_POINT('',#219);
#124=PRESENTATION_STYLE_ASSIGNMENT((#220));
#125=EDGE_CURVE('',#87,#103,#221,.T.);
#126=PRESENTATION_STYLE_ASSIGNMENT((#222));
#127=EDGE_CURVE('',#111,#97,#223,.T.);
#128=PRODUCT('1','1','PART-1-DESC',(#224));
#129=PRODUCT_DEFINITION('NONE','NONE',#225,#2);
#130=AXIS2_PLACEMENT_3D('',#226,#227,#228);
#133=LENGTH_MEASURE_WITH_UNIT(LENGTH_MEASURE(1.0),#229);
#136=DIMENSIONAL_EXPONENTS(1.0,0.0,0.0,0.0,0.0,0.0,0.0);
#138=DIMENSIONAL_EXPONENTS(0.0,0.0,0.0,0.0,0.0,0.0,0.0);
#144=SURFACE_STYLE_USAGE(.BOTH.,#230);
#145=FACE_OUTER_BOUND('',#231,.T.);
#146=CYLINDRICAL_SURFACE('',#232,9.5);
#147=CURVE_STYLE('',#233,POSITIVE_LENGTH_MEASURE(1.0E-006),#234);
#148=LINE('',#235,#236);
#149=CURVE_STYLE('',#237,POSITIVE_LENGTH_MEASURE(1.0E-006),#238);
#150=CIRCLE('',#239,9.5);
#151=SURFACE_STYLE_USAGE(.BOTH.,#240);
#152=CLOSED_SHELL('',(#119,#83,#109,#69,#89,#79,#107,#59));
#153=POINT_STYLE(' ',#241,POSITIVE_LENGTH_MEASURE(1.0E-006),#242);
#154=CARTESIAN_POINT('',(-9.5,1.07176804917286E-014,-2.8421709430404E-014));
#155=SURFACE_STYLE_USAGE(.BOTH.,#243);
#156=FACE_OUTER_BOUND('',#244,.T.);
#157=CONICAL_SURFACE('',#245,11.25,1.0471975511966);
#158=CURVE_STYLE('',#246,POSITIVE_LENGTH_MEASURE(1.0E-006),#247);
#159=LINE('',#248,#249);
#160=CURVE_STYLE('',#250,POSITIVE_LENGTH_MEASURE(1.0E-006),#251);
#161=CIRCLE('',#252,21.9999999999999);
#162=POINT_STYLE(' ',#253,POSITIVE_LENGTH_MEASURE(1.0E-006),#254);
#163=CARTESIAN_POINT('',(-21.9999999999999,9.61553477328844E-015,6.99999999999997));
#164=CURVE_STYLE('',#255,POSITIVE_LENGTH_MEASURE(1.0E-006),#256);
#165=CIRCLE('',#257,21.9999999999999);
#166=SURFACE_STYLE_USAGE(.BOTH.,#258);
#167=FACE_OUTER_BOUND('',#259,.T.);
#168=CYLINDRICAL_SURFACE('',#260,21.9999999999999);
#169=CURVE_STYLE('',#261,POSITIVE_LENGTH_MEASURE(1.0E-006),#262);
#170=CIRCLE('',#263,13.0000000000001);
#171=SURFACE_STYLE_USAGE(.BOTH.,#264);
#172=FACE_OUTER_BOUND('',#265,.T.);
#173=CYLINDRICAL_SURFACE('',#266,21.9999999999999);
#174=POINT_STYLE(' ',#267,POSITIVE_LENGTH_MEASURE(1.0E-006),#268);
#175=CARTESIAN_POINT('',(-21.9999999999999,9.18692254945061E-015,-2.8421709430404E-014));
#176=POINT_STYLE(' ',#269,POSITIVE_LENGTH_MEASURE(1.0E-006),#270);
#177=CARTESIAN_POINT('',(-13.0000000000001,1.07176804917286E-014,6.99999999999997));
#178=SURFACE_STYLE_USAGE(.BOTH.,#271);
#179=FACE_OUTER_BOUND('',#272,.T.);
#180=FACE_BOUND('',#273,.T.);
#181=PLANE('',#274);
#182=CURVE_STYLE('',#275,POSITIVE_LENGTH_MEASURE(1.0E-006),#276);
#183=CIRCLE('',#277,9.5);
#184=CURVE_STYLE('',#278,POSITIVE_LENGTH_MEASURE(1.0E-006),#279);
#185=CIRCLE('',#280,9.5);
#186=CURVE_STYLE('',#281,POSITIVE_LENGTH_MEASURE(1.0E-006),#282);
#187=CIRCLE('',#283,21.9999999999999);
#188=POINT_STYLE(' ',#284,POSITIVE_LENGTH_MEASURE(1.0E-006),#285);
#189=CARTESIAN_POINT('',(9.5,1.50646580422831E-014,4.97927405783628));
#190=CURVE_STYLE('',#286,POSITIVE_LENGTH_MEASURE(1.0E-006),#287);
#191=LINE('',#288,#289);
#192=CURVE_STYLE('',#290,POSITIVE_LENGTH_MEASURE(1.0E-006),#291);
#193=LINE('',#292,#293);
#194=POINT_STYLE(' ',#294,POSITIVE_LENGTH_MEASURE(1.0E-006),#295);
#195=CARTESIAN_POINT('',(-9.5,1.1022563024161E-014,4.97927405783628));
#196=CURVE_STYLE('',#296,POSITIVE_LENGTH_MEASURE(1.0E-006),#297);
#197=CIRCLE('',#298,9.5);
#198=SURFACE_STYLE_USAGE(.BOTH.,#299);
#199=FACE_BOUND('',#300,.T.);
#200=FACE_OUTER_BOUND('',#301,.T.);
#201=PLANE('',#302);
#202=SURFACE_STYLE_USAGE(.BOTH.,#303);
#203=FACE_OUTER_BOUND('',#304,.T.);
#204=CONICAL_SURFACE('',#305,11.25,1.0471975511966);
#205=POINT_STYLE(' ',#306,POSITIVE_LENGTH_MEASURE(1.0E-006),#307);
#206=CARTESIAN_POINT('',(9.5,1.50646580422831E-014,-2.8421709430404E-014));
#207=POINT_STYLE(' ',#308,POSITIVE_LENGTH_MEASURE(1.0E-006),#309);
#208=CARTESIAN_POINT('',(21.9999999999999,1.86896439509482E-014,6.99999999999997));
#209=POINT_STYLE(' ',#310,POSITIVE_LENGTH_MEASURE(1.0E-006),#311);
#210=CARTESIAN_POINT('',(21.9999999999999,1.86896439509482E-014,-2.8421709430404E-014));
#211=CURVE_STYLE('',#312,POSITIVE_LENGTH_MEASURE(1.0E-006),#313);
#212=CIRCLE('',#314,13.0000000000001);
#213=SURFACE_STYLE_USAGE(.BOTH.,#315);
#214=FACE_OUTER_BOUND('',#316,.T.);
#215=CYLINDRICAL_SURFACE('',#317,9.5);
#216=CURVE_STYLE('',#318,POSITIVE_LENGTH_MEASURE(1.0E-006),#319);
#217=CIRCLE('',#320,21.9999999999999);
#218=POINT_STYLE(' ',#321,POSITIVE_LENGTH_MEASURE(1.0E-006),#322);
#219=CARTESIAN_POINT('',(13.0000000000001,1.60796540967094E-014,6.99999999999997));
#220=CURVE_STYLE('',#323,POSITIVE_LENGTH_MEASURE(1.0E-006),#324);
#221=LINE('',#325,#326);
#222=CURVE_STYLE('',#327,POSITIVE_LENGTH_MEASURE(1.0E-006),#328);
#223=LINE('',#329,#330);
#224=PRODUCT_CONTEXT('',#45,'mechanical');
#225=PRODUCT_DEFINITION_FORMATION_WITH_SPECIFIED_SOURCE(' ','NONE',#128,.NOT_KNOWN.);
#226=CARTESIAN_POINT('',(0.0,0.0,0.0));
#227=DIRECTION('',(0.0,0.0,1.0));
#228=DIRECTION('',(1.0,0.0,0.0));
#229= (NAMED_UNIT(#136)LENGTH_UNIT()SI_UNIT(.MILLI.,.METRE.));
#230=SURFACE_SIDE_STYLE('',(#332));
#231=EDGE_LOOP('',(#333,#334,#335,#336));
#232=AXIS2_PLACEMENT_3D('',#337,#338,#339);
#233=DRAUGHTING_PRE_DEFINED_CURVE_FONT('continuous');
#234=COLOUR_RGB('',0.509803950786591,0.509803950786591,0.588235318660736);
#235=CARTESIAN_POINT('',(-9.5,9.55467946111221E-015,2.48963702891812));
#236=VECTOR('',#340,1.0);
#237=DRAUGHTING_PRE_DEFINED_CURVE_FONT('continuous');
#238=COLOUR_RGB('',0.509803950786591,0.509803950786591,0.588235318660736);
#239=AXIS2_PLACEMENT_3D('',#341,#342,#343);
#240=SURFACE_SIDE_STYLE('',(#344));
#241=PRE_DEFINED_MARKER('');
#242=COLOUR_RGB('',0.509803950786591,0.509803950786591,0.588235318660736);
#243=SURFACE_SIDE_STYLE('',(#345));
#244=EDGE_LOOP('',(#346,#347,#348,#349));
#245=AXIS2_PLACEMENT_3D('',#350,#351,#352);
#246=DRAUGHTING_PRE_DEFINED_CURVE_FONT('continuous');
#247=COLOUR_RGB('',0.509803950786591,0.509803950786591,0.588235318660736);
#248=CARTESIAN_POINT('',(-21.9999999999999,5.92969355244715E-015,3.49999999999997));
#249=VECTOR('',#353,1.0);
#250=DRAUGHTING_PRE_DEFINED_CURVE_FONT('continuous');
#251=COLOUR_RGB('',0.509803950786591,0.509803950786591,0.588235318660736);
#252=AXIS2_PLACEMENT_3D('',#354,#355,#356);
#253=PRE_DEFINED_MARKER('');
#254=COLOUR_RGB('',0.509803950786591,0.509803950786591,0.588235318660736);
#255=DRAUGHTING_PRE_DEFINED_CURVE_FONT('continuous');
#256=COLOUR_RGB('',0.509803950786591,0.509803950786591,0.588235318660736);
#257=AXIS2_PLACEMENT_3D('',#357,#358,#359);
#258=SURFACE_SIDE_STYLE('',(#360));
#259=EDGE_LOOP('',(#361,#362,#363,#364));
#260=AXIS2_PLACEMENT_3D('',#365,#366,#367);
#261=DRAUGHTING_PRE_DEFINED_CURVE_FONT('continuous');
#262=COLOUR_RGB('',0.509803950786591,0.509803950786591,0.588235318660736);
#263=AXIS2_PLACEMENT_3D('',#368,#369,#370);
#264=SURFACE_SIDE_STYLE('',(#371));
#265=EDGE_LOOP('',(#372,#373,#374,#375));
#266=AXIS2_PLACEMENT_3D('',#376,#377,#378);
#267=PRE_DEFINED_MARKER('');
#268=COLOUR_RGB('',0.509803950786591,0.509803950786591,0.588235318660736);
#269=PRE_DEFINED_MARKER('');
#270=COLOUR_RGB('',0.509803950786591,0.509803950786591,0.588235318660736);
#271=SURFACE_SIDE_STYLE('',(#379));
#272=EDGE_LOOP('',(#380,#381));
#273=EDGE_LOOP('',(#382,#383));
#274=AXIS2_PLACEMENT_3D('',#384,#385,#386);
#275=DRAUGHTING_PRE_DEFINED_CURVE_FONT('continuous');
#276=COLOUR_RGB('',0.509803950786591,0.509803950786591,0.588235318660736);
#277=AXIS2_PLACEMENT_3D('',#387,#388,#389);
#278=DRAUGHTING_PRE_DEFINED_CURVE_FONT('continuous');
#279=COLOUR_RGB('',0.509803950786591,0.509803950786591,0.588235318660736);
#280=AXIS2_PLACEMENT_3D('',#390,#391,#392);
#281=DRAUGHTING_PRE_DEFINED_CURVE_FONT('continuous');
#282=COLOUR_RGB('',0.509803950786591,0.509803950786591,0.588235318660736);
#283=AXIS2_PLACEMENT_3D('',#393,#394,#395);
#284=PRE_DEFINED_MARKER('');
#285=COLOUR_RGB('',0.509803950786591,0.509803950786591,0.588235318660736);
#286=DRAUGHTING_PRE_DEFINED_CURVE_FONT('continuous');
#287=COLOUR_RGB('',0.509803950786591,0.509803950786591,0.588235318660736);
#288=CARTESIAN_POINT('',(11.25,1.55721560694962E-014,5.98963702891812));
#289=VECTOR('',#396,1.0);
#290=DRAUGHTING_PRE_DEFINED_CURVE_FONT('continuous');
#291=COLOUR_RGB('',0.509803950786591,0.509803950786591,0.588235318660736);
#292=CARTESIAN_POINT('',(21.9999999999999,1.86896439509482E-014,3.49999999999997));
#293=VECTOR('',#397,1.0);
#294=PRE_DEFINED_MARKER('');
#295=COLOUR_RGB('',0.509803950786591,0.509803950786591,0.588235318660736);
#296=DRAUGHTING_PRE_DEFINED_CURVE_FONT('continuous');
#297=COLOUR_RGB('',0.509803950786591,0.509803950786591,0.588235318660736);
#298=AXIS2_PLACEMENT_3D('',#398,#399,#400);
#299=SURFACE_SIDE_STYLE('',(#401));
#300=EDGE_LOOP('',(#402,#403));
#301=EDGE_LOOP('',(#404,#405));
#302=AXIS2_PLACEMENT_3D('',#406,#407,#408);
#303=SURFACE_SIDE_STYLE('',(#409));
#304=EDGE_LOOP('',(#410,#411,#412,#413));
#305=AXIS2_PLACEMENT_3D('',#414,#415,#416);
#306=PRE_DEFINED_MARKER('');
#307=COLOUR_RGB('',0.509803950786591,0.509803950786591,0.588235318660736);
#308=PRE_DEFINED_MARKER('');
#309=COLOUR_RGB('',0.509803950786591,0.509803950786591,0.588235318660736);
#310=PRE_DEFINED_MARKER('');
#311=COLOUR_RGB('',0.509803950786591,0.509803950786591,0.588235318660736);
#312=DRAUGHTING_PRE_DEFINED_CURVE_FONT('continuous');
#313=COLOUR_RGB('',0.509803950786591,0.509803950786591,0.588235318660736);
#314=AXIS2_PLACEMENT_3D('',#417,#418,#419);
#315=SURFACE_SIDE_STYLE('',(#420));
#316=EDGE_LOOP('',(#421,#422,#423,#424));
#317=AXIS2_PLACEMENT_3D('',#425,#426,#427);
#318=DRAUGHTING_PRE_DEFINED_CURVE_FONT('continuous');
#319=COLOUR_RGB('',0.509803950786591,0.509803950786591,0.588235318660736);
#320=AXIS2_PLACEMENT_3D('',#428,#429,#430);
#321=PRE_DEFINED_MARKER('');
#322=COLOUR_RGB('',0.509803950786591,0.509803950786591,0.588235318660736);
#323=DRAUGHTING_PRE_DEFINED_CURVE_FONT('continuous');
#324=COLOUR_RGB('',0.509803950786591,0.509803950786591,0.588235318660736);
#325=CARTESIAN_POINT('',(-11.25,9.04718143389909E-015,5.98963702891812));
#326=VECTOR('',#431,1.0);
#327=DRAUGHTING_PRE_DEFINED_CURVE_FONT('continuous');
#328=COLOUR_RGB('',0.509803950786591,0.509803950786591,0.588235318660736);
#329=CARTESIAN_POINT('',(9.5,1.50646580422831E-014,2.48963702891812));
#330=VECTOR('',#432,1.0);
#332=SURFACE_STYLE_FILL_AREA(#433);
#333=ORIENTED_EDGE('',*,*,#61,.T.);
#334=ORIENTED_EDGE('',*,*,#63,.T.);
#335=ORIENTED_EDGE('',*,*,#127,.T.);
#336=ORIENTED_EDGE('',*,*,#91,.F.);
#337=CARTESIAN_POINT('',(0.0,1.23096687516977E-014,2.48963702891812));
#338=DIRECTION('',(0.0,-0.0,1.0));
#339=DIRECTION('',(-1.0,-1.67538237310968E-016,0.0));
#340=DIRECTION('',(0.0,0.0,-1.0));
#341=CARTESIAN_POINT('',(0.0,1.23096687516977E-014,-2.8421709430404E-014));
#342=DIRECTION('',(-0.0,0.0,-1.0));
#343=DIRECTION('',(-1.0,-1.67538237310968E-016,0.0));
#344=SURFACE_STYLE_FILL_AREA(#434);
#345=SURFACE_STYLE_FILL_AREA(#435);
#346=ORIENTED_EDGE('',*,*,#125,.T.);
#347=ORIENTED_EDGE('',*,*,#91,.T.);
#348=ORIENTED_EDGE('',*,*,#99,.T.);
#349=ORIENTED_EDGE('',*,*,#81,.F.);
#350=CARTESIAN_POINT('',(0.0,1.23096687516977E-014,5.98963702891812));
#351=DIRECTION('',(0.0,-0.0,1.0));
#352=DIRECTION('',(-1.0,-1.67538237310968E-016,0.0));
#353=DIRECTION('',(0.0,0.0,-1.0));
#354=CARTESIAN_POINT('',(0.0,1.23096687516977E-014,-2.8421709430404E-014));
#355=DIRECTION('',(-0.0,0.0,-1.0));
#356=DIRECTION('',(-1.0,-1.67538237310968E-016,0.0));
#357=CARTESIAN_POINT('',(0.0,1.23096687516977E-014,6.99999999999997));
#358=DIRECTION('',(-0.0,0.0,-1.0));
#359=DIRECTION('',(-1.0,-1.67538237310968E-016,0.0));
#360=SURFACE_STYLE_FILL_AREA(#436);
#361=ORIENTED_EDGE('',*,*,#71,.T.);
#362=ORIENTED_EDGE('',*,*,#73,.F.);
#363=ORIENTED_EDGE('',*,*,#101,.T.);
#364=ORIENTED_EDGE('',*,*,#77,.T.);
#365=CARTESIAN_POINT('',(0.0,1.23096687516977E-014,3.49999999999997));
#366=DIRECTION('',(0.0,-0.0,1.0));
#367=DIRECTION('',(-1.0,-1.67538237310968E-016,0.0));
#368=CARTESIAN_POINT('',(0.0,1.23096687516977E-014,6.99999999999997));
#369=DIRECTION('',(-0.0,0.0,-1.0));
#370=DIRECTION('',(-1.0,-1.67538237310968E-016,0.0));
#371=SURFACE_STYLE_FILL_AREA(#437);
#372=ORIENTED_EDGE('',*,*,#71,.F.);
#373=ORIENTED_EDGE('',*,*,#121,.T.);
#374=ORIENTED_EDGE('',*,*,#101,.F.);
#375=ORIENTED_EDGE('',*,*,#95,.F.);
#376=CARTESIAN_POINT('',(0.0,1.23096687516977E-014,3.49999999999997));
#377=DIRECTION('',(0.0,-0.0,1.0));
#378=DIRECTION('',(-1.0,-1.67538237310968E-016,0.0));
#379=SURFACE_STYLE_FILL_AREA(#438);
#380=ORIENTED_EDGE('',*,*,#121,.F.);
#381=ORIENTED_EDGE('',*,*,#77,.F.);
#382=ORIENTED_EDGE('',*,*,#81,.T.);
#383=ORIENTED_EDGE('',*,*,#117,.T.);
#384=CARTESIAN_POINT('',(-17.5,1.01666076325085E-014,6.99999999999997));
#385=DIRECTION('',(0.0,0.0,1.0));
#386=DIRECTION('',(-1.0,-1.22460635382238E-016,0.0));
#387=CARTESIAN_POINT('',(0.0,1.23096687516977E-014,4.97927405783628));
#388=DIRECTION('',(-0.0,0.0,-1.0));
#389=DIRECTION('',(-1.0,-1.67538237310968E-016,0.0));
#390=CARTESIAN_POINT('',(0.0,1.23096687516977E-014,4.97927405783628));
#391=DIRECTION('',(-0.0,0.0,-1.0));
#392=DIRECTION('',(-1.0,-1.67538237310968E-016,0.0));
#393=CARTESIAN_POINT('',(0.0,1.23096687516977E-014,-2.8421709430404E-014));
#394=DIRECTION('',(-0.0,0.0,-1.0));
#395=DIRECTION('',(-1.0,-1.67538237310968E-016,0.0));
#396=DIRECTION('',(0.866025403784442,2.51146390821167E-016,0.499999999999995));
#397=DIRECTION('',(-0.0,-0.0,1.0));
#398=CARTESIAN_POINT('',(0.0,1.23096687516977E-014,-2.8421709430404E-014));
#399=DIRECTION('',(-0.0,0.0,-1.0));
#400=DIRECTION('',(-1.0,-1.67538237310968E-016,0.0));
#401=SURFACE_STYLE_FILL_AREA(#439);
#402=ORIENTED_EDGE('',*,*,#63,.F.);
#403=ORIENTED_EDGE('',*,*,#105,.F.);
#404=ORIENTED_EDGE('',*,*,#95,.T.);
#405=ORIENTED_EDGE('',*,*,#73,.T.);
#406=CARTESIAN_POINT('',(-15.75,9.95230152058959E-015,-2.8421709430404E-014));
#407=DIRECTION('',(0.0,0.0,-1.0));
#408=DIRECTION('',(1.0,1.22460635382238E-016,0.0));
#409=SURFACE_STYLE_FILL_AREA(#440);
#410=ORIENTED_EDGE('',*,*,#125,.F.);
#411=ORIENTED_EDGE('',*,*,#117,.F.);
#412=ORIENTED_EDGE('',*,*,#99,.F.);
#413=ORIENTED_EDGE('',*,*,#93,.T.);
#414=CARTESIAN_POINT('',(0.0,1.23096687516977E-014,5.98963702891812));
#415=DIRECTION('',(0.0,-0.0,1.0));
#416=DIRECTION('',(-1.0,-1.67538237310968E-016,0.0));
#417=CARTESIAN_POINT('',(0.0,1.23096687516977E-014,6.99999999999997));
#418=DIRECTION('',(-0.0,0.0,-1.0));
#419=DIRECTION('',(-1.0,-1.67538237310968E-016,0.0));
#420=SURFACE_STYLE_FILL_AREA(#441);
#421=ORIENTED_EDGE('',*,*,#61,.F.);
#422=ORIENTED_EDGE('',*,*,#93,.F.);
#423=ORIENTED_EDGE('',*,*,#127,.F.);
#424=ORIENTED_EDGE('',*,*,#105,.T.);
#425=CARTESIAN_POINT('',(0.0,1.23096687516977E-014,2.48963702891812));
#426=DIRECTION('',(0.0,-0.0,1.0));
#427=DIRECTION('',(-1.0,-1.67538237310968E-016,0.0));
#428=CARTESIAN_POINT('',(0.0,1.23096687516977E-014,6.99999999999997));
#429=DIRECTION('',(-0.0,0.0,-1.0));
#430=DIRECTION('',(-1.0,-1.67538237310968E-016,0.0));
#431=DIRECTION('',(0.866025403784442,2.51146390821167E-016,-0.499999999999995));
#432=DIRECTION('',(0.0,0.0,1.0));
#433=FILL_AREA_STYLE('',(#442));
#434=FILL_AREA_STYLE('',(#443));
#435=FILL_AREA_STYLE('',(#444));
#436=FILL_AREA_STYLE('',(#445));
#437=FILL_AREA_STYLE('',(#446));
#438=FILL_AREA_STYLE('',(#447));
#439=FILL_AREA_STYLE('',(#448));
#440=FILL_AREA_STYLE('',(#449));
#441=FILL_AREA_STYLE('',(#450));
#442=FILL_AREA_STYLE_COLOUR('',#451);
#443=FILL_AREA_STYLE_COLOUR('',#452);
#444=FILL_AREA_STYLE_COLOUR('',#453);
#445=FILL_AREA_STYLE_COLOUR('',#454);
#446=FILL_AREA_STYLE_COLOUR('',#455);
#447=FILL_AREA_STYLE_COLOUR('',#456);
#448=FILL_AREA_STYLE_COLOUR('',#457);
#449=FILL_AREA_STYLE_COLOUR('',#458);
#450=FILL_AREA_STYLE_COLOUR('',#459);
#451=COLOUR_RGB('',0.509803950786591,0.509803950786591,0.588235318660736);
#452=COLOUR_RGB('',0.509803950786591,0.509803950786591,0.588235318660736);
#453=COLOUR_RGB('',0.509803950786591,0.509803950786591,0.588235318660736);
#454=COLOUR_RGB('',0.509803950786591,0.509803950786591,0.588235318660736);
#455=COLOUR_RGB('',0.509803950786591,0.509803950786591,0.588235318660736);
#456=COLOUR_RGB('',0.509803950786591,0.509803950786591,0.588235318660736);
#457=COLOUR_RGB('',0.509803950786591,0.509803950786591,0.588235318660736);
#458=COLOUR_RGB('',0.509803950786591,0.509803950786591,0.588235318660736);
#459=COLOUR_RGB('',0.509803950786591,0.509803950786591,0.588235318660736);
ENDSEC;
END-ISO-10303-21;
