ISO-10303-21;
HEADER;
FILE_DESCRIPTION(('STEP AP214'),'1');
FILE_NAME(' ','  ',('TraceParts'),('TraceParts S.A.'),'XStep 1.0',' ',' ');
FILE_SCHEMA(('automotive_design'));
ENDSEC;
DATA;
#1=MECHANICAL_DESIGN_GEOMETRIC_PRESENTATION_REPRESENTATION(' ',(#10,#11,#12,#13,#14,#15,#16,#17,#18,#19,#20,#21,#22,#23,#24,#25,#26,#27,#28,#29,#30,#31,#32,#33,#34,#35,#36,#37,#38,#39,#40,#41,#42,#43,#44),#6);
#2=PRODUCT_DEFINITION_CONTEXT('',#45,'design');
#3=APPLICATION_PROTOCOL_DEFINITION('INTERNATIONAL STANDARD','automotive_design',1994,#45);
#4=PRODUCT_CATEGORY_RELATIONSHIP('NONE','NONE',#46,#47);
#5=SHAPE_DEFINITION_REPRESENTATION(#48,#49);
#6= (GEOMETRIC_REPRESENTATION_CONTEXT(3)GLOBAL_UNCERTAINTY_ASSIGNED_CONTEXT((#52))GLOBAL_UNIT_ASSIGNED_CONTEXT((#54,#55,#56))REPRESENTATION_CONTEXT('NONE','WORKSPACE'));
#10=STYLED_ITEM('',(#58),#59);
#11=STYLED_ITEM('',(#60),#61);
#12=STYLED_ITEM('',(#62),#63);
#13=STYLED_ITEM('',(#64),#65);
#14=STYLED_ITEM('',(#66),#67);
#15=STYLED_ITEM('',(#68),#69);
#16=STYLED_ITEM('',(#70),#71);
#17=STYLED_ITEM('',(#72),#73);
#18=STYLED_ITEM('',(#74),#75);
#19=STYLED_ITEM('',(#76),#77);
#20=STYLED_ITEM('',(#78),#79);
#21=STYLED_ITEM('',(#80),#81);
#22=STYLED_ITEM('',(#82),#83);
#23=STYLED_ITEM('',(#84),#85);
#24=STYLED_ITEM('',(#86),#87);
#25=STYLED_ITEM('',(#88),#89);
#26=STYLED_ITEM('',(#90),#91);
#27=STYLED_ITEM('',(#92),#93);
#28=STYLED_ITEM('',(#94),#95);
#29=STYLED_ITEM('',(#96),#97);
#30=STYLED_ITEM('',(#98),#99);
#31=STYLED_ITEM('',(#100),#101);
#32=STYLED_ITEM('',(#102),#103);
#33=STYLED_ITEM('',(#104),#105);
#34=STYLED_ITEM('',(#106),#107);
#35=STYLED_ITEM('',(#108),#109);
#36=STYLED_ITEM('',(#110),#111);
#37=STYLED_ITEM('',(#112),#113);
#38=STYLED_ITEM('',(#114),#115);
#39=STYLED_ITEM('',(#116),#117);
#40=STYLED_ITEM('',(#118),#119);
#41=STYLED_ITEM('',(#120),#121);
#42=STYLED_ITEM('',(#122),#123);
#43=STYLED_ITEM('',(#124),#125);
#44=STYLED_ITEM('',(#126),#127);
#45=APPLICATION_CONTEXT(' ');
#46=PRODUCT_CATEGORY('part','NONE');
#47=PRODUCT_RELATED_PRODUCT_CATEGORY('detail',' ',(#128));
#48=PRODUCT_DEFINITION_SHAPE('NONE','NONE',#129);
#49=ADVANCED_BREP_SHAPE_REPRESENTATION('1',(#63,#130),#6);
#52=UNCERTAINTY_MEASURE_WITH_UNIT(LENGTH_MEASURE(1.0E-006),#54,'','');
#54= (CONVERSION_BASED_UNIT('MILLIMETRE',#133)LENGTH_UNIT()NAMED_UNIT(#136));
#55= (NAMED_UNIT(#138)PLANE_ANGLE_UNIT()SI_UNIT($,.RADIAN.));
#56= (NAMED_UNIT(#138)SOLID_ANGLE_UNIT()SI_UNIT($,.STERADIAN.));
#58=PRESENTATION_STYLE_ASSIGNMENT((#144));
#59=EDGE_CURVE('',#61,#109,#145,.T.);
#60=PRESENTATION_STYLE_ASSIGNMENT((#146));
#61=VERTEX_POINT('',#147);
#62=PRESENTATION_STYLE_ASSIGNMENT((#148));
#63=MANIFOLD_SOLID_BREP('1',#149);
#64=PRESENTATION_STYLE_ASSIGNMENT((#150));
#65=ADVANCED_FACE('',(#151),#152,.F.);
#66=PRESENTATION_STYLE_ASSIGNMENT((#153));
#67=VERTEX_POINT('',#154);
#68=PRESENTATION_STYLE_ASSIGNMENT((#155));
#69=ADVANCED_FACE('',(#156),#157,.T.);
#70=PRESENTATION_STYLE_ASSIGNMENT((#158));
#71=EDGE_CURVE('',#127,#121,#159,.T.);
#72=PRESENTATION_STYLE_ASSIGNMENT((#160));
#73=EDGE_CURVE('',#77,#121,#161,.T.);
#74=PRESENTATION_STYLE_ASSIGNMENT((#162));
#75=VERTEX_POINT('',#163);
#76=PRESENTATION_STYLE_ASSIGNMENT((#164));
#77=VERTEX_POINT('',#165);
#78=PRESENTATION_STYLE_ASSIGNMENT((#166));
#79=EDGE_CURVE('',#77,#111,#167,.T.);
#80=PRESENTATION_STYLE_ASSIGNMENT((#168));
#81=EDGE_CURVE('',#111,#77,#169,.T.);
#82=PRESENTATION_STYLE_ASSIGNMENT((#170));
#83=ADVANCED_FACE('',(#171,#172),#173,.T.);
#84=PRESENTATION_STYLE_ASSIGNMENT((#174));
#85=EDGE_CURVE('',#127,#111,#175,.T.);
#86=PRESENTATION_STYLE_ASSIGNMENT((#176));
#87=ADVANCED_FACE('',(#177),#178,.T.);
#88=PRESENTATION_STYLE_ASSIGNMENT((#179));
#89=VERTEX_POINT('',#180);
#90=PRESENTATION_STYLE_ASSIGNMENT((#181));
#91=EDGE_CURVE('',#67,#107,#182,.T.);
#92=PRESENTATION_STYLE_ASSIGNMENT((#183));
#93=ADVANCED_FACE('',(#184),#185,.F.);
#94=PRESENTATION_STYLE_ASSIGNMENT((#186));
#95=ADVANCED_FACE('',(#187),#188,.F.);
#96=PRESENTATION_STYLE_ASSIGNMENT((#189));
#97=EDGE_CURVE('',#89,#75,#190,.T.);
#98=PRESENTATION_STYLE_ASSIGNMENT((#191));
#99=EDGE_CURVE('',#121,#127,#192,.T.);
#100=PRESENTATION_STYLE_ASSIGNMENT((#193));
#101=ADVANCED_FACE('',(#194,#195),#196,.T.);
#102=PRESENTATION_STYLE_ASSIGNMENT((#197));
#103=EDGE_CURVE('',#75,#107,#198,.T.);
#104=PRESENTATION_STYLE_ASSIGNMENT((#199));
#105=EDGE_CURVE('',#107,#67,#200,.T.);
#106=PRESENTATION_STYLE_ASSIGNMENT((#201));
#107=VERTEX_POINT('',#202);
#108=PRESENTATION_STYLE_ASSIGNMENT((#203));
#109=VERTEX_POINT('',#204);
#110=PRESENTATION_STYLE_ASSIGNMENT((#205));
#111=VERTEX_POINT('',#206);
#112=PRESENTATION_STYLE_ASSIGNMENT((#207));
#113=ADVANCED_FACE('',(#208),#209,.F.);
#114=PRESENTATION_STYLE_ASSIGNMENT((#210));
#115=EDGE_CURVE('',#89,#61,#211,.T.);
#116=PRESENTATION_STYLE_ASSIGNMENT((#212));
#117=EDGE_CURVE('',#75,#89,#213,.T.);
#118=PRESENTATION_STYLE_ASSIGNMENT((#214));
#119=EDGE_CURVE('',#109,#75,#215,.T.);
#120=PRESENTATION_STYLE_ASSIGNMENT((#216));
#121=VERTEX_POINT('',#217);
#122=PRESENTATION_STYLE_ASSIGNMENT((#218));
#123=EDGE_CURVE('',#109,#61,#219,.T.);
#124=PRESENTATION_STYLE_ASSIGNMENT((#220));
#125=EDGE_CURVE('',#67,#89,#221,.T.);
#126=PRESENTATION_STYLE_ASSIGNMENT((#222));
#127=VERTEX_POINT('',#223);
#128=PRODUCT('1','1','PART-1-DESC',(#224));
#129=PRODUCT_DEFINITION('NONE','NONE',#225,#2);
#130=AXIS2_PLACEMENT_3D('',#226,#227,#228);
#133=LENGTH_MEASURE_WITH_UNIT(LENGTH_MEASURE(1.0),#229);
#136=DIMENSIONAL_EXPONENTS(1.0,0.0,0.0,0.0,0.0,0.0,0.0);
#138=DIMENSIONAL_EXPONENTS(0.0,0.0,0.0,0.0,0.0,0.0,0.0);
#144=CURVE_STYLE('',#230,POSITIVE_LENGTH_MEASURE(1.0E-006),#231);
#145=CIRCLE('',#232,7.10000000000008);
#146=POINT_STYLE(' ',#233,POSITIVE_LENGTH_MEASURE(1.0E-006),#234);
#147=CARTESIAN_POINT('',(-7.10000000000002,1.09013714448019E-014,-2.8421709430404E-014));
#148=SURFACE_STYLE_USAGE(.BOTH.,#235);
#149=CLOSED_SHELL('',(#113,#87,#65,#93,#83,#69,#101,#95));
#150=SURFACE_STYLE_USAGE(.BOTH.,#236);
#151=FACE_OUTER_BOUND('',#237,.T.);
#152=CONICAL_SURFACE('',#238,8.55000000000004,1.04719755119659);
#153=POINT_STYLE(' ',#239,POSITIVE_LENGTH_MEASURE(1.0E-006),#240);
#154=CARTESIAN_POINT('',(-9.99999999999994,1.09136175083402E-014,5.99999999999997));
#155=SURFACE_STYLE_USAGE(.BOTH.,#241);
#156=FACE_OUTER_BOUND('',#242,.T.);
#157=CYLINDRICAL_SURFACE('',#243,18.0);
#158=CURVE_STYLE('',#244,POSITIVE_LENGTH_MEASURE(1.0E-006),#245);
#159=CIRCLE('',#246,18.0);
#160=CURVE_STYLE('',#247,POSITIVE_LENGTH_MEASURE(1.0E-006),#248);
#161=LINE('',#249,#250);
#162=POINT_STYLE(' ',#251,POSITIVE_LENGTH_MEASURE(1.0E-006),#252);
#163=CARTESIAN_POINT('',(7.10000000000014,1.42442210092237E-014,4.32568421935008));
#164=POINT_STYLE(' ',#253,POSITIVE_LENGTH_MEASURE(1.0E-006),#254);
#165=CARTESIAN_POINT('',(-17.9999999999999,9.93393242528226E-015,5.99999999999997));
#166=CURVE_STYLE('',#255,POSITIVE_LENGTH_MEASURE(1.0E-006),#256);
#167=CIRCLE('',#257,18.0);
#168=CURVE_STYLE('',#258,POSITIVE_LENGTH_MEASURE(1.0E-006),#259);
#169=CIRCLE('',#260,18.0);
#170=SURFACE_STYLE_USAGE(.BOTH.,#261);
#171=FACE_OUTER_BOUND('',#262,.T.);
#172=FACE_BOUND('',#263,.T.);
#173=PLANE('',#264);
#174=CURVE_STYLE('',#265,POSITIVE_LENGTH_MEASURE(1.0E-006),#266);
#175=LINE('',#267,#268);
#176=SURFACE_STYLE_USAGE(.BOTH.,#269);
#177=FACE_OUTER_BOUND('',#270,.T.);
#178=CYLINDRICAL_SURFACE('',#271,18.0);
#179=POINT_STYLE(' ',#272,POSITIVE_LENGTH_MEASURE(1.0E-006),#273);
#180=CARTESIAN_POINT('',(-7.10000000000002,1.11662344637842E-014,4.32568421935008));
#181=CURVE_STYLE('',#274,POSITIVE_LENGTH_MEASURE(1.0E-006),#275);
#182=CIRCLE('',#276,10.0);
#183=SURFACE_STYLE_USAGE(.BOTH.,#277);
#184=FACE_OUTER_BOUND('',#278,.T.);
#185=CONICAL_SURFACE('',#279,8.55000000000004,1.04719755119659);
#186=SURFACE_STYLE_USAGE(.BOTH.,#280);
#187=FACE_OUTER_BOUND('',#281,.T.);
#188=CYLINDRICAL_SURFACE('',#282,7.10000000000008);
#189=CURVE_STYLE('',#283,POSITIVE_LENGTH_MEASURE(1.0E-006),#284);
#190=CIRCLE('',#285,7.10000000000008);
#191=CURVE_STYLE('',#286,POSITIVE_LENGTH_MEASURE(1.0E-006),#287);
#192=CIRCLE('',#288,18.0);
#193=SURFACE_STYLE_USAGE(.BOTH.,#289);
#194=FACE_BOUND('',#290,.T.);
#195=FACE_OUTER_BOUND('',#291,.T.);
#196=PLANE('',#292);
#197=CURVE_STYLE('',#293,POSITIVE_LENGTH_MEASURE(1.0E-006),#294);
#198=LINE('',#295,#296);
#199=CURVE_STYLE('',#297,POSITIVE_LENGTH_MEASURE(1.0E-006),#298);
#200=CIRCLE('',#299,10.0);
#201=POINT_STYLE(' ',#300,POSITIVE_LENGTH_MEASURE(1.0E-006),#301);
#202=CARTESIAN_POINT('',(10.0000000000001,1.51044170270374E-014,5.99999999999997));
#203=POINT_STYLE(' ',#302,POSITIVE_LENGTH_MEASURE(1.0E-006),#303);
#204=CARTESIAN_POINT('',(7.10000000000014,1.42442210092237E-014,-2.8421709430404E-014));
#205=POINT_STYLE(' ',#304,POSITIVE_LENGTH_MEASURE(1.0E-006),#305);
#206=CARTESIAN_POINT('',(18.0000000000001,1.74773715589373E-014,5.99999999999997));
#207=SURFACE_STYLE_USAGE(.BOTH.,#306);
#208=FACE_OUTER_BOUND('',#307,.T.);
#209=CYLINDRICAL_SURFACE('',#308,7.10000000000008);
#210=CURVE_STYLE('',#309,POSITIVE_LENGTH_MEASURE(1.0E-006),#310);
#211=LINE('',#311,#312);
#212=CURVE_STYLE('',#313,POSITIVE_LENGTH_MEASURE(1.0E-006),#314);
#213=CIRCLE('',#315,7.10000000000008);
#214=CURVE_STYLE('',#316,POSITIVE_LENGTH_MEASURE(1.0E-006),#317);
#215=LINE('',#318,#319);
#216=POINT_STYLE(' ',#320,POSITIVE_LENGTH_MEASURE(1.0E-006),#321);
#217=CARTESIAN_POINT('',(-17.9999999999999,9.56655051913555E-015,-2.8421709430404E-014));
#218=CURVE_STYLE('',#322,POSITIVE_LENGTH_MEASURE(1.0E-006),#323);
#219=CIRCLE('',#324,7.10000000000008);
#220=CURVE_STYLE('',#325,POSITIVE_LENGTH_MEASURE(1.0E-006),#326);
#221=LINE('',#327,#328);
#222=POINT_STYLE(' ',#329,POSITIVE_LENGTH_MEASURE(1.0E-006),#330);
#223=CARTESIAN_POINT('',(18.0000000000001,1.74773715589373E-014,-2.8421709430404E-014));
#224=PRODUCT_CONTEXT('',#45,'mechanical');
#225=PRODUCT_DEFINITION_FORMATION_WITH_SPECIFIED_SOURCE(' ','NONE',#128,.NOT_KNOWN.);
#226=CARTESIAN_POINT('',(0.0,0.0,0.0));
#227=DIRECTION('',(0.0,0.0,1.0));
#228=DIRECTION('',(1.0,0.0,0.0));
#229= (NAMED_UNIT(#136)LENGTH_UNIT()SI_UNIT(.MILLI.,.METRE.));
#230=DRAUGHTING_PRE_DEFINED_CURVE_FONT('continuous');
#231=COLOUR_RGB('',0.509803950786591,0.509803950786591,0.588235318660736);
#232=AXIS2_PLACEMENT_3D('',#332,#333,#334);
#233=PRE_DEFINED_MARKER('');
#234=COLOUR_RGB('',0.509803950786591,0.509803950786591,0.588235318660736);
#235=SURFACE_SIDE_STYLE('',(#335));
#236=SURFACE_SIDE_STYLE('',(#336));
#237=EDGE_LOOP('',(#337,#338,#339,#340));
#238=AXIS2_PLACEMENT_3D('',#341,#342,#343);
#239=PRE_DEFINED_MARKER('');
#240=COLOUR_RGB('',0.509803950786591,0.509803950786591,0.588235318660736);
#241=SURFACE_SIDE_STYLE('',(#344));
#242=EDGE_LOOP('',(#345,#346,#347,#348));
#243=AXIS2_PLACEMENT_3D('',#349,#350,#351);
#244=DRAUGHTING_PRE_DEFINED_CURVE_FONT('continuous');
#245=COLOUR_RGB('',0.509803950786591,0.509803950786591,0.588235318660736);
#246=AXIS2_PLACEMENT_3D('',#352,#353,#354);
#247=DRAUGHTING_PRE_DEFINED_CURVE_FONT('continuous');
#248=COLOUR_RGB('',0.509803950786591,0.509803950786591,0.588235318660736);
#249=CARTESIAN_POINT('',(-17.9999999999999,6.79907616538783E-015,2.99999999999997));
#250=VECTOR('',#355,1.0);
#251=PRE_DEFINED_MARKER('');
#252=COLOUR_RGB('',0.509803950786591,0.509803950786591,0.588235318660736);
#253=PRE_DEFINED_MARKER('');
#254=COLOUR_RGB('',0.509803950786591,0.509803950786591,0.588235318660736);
#255=DRAUGHTING_PRE_DEFINED_CURVE_FONT('continuous');
#256=COLOUR_RGB('',0.509803950786591,0.509803950786591,0.588235318660736);
#257=AXIS2_PLACEMENT_3D('',#356,#357,#358);
#258=DRAUGHTING_PRE_DEFINED_CURVE_FONT('continuous');
#259=COLOUR_RGB('',0.509803950786591,0.509803950786591,0.588235318660736);
#260=AXIS2_PLACEMENT_3D('',#359,#360,#361);
#261=SURFACE_SIDE_STYLE('',(#362));
#262=EDGE_LOOP('',(#363,#364));
#263=EDGE_LOOP('',(#365,#366));
#264=AXIS2_PLACEMENT_3D('',#367,#368,#369);
#265=DRAUGHTING_PRE_DEFINED_CURVE_FONT('continuous');
#266=COLOUR_RGB('',0.509803950786591,0.509803950786591,0.588235318660736);
#267=CARTESIAN_POINT('',(18.0000000000001,1.74773715589373E-014,2.99999999999997));
#268=VECTOR('',#370,1.0);
#269=SURFACE_SIDE_STYLE('',(#371));
#270=EDGE_LOOP('',(#372,#373,#374,#375));
#271=AXIS2_PLACEMENT_3D('',#376,#377,#378);
#272=PRE_DEFINED_MARKER('');
#273=COLOUR_RGB('',0.509803950786591,0.509803950786591,0.588235318660736);
#274=DRAUGHTING_PRE_DEFINED_CURVE_FONT('continuous');
#275=COLOUR_RGB('',0.509803950786591,0.509803950786591,0.588235318660736);
#276=AXIS2_PLACEMENT_3D('',#379,#380,#381);
#277=SURFACE_SIDE_STYLE('',(#382));
#278=EDGE_LOOP('',(#383,#384,#385,#386));
#279=AXIS2_PLACEMENT_3D('',#387,#388,#389);
#280=SURFACE_SIDE_STYLE('',(#390));
#281=EDGE_LOOP('',(#391,#392,#393,#394));
#282=AXIS2_PLACEMENT_3D('',#395,#396,#397);
#283=DRAUGHTING_PRE_DEFINED_CURVE_FONT('continuous');
#284=COLOUR_RGB('',0.509803950786591,0.509803950786591,0.588235318660736);
#285=AXIS2_PLACEMENT_3D('',#398,#399,#400);
#286=DRAUGHTING_PRE_DEFINED_CURVE_FONT('continuous');
#287=COLOUR_RGB('',0.509803950786591,0.509803950786591,0.588235318660736);
#288=AXIS2_PLACEMENT_3D('',#401,#402,#403);
#289=SURFACE_SIDE_STYLE('',(#404));
#290=EDGE_LOOP('',(#405,#406));
#291=EDGE_LOOP('',(#407,#408));
#292=AXIS2_PLACEMENT_3D('',#409,#410,#411);
#293=DRAUGHTING_PRE_DEFINED_CURVE_FONT('continuous');
#294=COLOUR_RGB('',0.509803950786591,0.509803950786591,0.588235318660736);
#295=CARTESIAN_POINT('',(8.5500000000001,1.46743190181305E-014,5.16284210967503));
#296=VECTOR('',#412,1.0);
#297=DRAUGHTING_PRE_DEFINED_CURVE_FONT('continuous');
#298=COLOUR_RGB('',0.509803950786591,0.509803950786591,0.588235318660736);
#299=AXIS2_PLACEMENT_3D('',#413,#414,#415);
#300=PRE_DEFINED_MARKER('');
#301=COLOUR_RGB('',0.509803950786591,0.509803950786591,0.588235318660736);
#302=PRE_DEFINED_MARKER('');
#303=COLOUR_RGB('',0.509803950786591,0.509803950786591,0.588235318660736);
#304=PRE_DEFINED_MARKER('');
#305=COLOUR_RGB('',0.509803950786591,0.509803950786591,0.588235318660736);
#306=SURFACE_SIDE_STYLE('',(#416));
#307=EDGE_LOOP('',(#417,#418,#419,#420));
#308=AXIS2_PLACEMENT_3D('',#421,#422,#423);
#309=DRAUGHTING_PRE_DEFINED_CURVE_FONT('continuous');
#310=COLOUR_RGB('',0.509803950786591,0.509803950786591,0.588235318660736);
#311=CARTESIAN_POINT('',(-7.10000000000002,1.00322267151014E-014,2.16284210967503));
#312=VECTOR('',#424,1.0);
#313=DRAUGHTING_PRE_DEFINED_CURVE_FONT('continuous');
#314=COLOUR_RGB('',0.509803950786591,0.509803950786591,0.588235318660736);
#315=AXIS2_PLACEMENT_3D('',#425,#426,#427);
#316=DRAUGHTING_PRE_DEFINED_CURVE_FONT('continuous');
#317=COLOUR_RGB('',0.509803950786591,0.509803950786591,0.588235318660736);
#318=CARTESIAN_POINT('',(7.10000000000014,1.42442210092237E-014,2.16284210967503));
#319=VECTOR('',#428,1.0);
#320=PRE_DEFINED_MARKER('');
#321=COLOUR_RGB('',0.509803950786591,0.509803950786591,0.588235318660736);
#322=DRAUGHTING_PRE_DEFINED_CURVE_FONT('continuous');
#323=COLOUR_RGB('',0.509803950786591,0.509803950786591,0.588235318660736);
#324=AXIS2_PLACEMENT_3D('',#429,#430,#431);
#325=DRAUGHTING_PRE_DEFINED_CURVE_FONT('continuous');
#326=COLOUR_RGB('',0.509803950786591,0.509803950786591,0.588235318660736);
#327=CARTESIAN_POINT('',(-8.54999999999998,9.60212870619454E-015,5.16284210967503));
#328=VECTOR('',#432,1.0);
#329=PRE_DEFINED_MARKER('');
#330=COLOUR_RGB('',0.509803950786591,0.509803950786591,0.588235318660736);
#332=CARTESIAN_POINT('',(5.6843418860808E-014,1.21382238621625E-014,-2.8421709430404E-014));
#333=DIRECTION('',(-0.0,0.0,-1.0));
#334=DIRECTION('',(-1.0,-1.74158681105246E-016,0.0));
#335=SURFACE_STYLE_FILL_AREA(#433);
#336=SURFACE_STYLE_FILL_AREA(#434);
#337=ORIENTED_EDGE('',*,*,#125,.F.);
#338=ORIENTED_EDGE('',*,*,#105,.F.);
#339=ORIENTED_EDGE('',*,*,#103,.F.);
#340=ORIENTED_EDGE('',*,*,#117,.T.);
#341=CARTESIAN_POINT('',(5.6843418860808E-014,1.21382238621625E-014,5.16284210967503));
#342=DIRECTION('',(0.0,-0.0,1.0));
#343=DIRECTION('',(-1.0,-1.74158681105246E-016,0.0));
#344=SURFACE_STYLE_FILL_AREA(#435);
#345=ORIENTED_EDGE('',*,*,#73,.T.);
#346=ORIENTED_EDGE('',*,*,#71,.F.);
#347=ORIENTED_EDGE('',*,*,#85,.T.);
#348=ORIENTED_EDGE('',*,*,#81,.T.);
#349=CARTESIAN_POINT('',(5.6843418860808E-014,1.21382238621625E-014,2.99999999999997));
#350=DIRECTION('',(0.0,-0.0,1.0));
#351=DIRECTION('',(-1.0,-1.74158681105246E-016,0.0));
#352=CARTESIAN_POINT('',(5.6843418860808E-014,1.21382238621625E-014,-2.8421709430404E-014));
#353=DIRECTION('',(-0.0,0.0,-1.0));
#354=DIRECTION('',(-1.0,-1.74158681105246E-016,0.0));
#355=DIRECTION('',(0.0,0.0,-1.0));
#356=CARTESIAN_POINT('',(5.6843418860808E-014,1.21382238621625E-014,5.99999999999997));
#357=DIRECTION('',(-0.0,0.0,-1.0));
#358=DIRECTION('',(-1.0,-1.74158681105246E-016,0.0));
#359=CARTESIAN_POINT('',(5.6843418860808E-014,1.21382238621625E-014,5.99999999999997));
#360=DIRECTION('',(-0.0,0.0,-1.0));
#361=DIRECTION('',(-1.0,-1.74158681105246E-016,0.0));
#362=SURFACE_STYLE_FILL_AREA(#436);
#363=ORIENTED_EDGE('',*,*,#79,.F.);
#364=ORIENTED_EDGE('',*,*,#81,.F.);
#365=ORIENTED_EDGE('',*,*,#91,.T.);
#366=ORIENTED_EDGE('',*,*,#105,.T.);
#367=CARTESIAN_POINT('',(-13.9999999999999,1.04237749668112E-014,5.99999999999997));
#368=DIRECTION('',(0.0,0.0,1.0));
#369=DIRECTION('',(-1.0,-1.22460635382238E-016,0.0));
#370=DIRECTION('',(-0.0,-0.0,1.0));
#371=SURFACE_STYLE_FILL_AREA(#437);
#372=ORIENTED_EDGE('',*,*,#73,.F.);
#373=ORIENTED_EDGE('',*,*,#79,.T.);
#374=ORIENTED_EDGE('',*,*,#85,.F.);
#375=ORIENTED_EDGE('',*,*,#99,.F.);
#376=CARTESIAN_POINT('',(5.6843418860808E-014,1.21382238621625E-014,2.99999999999997));
#377=DIRECTION('',(0.0,-0.0,1.0));
#378=DIRECTION('',(-1.0,-1.74158681105246E-016,0.0));
#379=CARTESIAN_POINT('',(5.6843418860808E-014,1.21382238621625E-014,5.99999999999997));
#380=DIRECTION('',(-0.0,0.0,-1.0));
#381=DIRECTION('',(-1.0,-1.74158681105246E-016,0.0));
#382=SURFACE_STYLE_FILL_AREA(#438);
#383=ORIENTED_EDGE('',*,*,#125,.T.);
#384=ORIENTED_EDGE('',*,*,#97,.T.);
#385=ORIENTED_EDGE('',*,*,#103,.T.);
#386=ORIENTED_EDGE('',*,*,#91,.F.);
#387=CARTESIAN_POINT('',(5.6843418860808E-014,1.21382238621625E-014,5.16284210967503));
#388=DIRECTION('',(0.0,-0.0,1.0));
#389=DIRECTION('',(-1.0,-1.74158681105246E-016,0.0));
#390=SURFACE_STYLE_FILL_AREA(#439);
#391=ORIENTED_EDGE('',*,*,#115,.T.);
#392=ORIENTED_EDGE('',*,*,#59,.T.);
#393=ORIENTED_EDGE('',*,*,#119,.T.);
#394=ORIENTED_EDGE('',*,*,#97,.F.);
#395=CARTESIAN_POINT('',(5.6843418860808E-014,1.21382238621625E-014,2.16284210967503));
#396=DIRECTION('',(0.0,-0.0,1.0));
#397=DIRECTION('',(-1.0,-1.74158681105246E-016,0.0));
#398=CARTESIAN_POINT('',(5.6843418860808E-014,1.21382238621625E-014,4.32568421935008));
#399=DIRECTION('',(-0.0,0.0,-1.0));
#400=DIRECTION('',(-1.0,-1.74158681105246E-016,0.0));
#401=CARTESIAN_POINT('',(5.6843418860808E-014,1.21382238621625E-014,-2.8421709430404E-014));
#402=DIRECTION('',(-0.0,0.0,-1.0));
#403=DIRECTION('',(-1.0,-1.74158681105246E-016,0.0));
#404=SURFACE_STYLE_FILL_AREA(#440);
#405=ORIENTED_EDGE('',*,*,#59,.F.);
#406=ORIENTED_EDGE('',*,*,#123,.F.);
#407=ORIENTED_EDGE('',*,*,#99,.T.);
#408=ORIENTED_EDGE('',*,*,#71,.T.);
#409=CARTESIAN_POINT('',(-12.55,1.02339609819687E-014,-2.8421709430404E-014));
#410=DIRECTION('',(0.0,0.0,-1.0));
#411=DIRECTION('',(1.0,1.22460635382238E-016,0.0));
#412=DIRECTION('',(0.866025403784436,2.56879863331337E-016,0.500000000000005));
#413=CARTESIAN_POINT('',(5.6843418860808E-014,1.21382238621625E-014,5.99999999999997));
#414=DIRECTION('',(-0.0,0.0,-1.0));
#415=DIRECTION('',(-1.0,-1.74158681105246E-016,0.0));
#416=SURFACE_STYLE_FILL_AREA(#441);
#417=ORIENTED_EDGE('',*,*,#115,.F.);
#418=ORIENTED_EDGE('',*,*,#117,.F.);
#419=ORIENTED_EDGE('',*,*,#119,.F.);
#420=ORIENTED_EDGE('',*,*,#123,.T.);
#421=CARTESIAN_POINT('',(5.6843418860808E-014,1.21382238621625E-014,2.16284210967503));
#422=DIRECTION('',(0.0,-0.0,1.0));
#423=DIRECTION('',(-1.0,-1.74158681105246E-016,0.0));
#424=DIRECTION('',(0.0,0.0,-1.0));
#425=CARTESIAN_POINT('',(5.6843418860808E-014,1.21382238621625E-014,4.32568421935008));
#426=DIRECTION('',(-0.0,0.0,-1.0));
#427=DIRECTION('',(-1.0,-1.74158681105246E-016,0.0));
#428=DIRECTION('',(0.0,0.0,1.0));
#429=CARTESIAN_POINT('',(5.6843418860808E-014,1.21382238621625E-014,-2.8421709430404E-014));
#430=DIRECTION('',(-0.0,0.0,-1.0));
#431=DIRECTION('',(-1.0,-1.74158681105246E-016,0.0));
#432=DIRECTION('',(0.866025403784436,2.56879863331337E-016,-0.500000000000005));
#433=FILL_AREA_STYLE('',(#442));
#434=FILL_AREA_STYLE('',(#443));
#435=FILL_AREA_STYLE('',(#444));
#436=FILL_AREA_STYLE('',(#445));
#437=FILL_AREA_STYLE('',(#446));
#438=FILL_AREA_STYLE('',(#447));
#439=FILL_AREA_STYLE('',(#448));
#440=FILL_AREA_STYLE('',(#449));
#441=FILL_AREA_STYLE('',(#450));
#442=FILL_AREA_STYLE_COLOUR('',#451);
#443=FILL_AREA_STYLE_COLOUR('',#452);
#444=FILL_AREA_STYLE_COLOUR('',#453);
#445=FILL_AREA_STYLE_COLOUR('',#454);
#446=FILL_AREA_STYLE_COLOUR('',#455);
#447=FILL_AREA_STYLE_COLOUR('',#456);
#448=FILL_AREA_STYLE_COLOUR('',#457);
#449=FILL_AREA_STYLE_COLOUR('',#458);
#450=FILL_AREA_STYLE_COLOUR('',#459);
#451=COLOUR_RGB('',0.509803950786591,0.509803950786591,0.588235318660736);
#452=COLOUR_RGB('',0.509803950786591,0.509803950786591,0.588235318660736);
#453=COLOUR_RGB('',0.509803950786591,0.509803950786591,0.588235318660736);
#454=COLOUR_RGB('',0.509803950786591,0.509803950786591,0.588235318660736);
#455=COLOUR_RGB('',0.509803950786591,0.509803950786591,0.588235318660736);
#456=COLOUR_RGB('',0.509803950786591,0.509803950786591,0.588235318660736);
#457=COLOUR_RGB('',0.509803950786591,0.509803950786591,0.588235318660736);
#458=COLOUR_RGB('',0.509803950786591,0.509803950786591,0.588235318660736);
#459=COLOUR_RGB('',0.509803950786591,0.509803950786591,0.588235318660736);
ENDSEC;
END-ISO-10303-21;
