ISO-10303-21;
HEADER;
FILE_DESCRIPTION(('STEP AP214'),'1');
FILE_NAME(' ','  ',('TraceParts'),('TraceParts S.A.'),'XStep 1.0',' ',' ');
FILE_SCHEMA(('automotive_design'));
ENDSEC;
DATA;
#1=MECHANICAL_DESIGN_GEOMETRIC_PRESENTATION_REPRESENTATION(' ',(#10,#11,#12,#13,#14,#15,#16,#17,#18,#19,#20,#21,#22,#23,#24,#25,#26,#27,#28,#29,#30,#31,#32,#33,#34,#35,#36,#37,#38,#39,#40,#41,#42,#43,#44),#6);
#2=PRODUCT_DEFINITION_CONTEXT('',#45,'design');
#3=APPLICATION_PROTOCOL_DEFINITION('INTERNATIONAL STANDARD','automotive_design',1994,#45);
#4=PRODUCT_CATEGORY_RELATIONSHIP('NONE','NONE',#46,#47);
#5=SHAPE_DEFINITION_REPRESENTATION(#48,#49);
#6= (GEOMETRIC_REPRESENTATION_CONTEXT(3)GLOBAL_UNCERTAINTY_ASSIGNED_CONTEXT((#52))GLOBAL_UNIT_ASSIGNED_CONTEXT((#54,#55,#56))REPRESENTATION_CONTEXT('NONE','WORKSPACE'));
#10=STYLED_ITEM('',(#58),#59);
#11=STYLED_ITEM('',(#60),#61);
#12=STYLED_ITEM('',(#62),#63);
#13=STYLED_ITEM('',(#64),#65);
#14=STYLED_ITEM('',(#66),#67);
#15=STYLED_ITEM('',(#68),#69);
#16=STYLED_ITEM('',(#70),#71);
#17=STYLED_ITEM('',(#72),#73);
#18=STYLED_ITEM('',(#74),#75);
#19=STYLED_ITEM('',(#76),#77);
#20=STYLED_ITEM('',(#78),#79);
#21=STYLED_ITEM('',(#80),#81);
#22=STYLED_ITEM('',(#82),#83);
#23=STYLED_ITEM('',(#84),#85);
#24=STYLED_ITEM('',(#86),#87);
#25=STYLED_ITEM('',(#88),#89);
#26=STYLED_ITEM('',(#90),#91);
#27=STYLED_ITEM('',(#92),#93);
#28=STYLED_ITEM('',(#94),#95);
#29=STYLED_ITEM('',(#96),#97);
#30=STYLED_ITEM('',(#98),#99);
#31=STYLED_ITEM('',(#100),#101);
#32=STYLED_ITEM('',(#102),#103);
#33=STYLED_ITEM('',(#104),#105);
#34=STYLED_ITEM('',(#106),#107);
#35=STYLED_ITEM('',(#108),#109);
#36=STYLED_ITEM('',(#110),#111);
#37=STYLED_ITEM('',(#112),#113);
#38=STYLED_ITEM('',(#114),#115);
#39=STYLED_ITEM('',(#116),#117);
#40=STYLED_ITEM('',(#118),#119);
#41=STYLED_ITEM('',(#120),#121);
#42=STYLED_ITEM('',(#122),#123);
#43=STYLED_ITEM('',(#124),#125);
#44=STYLED_ITEM('',(#126),#127);
#45=APPLICATION_CONTEXT(' ');
#46=PRODUCT_CATEGORY('part','NONE');
#47=PRODUCT_RELATED_PRODUCT_CATEGORY('detail',' ',(#128));
#48=PRODUCT_DEFINITION_SHAPE('NONE','NONE',#129);
#49=ADVANCED_BREP_SHAPE_REPRESENTATION('1',(#61,#130),#6);
#52=UNCERTAINTY_MEASURE_WITH_UNIT(LENGTH_MEASURE(1.0E-006),#54,'','');
#54= (CONVERSION_BASED_UNIT('MILLIMETRE',#133)LENGTH_UNIT()NAMED_UNIT(#136));
#55= (NAMED_UNIT(#138)PLANE_ANGLE_UNIT()SI_UNIT($,.RADIAN.));
#56= (NAMED_UNIT(#138)SOLID_ANGLE_UNIT()SI_UNIT($,.STERADIAN.));
#58=PRESENTATION_STYLE_ASSIGNMENT((#144));
#59=EDGE_CURVE('',#63,#119,#145,.T.);
#60=PRESENTATION_STYLE_ASSIGNMENT((#146));
#61=MANIFOLD_SOLID_BREP('1',#147);
#62=PRESENTATION_STYLE_ASSIGNMENT((#148));
#63=VERTEX_POINT('',#149);
#64=PRESENTATION_STYLE_ASSIGNMENT((#150));
#65=ADVANCED_FACE('',(#151,#152),#153,.T.);
#66=PRESENTATION_STYLE_ASSIGNMENT((#154));
#67=EDGE_CURVE('',#119,#63,#155,.T.);
#68=PRESENTATION_STYLE_ASSIGNMENT((#156));
#69=EDGE_CURVE('',#89,#111,#157,.T.);
#70=PRESENTATION_STYLE_ASSIGNMENT((#158));
#71=EDGE_CURVE('',#111,#89,#159,.T.);
#72=PRESENTATION_STYLE_ASSIGNMENT((#160));
#73=EDGE_CURVE('',#89,#93,#161,.T.);
#74=PRESENTATION_STYLE_ASSIGNMENT((#162));
#75=EDGE_CURVE('',#91,#123,#163,.T.);
#76=PRESENTATION_STYLE_ASSIGNMENT((#164));
#77=EDGE_CURVE('',#127,#97,#165,.T.);
#78=PRESENTATION_STYLE_ASSIGNMENT((#166));
#79=EDGE_CURVE('',#123,#91,#167,.T.);
#80=PRESENTATION_STYLE_ASSIGNMENT((#168));
#81=EDGE_CURVE('',#107,#93,#169,.T.);
#82=PRESENTATION_STYLE_ASSIGNMENT((#170));
#83=EDGE_CURVE('',#111,#63,#171,.T.);
#84=PRESENTATION_STYLE_ASSIGNMENT((#172));
#85=EDGE_CURVE('',#93,#107,#173,.T.);
#86=PRESENTATION_STYLE_ASSIGNMENT((#174));
#87=ADVANCED_FACE('',(#175),#176,.T.);
#88=PRESENTATION_STYLE_ASSIGNMENT((#177));
#89=VERTEX_POINT('',#178);
#90=PRESENTATION_STYLE_ASSIGNMENT((#179));
#91=VERTEX_POINT('',#180);
#92=PRESENTATION_STYLE_ASSIGNMENT((#181));
#93=VERTEX_POINT('',#182);
#94=PRESENTATION_STYLE_ASSIGNMENT((#183));
#95=EDGE_CURVE('',#119,#89,#184,.T.);
#96=PRESENTATION_STYLE_ASSIGNMENT((#185));
#97=VERTEX_POINT('',#186);
#98=PRESENTATION_STYLE_ASSIGNMENT((#187));
#99=ADVANCED_FACE('',(#188,#189),#190,.T.);
#100=PRESENTATION_STYLE_ASSIGNMENT((#191));
#101=ADVANCED_FACE('',(#192),#193,.F.);
#102=PRESENTATION_STYLE_ASSIGNMENT((#194));
#103=ADVANCED_FACE('',(#195),#196,.F.);
#104=PRESENTATION_STYLE_ASSIGNMENT((#197));
#105=EDGE_CURVE('',#107,#111,#198,.T.);
#106=PRESENTATION_STYLE_ASSIGNMENT((#199));
#107=VERTEX_POINT('',#200);
#108=PRESENTATION_STYLE_ASSIGNMENT((#201));
#109=EDGE_CURVE('',#97,#127,#202,.T.);
#110=PRESENTATION_STYLE_ASSIGNMENT((#203));
#111=VERTEX_POINT('',#204);
#112=PRESENTATION_STYLE_ASSIGNMENT((#205));
#113=ADVANCED_FACE('',(#206),#207,.T.);
#114=PRESENTATION_STYLE_ASSIGNMENT((#208));
#115=ADVANCED_FACE('',(#209),#210,.F.);
#116=PRESENTATION_STYLE_ASSIGNMENT((#211));
#117=ADVANCED_FACE('',(#212),#213,.F.);
#118=PRESENTATION_STYLE_ASSIGNMENT((#214));
#119=VERTEX_POINT('',#215);
#120=PRESENTATION_STYLE_ASSIGNMENT((#216));
#121=EDGE_CURVE('',#127,#91,#217,.T.);
#122=PRESENTATION_STYLE_ASSIGNMENT((#218));
#123=VERTEX_POINT('',#219);
#124=PRESENTATION_STYLE_ASSIGNMENT((#220));
#125=EDGE_CURVE('',#123,#97,#221,.T.);
#126=PRESENTATION_STYLE_ASSIGNMENT((#222));
#127=VERTEX_POINT('',#223);
#128=PRODUCT('1','1','PART-1-DESC',(#224));
#129=PRODUCT_DEFINITION('NONE','NONE',#225,#2);
#130=AXIS2_PLACEMENT_3D('',#226,#227,#228);
#133=LENGTH_MEASURE_WITH_UNIT(LENGTH_MEASURE(1.0),#229);
#136=DIMENSIONAL_EXPONENTS(1.0,0.0,0.0,0.0,0.0,0.0,0.0);
#138=DIMENSIONAL_EXPONENTS(0.0,0.0,0.0,0.0,0.0,0.0,0.0);
#144=CURVE_STYLE('',#230,POSITIVE_LENGTH_MEASURE(1.0E-006),#231);
#145=CIRCLE('',#232,4.80000000000001);
#146=SURFACE_STYLE_USAGE(.BOTH.,#233);
#147=CLOSED_SHELL('',(#101,#113,#115,#117,#65,#87,#99,#103));
#148=POINT_STYLE(' ',#234,POSITIVE_LENGTH_MEASURE(1.0E-006),#235);
#149=CARTESIAN_POINT('',(-4.80000000000001,1.10850623978753E-014,-2.8421709430404E-014));
#150=SURFACE_STYLE_USAGE(.BOTH.,#236);
#151=FACE_OUTER_BOUND('',#237,.T.);
#152=FACE_BOUND('',#238,.T.);
#153=PLANE('',#239);
#154=CURVE_STYLE('',#240,POSITIVE_LENGTH_MEASURE(1.0E-006),#241);
#155=CIRCLE('',#242,4.80000000000001);
#156=CURVE_STYLE('',#243,POSITIVE_LENGTH_MEASURE(1.0E-006),#244);
#157=CIRCLE('',#245,4.80000000000001);
#158=CURVE_STYLE('',#246,POSITIVE_LENGTH_MEASURE(1.0E-006),#247);
#159=CIRCLE('',#248,4.80000000000001);
#160=CURVE_STYLE('',#249,POSITIVE_LENGTH_MEASURE(1.0E-006),#250);
#161=LINE('',#251,#252);
#162=CURVE_STYLE('',#253,POSITIVE_LENGTH_MEASURE(1.0E-006),#254);
#163=CIRCLE('',#255,12.0);
#164=CURVE_STYLE('',#256,POSITIVE_LENGTH_MEASURE(1.0E-006),#257);
#165=CIRCLE('',#258,12.0);
#166=CURVE_STYLE('',#259,POSITIVE_LENGTH_MEASURE(1.0E-006),#260);
#167=CIRCLE('',#261,12.0);
#168=CURVE_STYLE('',#262,POSITIVE_LENGTH_MEASURE(1.0E-006),#263);
#169=CIRCLE('',#264,7.25);
#170=CURVE_STYLE('',#265,POSITIVE_LENGTH_MEASURE(1.0E-006),#266);
#171=LINE('',#267,#268);
#172=CURVE_STYLE('',#269,POSITIVE_LENGTH_MEASURE(1.0E-006),#270);
#173=CIRCLE('',#271,7.25);
#174=SURFACE_STYLE_USAGE(.BOTH.,#272);
#175=FACE_OUTER_BOUND('',#273,.T.);
#176=CYLINDRICAL_SURFACE('',#274,12.0);
#177=POINT_STYLE(' ',#275,POSITIVE_LENGTH_MEASURE(1.0E-006),#276);
#178=CARTESIAN_POINT('',(4.80000000000001,1.34605286891012E-014,3.58549184048539));
#179=POINT_STYLE(' ',#277,POSITIVE_LENGTH_MEASURE(1.0E-006),#278);
#180=CARTESIAN_POINT('',(12.0,1.56827841685046E-014,4.99999999999997));
#181=POINT_STYLE(' ',#279,POSITIVE_LENGTH_MEASURE(1.0E-006),#280);
#182=CARTESIAN_POINT('',(7.25,1.42167128452871E-014,4.99999999999997));
#183=CURVE_STYLE('',#281,POSITIVE_LENGTH_MEASURE(1.0E-006),#282);
#184=LINE('',#283,#284);
#185=POINT_STYLE(' ',#285,POSITIVE_LENGTH_MEASURE(1.0E-006),#286);
#186=CARTESIAN_POINT('',(-12.0,1.02033458231232E-014,-2.8421709430404E-014));
#187=SURFACE_STYLE_USAGE(.BOTH.,#287);
#188=FACE_BOUND('',#288,.T.);
#189=FACE_OUTER_BOUND('',#289,.T.);
#190=PLANE('',#290);
#191=SURFACE_STYLE_USAGE(.BOTH.,#291);
#192=FACE_OUTER_BOUND('',#292,.T.);
#193=CYLINDRICAL_SURFACE('',#293,4.80000000000001);
#194=SURFACE_STYLE_USAGE(.BOTH.,#294);
#195=FACE_OUTER_BOUND('',#295,.T.);
#196=CYLINDRICAL_SURFACE('',#296,4.80000000000001);
#197=CURVE_STYLE('',#297,POSITIVE_LENGTH_MEASURE(1.0E-006),#298);
#198=LINE('',#299,#300);
#199=POINT_STYLE(' ',#301,POSITIVE_LENGTH_MEASURE(1.0E-006),#302);
#200=CARTESIAN_POINT('',(-7.25,1.10911854296444E-014,4.99999999999997));
#201=CURVE_STYLE('',#303,POSITIVE_LENGTH_MEASURE(1.0E-006),#304);
#202=CIRCLE('',#305,12.0);
#203=POINT_STYLE(' ',#306,POSITIVE_LENGTH_MEASURE(1.0E-006),#307);
#204=CARTESIAN_POINT('',(-4.80000000000001,1.13046032023471E-014,3.58549184048539));
#205=SURFACE_STYLE_USAGE(.BOTH.,#308);
#206=FACE_OUTER_BOUND('',#309,.T.);
#207=CYLINDRICAL_SURFACE('',#310,12.0);
#208=SURFACE_STYLE_USAGE(.BOTH.,#311);
#209=FACE_OUTER_BOUND('',#312,.T.);
#210=CONICAL_SURFACE('',#313,6.02500000000001,1.0471975511966);
#211=SURFACE_STYLE_USAGE(.BOTH.,#314);
#212=FACE_OUTER_BOUND('',#315,.T.);
#213=CONICAL_SURFACE('',#316,6.02500000000001,1.0471975511966);
#214=POINT_STYLE(' ',#317,POSITIVE_LENGTH_MEASURE(1.0E-006),#318);
#215=CARTESIAN_POINT('',(4.80000000000001,1.34605286891012E-014,-2.8421709430404E-014));
#216=CURVE_STYLE('',#319,POSITIVE_LENGTH_MEASURE(1.0E-006),#320);
#217=LINE('',#321,#322);
#218=POINT_STYLE(' ',#323,POSITIVE_LENGTH_MEASURE(1.0E-006),#324);
#219=CARTESIAN_POINT('',(-12.0,1.05094974115788E-014,4.99999999999997));
#220=CURVE_STYLE('',#325,POSITIVE_LENGTH_MEASURE(1.0E-006),#326);
#221=LINE('',#327,#328);
#222=POINT_STYLE(' ',#329,POSITIVE_LENGTH_MEASURE(1.0E-006),#330);
#223=CARTESIAN_POINT('',(12.0,1.56827841685046E-014,-2.8421709430404E-014));
#224=PRODUCT_CONTEXT('',#45,'mechanical');
#225=PRODUCT_DEFINITION_FORMATION_WITH_SPECIFIED_SOURCE(' ','NONE',#128,.NOT_KNOWN.);
#226=CARTESIAN_POINT('',(0.0,0.0,0.0));
#227=DIRECTION('',(0.0,0.0,1.0));
#228=DIRECTION('',(1.0,0.0,0.0));
#229= (NAMED_UNIT(#136)LENGTH_UNIT()SI_UNIT(.MILLI.,.METRE.));
#230=DRAUGHTING_PRE_DEFINED_CURVE_FONT('continuous');
#231=COLOUR_RGB('',0.509803950786591,0.509803950786591,0.588235318660736);
#232=AXIS2_PLACEMENT_3D('',#332,#333,#334);
#233=SURFACE_SIDE_STYLE('',(#335));
#234=PRE_DEFINED_MARKER('');
#235=COLOUR_RGB('',0.509803950786591,0.509803950786591,0.588235318660736);
#236=SURFACE_SIDE_STYLE('',(#336));
#237=EDGE_LOOP('',(#337,#338));
#238=EDGE_LOOP('',(#339,#340));
#239=AXIS2_PLACEMENT_3D('',#341,#342,#343);
#240=DRAUGHTING_PRE_DEFINED_CURVE_FONT('continuous');
#241=COLOUR_RGB('',0.509803950786591,0.509803950786591,0.588235318660736);
#242=AXIS2_PLACEMENT_3D('',#344,#345,#346);
#243=DRAUGHTING_PRE_DEFINED_CURVE_FONT('continuous');
#244=COLOUR_RGB('',0.509803950786591,0.509803950786591,0.588235318660736);
#245=AXIS2_PLACEMENT_3D('',#347,#348,#349);
#246=DRAUGHTING_PRE_DEFINED_CURVE_FONT('continuous');
#247=COLOUR_RGB('',0.509803950786591,0.509803950786591,0.588235318660736);
#248=AXIS2_PLACEMENT_3D('',#350,#351,#352);
#249=DRAUGHTING_PRE_DEFINED_CURVE_FONT('continuous');
#250=COLOUR_RGB('',0.509803950786591,0.509803950786591,0.588235318660736);
#251=CARTESIAN_POINT('',(6.02500000000001,1.38386207671941E-014,4.29274592024268));
#252=VECTOR('',#353,1.0);
#253=DRAUGHTING_PRE_DEFINED_CURVE_FONT('continuous');
#254=COLOUR_RGB('',0.509803950786591,0.509803950786591,0.588235318660736);
#255=AXIS2_PLACEMENT_3D('',#354,#355,#356);
#256=DRAUGHTING_PRE_DEFINED_CURVE_FONT('continuous');
#257=COLOUR_RGB('',0.509803950786591,0.509803950786591,0.588235318660736);
#258=AXIS2_PLACEMENT_3D('',#357,#358,#359);
#259=DRAUGHTING_PRE_DEFINED_CURVE_FONT('continuous');
#260=COLOUR_RGB('',0.509803950786591,0.509803950786591,0.588235318660736);
#261=AXIS2_PLACEMENT_3D('',#360,#361,#362);
#262=DRAUGHTING_PRE_DEFINED_CURVE_FONT('continuous');
#263=COLOUR_RGB('',0.509803950786591,0.509803950786591,0.588235318660736);
#264=AXIS2_PLACEMENT_3D('',#363,#364,#365);
#265=DRAUGHTING_PRE_DEFINED_CURVE_FONT('continuous');
#266=COLOUR_RGB('',0.509803950786591,0.509803950786591,0.588235318660736);
#267=CARTESIAN_POINT('',(-4.80000000000001,1.049752138323E-014,1.79274592024268));
#268=VECTOR('',#366,1.0);
#269=DRAUGHTING_PRE_DEFINED_CURVE_FONT('continuous');
#270=COLOUR_RGB('',0.509803950786591,0.509803950786591,0.588235318660736);
#271=AXIS2_PLACEMENT_3D('',#367,#368,#369);
#272=SURFACE_SIDE_STYLE('',(#370));
#273=EDGE_LOOP('',(#371,#372,#373,#374));
#274=AXIS2_PLACEMENT_3D('',#375,#376,#377);
#275=PRE_DEFINED_MARKER('');
#276=COLOUR_RGB('',0.509803950786591,0.509803950786591,0.588235318660736);
#277=PRE_DEFINED_MARKER('');
#278=COLOUR_RGB('',0.509803950786591,0.509803950786591,0.588235318660736);
#279=PRE_DEFINED_MARKER('');
#280=COLOUR_RGB('',0.509803950786591,0.509803950786591,0.588235318660736);
#281=DRAUGHTING_PRE_DEFINED_CURVE_FONT('continuous');
#282=COLOUR_RGB('',0.509803950786591,0.509803950786591,0.588235318660736);
#283=CARTESIAN_POINT('',(4.80000000000001,1.34605286891012E-014,1.79274592024268));
#284=VECTOR('',#378,1.0);
#285=PRE_DEFINED_MARKER('');
#286=COLOUR_RGB('',0.509803950786591,0.509803950786591,0.588235318660736);
#287=SURFACE_SIDE_STYLE('',(#379));
#288=EDGE_LOOP('',(#380,#381));
#289=EDGE_LOOP('',(#382,#383));
#290=AXIS2_PLACEMENT_3D('',#384,#385,#386);
#291=SURFACE_SIDE_STYLE('',(#387));
#292=EDGE_LOOP('',(#388,#389,#390,#391));
#293=AXIS2_PLACEMENT_3D('',#392,#393,#394);
#294=SURFACE_SIDE_STYLE('',(#395));
#295=EDGE_LOOP('',(#396,#397,#398,#399));
#296=AXIS2_PLACEMENT_3D('',#400,#401,#402);
#297=DRAUGHTING_PRE_DEFINED_CURVE_FONT('continuous');
#298=COLOUR_RGB('',0.509803950786591,0.509803950786591,0.588235318660736);
#299=CARTESIAN_POINT('',(-6.02500000000001,1.01194293051371E-014,4.29274592024268));
#300=VECTOR('',#403,1.0);
#301=PRE_DEFINED_MARKER('');
#302=COLOUR_RGB('',0.509803950786591,0.509803950786591,0.588235318660736);
#303=DRAUGHTING_PRE_DEFINED_CURVE_FONT('continuous');
#304=COLOUR_RGB('',0.509803950786591,0.509803950786591,0.588235318660736);
#305=AXIS2_PLACEMENT_3D('',#404,#405,#406);
#306=PRE_DEFINED_MARKER('');
#307=COLOUR_RGB('',0.509803950786591,0.509803950786591,0.588235318660736);
#308=SURFACE_SIDE_STYLE('',(#407));
#309=EDGE_LOOP('',(#408,#409,#410,#411));
#310=AXIS2_PLACEMENT_3D('',#412,#413,#414);
#311=SURFACE_SIDE_STYLE('',(#415));
#312=EDGE_LOOP('',(#416,#417,#418,#419));
#313=AXIS2_PLACEMENT_3D('',#420,#421,#422);
#314=SURFACE_SIDE_STYLE('',(#423));
#315=EDGE_LOOP('',(#424,#425,#426,#427));
#316=AXIS2_PLACEMENT_3D('',#428,#429,#430);
#317=PRE_DEFINED_MARKER('');
#318=COLOUR_RGB('',0.509803950786591,0.509803950786591,0.588235318660736);
#319=DRAUGHTING_PRE_DEFINED_CURVE_FONT('continuous');
#320=COLOUR_RGB('',0.509803950786591,0.509803950786591,0.588235318660736);
#321=CARTESIAN_POINT('',(12.0,1.56827841685046E-014,2.49999999999997));
#322=VECTOR('',#431,1.0);
#323=PRE_DEFINED_MARKER('');
#324=COLOUR_RGB('',0.509803950786591,0.509803950786591,0.588235318660736);
#325=DRAUGHTING_PRE_DEFINED_CURVE_FONT('continuous');
#326=COLOUR_RGB('',0.509803950786591,0.509803950786591,0.588235318660736);
#327=CARTESIAN_POINT('',(-12.0,8.27526590382668E-015,2.49999999999997));
#328=VECTOR('',#432,1.0);
#329=PRE_DEFINED_MARKER('');
#330=COLOUR_RGB('',0.509803950786591,0.509803950786591,0.588235318660736);
#332=CARTESIAN_POINT('',(0.0,1.19790250361656E-014,-2.8421709430404E-014));
#333=DIRECTION('',(-0.0,0.0,-1.0));
#334=DIRECTION('',(-1.0,-1.8618595897934E-016,0.0));
#335=SURFACE_STYLE_FILL_AREA(#433);
#336=SURFACE_STYLE_FILL_AREA(#434);
#337=ORIENTED_EDGE('',*,*,#79,.F.);
#338=ORIENTED_EDGE('',*,*,#75,.F.);
#339=ORIENTED_EDGE('',*,*,#81,.T.);
#340=ORIENTED_EDGE('',*,*,#85,.T.);
#341=CARTESIAN_POINT('',(-9.625,1.08003414206116E-014,4.99999999999997));
#342=DIRECTION('',(0.0,0.0,1.0));
#343=DIRECTION('',(-1.0,-1.22460635382238E-016,0.0));
#344=CARTESIAN_POINT('',(0.0,1.19790250361656E-014,-2.8421709430404E-014));
#345=DIRECTION('',(-0.0,0.0,-1.0));
#346=DIRECTION('',(-1.0,-1.8618595897934E-016,0.0));
#347=CARTESIAN_POINT('',(0.0,1.19790250361656E-014,3.58549184048539));
#348=DIRECTION('',(-0.0,0.0,-1.0));
#349=DIRECTION('',(-1.0,-1.8618595897934E-016,0.0));
#350=CARTESIAN_POINT('',(0.0,1.19790250361656E-014,3.58549184048539));
#351=DIRECTION('',(-0.0,0.0,-1.0));
#352=DIRECTION('',(-1.0,-1.8618595897934E-016,0.0));
#353=DIRECTION('',(0.866025403784438,2.67295791508677E-016,0.500000000000002));
#354=CARTESIAN_POINT('',(0.0,1.19790250361656E-014,4.99999999999997));
#355=DIRECTION('',(-0.0,0.0,-1.0));
#356=DIRECTION('',(-1.0,-1.8618595897934E-016,0.0));
#357=CARTESIAN_POINT('',(0.0,1.19790250361656E-014,-2.8421709430404E-014));
#358=DIRECTION('',(-0.0,0.0,-1.0));
#359=DIRECTION('',(-1.0,-1.8618595897934E-016,0.0));
#360=CARTESIAN_POINT('',(0.0,1.19790250361656E-014,4.99999999999997));
#361=DIRECTION('',(-0.0,0.0,-1.0));
#362=DIRECTION('',(-1.0,-1.8618595897934E-016,0.0));
#363=CARTESIAN_POINT('',(0.0,1.19790250361656E-014,4.99999999999997));
#364=DIRECTION('',(-0.0,0.0,-1.0));
#365=DIRECTION('',(-1.0,-1.8618595897934E-016,0.0));
#366=DIRECTION('',(0.0,0.0,-1.0));
#367=CARTESIAN_POINT('',(0.0,1.19790250361656E-014,4.99999999999997));
#368=DIRECTION('',(-0.0,0.0,-1.0));
#369=DIRECTION('',(-1.0,-1.8618595897934E-016,0.0));
#370=SURFACE_STYLE_FILL_AREA(#435);
#371=ORIENTED_EDGE('',*,*,#125,.T.);
#372=ORIENTED_EDGE('',*,*,#77,.F.);
#373=ORIENTED_EDGE('',*,*,#121,.T.);
#374=ORIENTED_EDGE('',*,*,#75,.T.);
#375=CARTESIAN_POINT('',(0.0,1.19790250361656E-014,2.49999999999997));
#376=DIRECTION('',(0.0,-0.0,1.0));
#377=DIRECTION('',(-1.0,-1.8618595897934E-016,0.0));
#378=DIRECTION('',(0.0,0.0,1.0));
#379=SURFACE_STYLE_FILL_AREA(#436);
#380=ORIENTED_EDGE('',*,*,#59,.F.);
#381=ORIENTED_EDGE('',*,*,#67,.F.);
#382=ORIENTED_EDGE('',*,*,#109,.T.);
#383=ORIENTED_EDGE('',*,*,#77,.T.);
#384=CARTESIAN_POINT('',(-8.40000000000001,1.06442041104992E-014,-2.8421709430404E-014));
#385=DIRECTION('',(0.0,0.0,-1.0));
#386=DIRECTION('',(1.0,1.22460635382238E-016,0.0));
#387=SURFACE_STYLE_FILL_AREA(#437);
#388=ORIENTED_EDGE('',*,*,#83,.F.);
#389=ORIENTED_EDGE('',*,*,#69,.F.);
#390=ORIENTED_EDGE('',*,*,#95,.F.);
#391=ORIENTED_EDGE('',*,*,#67,.T.);
#392=CARTESIAN_POINT('',(0.0,1.19790250361656E-014,1.79274592024268));
#393=DIRECTION('',(0.0,-0.0,1.0));
#394=DIRECTION('',(-1.0,-1.8618595897934E-016,0.0));
#395=SURFACE_STYLE_FILL_AREA(#438);
#396=ORIENTED_EDGE('',*,*,#83,.T.);
#397=ORIENTED_EDGE('',*,*,#59,.T.);
#398=ORIENTED_EDGE('',*,*,#95,.T.);
#399=ORIENTED_EDGE('',*,*,#71,.F.);
#400=CARTESIAN_POINT('',(0.0,1.19790250361656E-014,1.79274592024268));
#401=DIRECTION('',(0.0,-0.0,1.0));
#402=DIRECTION('',(-1.0,-1.8618595897934E-016,0.0));
#403=DIRECTION('',(0.866025403784438,2.67295791508677E-016,-0.500000000000002));
#404=CARTESIAN_POINT('',(0.0,1.19790250361656E-014,-2.8421709430404E-014));
#405=DIRECTION('',(-0.0,0.0,-1.0));
#406=DIRECTION('',(-1.0,-1.8618595897934E-016,0.0));
#407=SURFACE_STYLE_FILL_AREA(#439);
#408=ORIENTED_EDGE('',*,*,#125,.F.);
#409=ORIENTED_EDGE('',*,*,#79,.T.);
#410=ORIENTED_EDGE('',*,*,#121,.F.);
#411=ORIENTED_EDGE('',*,*,#109,.F.);
#412=CARTESIAN_POINT('',(0.0,1.19790250361656E-014,2.49999999999997));
#413=DIRECTION('',(0.0,-0.0,1.0));
#414=DIRECTION('',(-1.0,-1.8618595897934E-016,0.0));
#415=SURFACE_STYLE_FILL_AREA(#440);
#416=ORIENTED_EDGE('',*,*,#105,.F.);
#417=ORIENTED_EDGE('',*,*,#85,.F.);
#418=ORIENTED_EDGE('',*,*,#73,.F.);
#419=ORIENTED_EDGE('',*,*,#69,.T.);
#420=CARTESIAN_POINT('',(0.0,1.19790250361656E-014,4.29274592024268));
#421=DIRECTION('',(0.0,-0.0,1.0));
#422=DIRECTION('',(-1.0,-1.8618595897934E-016,0.0));
#423=SURFACE_STYLE_FILL_AREA(#441);
#424=ORIENTED_EDGE('',*,*,#105,.T.);
#425=ORIENTED_EDGE('',*,*,#71,.T.);
#426=ORIENTED_EDGE('',*,*,#73,.T.);
#427=ORIENTED_EDGE('',*,*,#81,.F.);
#428=CARTESIAN_POINT('',(0.0,1.19790250361656E-014,4.29274592024268));
#429=DIRECTION('',(0.0,-0.0,1.0));
#430=DIRECTION('',(-1.0,-1.8618595897934E-016,0.0));
#431=DIRECTION('',(-0.0,-0.0,1.0));
#432=DIRECTION('',(0.0,0.0,-1.0));
#433=FILL_AREA_STYLE('',(#442));
#434=FILL_AREA_STYLE('',(#443));
#435=FILL_AREA_STYLE('',(#444));
#436=FILL_AREA_STYLE('',(#445));
#437=FILL_AREA_STYLE('',(#446));
#438=FILL_AREA_STYLE('',(#447));
#439=FILL_AREA_STYLE('',(#448));
#440=FILL_AREA_STYLE('',(#449));
#441=FILL_AREA_STYLE('',(#450));
#442=FILL_AREA_STYLE_COLOUR('',#451);
#443=FILL_AREA_STYLE_COLOUR('',#452);
#444=FILL_AREA_STYLE_COLOUR('',#453);
#445=FILL_AREA_STYLE_COLOUR('',#454);
#446=FILL_AREA_STYLE_COLOUR('',#455);
#447=FILL_AREA_STYLE_COLOUR('',#456);
#448=FILL_AREA_STYLE_COLOUR('',#457);
#449=FILL_AREA_STYLE_COLOUR('',#458);
#450=FILL_AREA_STYLE_COLOUR('',#459);
#451=COLOUR_RGB('',0.509803950786591,0.509803950786591,0.588235318660736);
#452=COLOUR_RGB('',0.509803950786591,0.509803950786591,0.588235318660736);
#453=COLOUR_RGB('',0.509803950786591,0.509803950786591,0.588235318660736);
#454=COLOUR_RGB('',0.509803950786591,0.509803950786591,0.588235318660736);
#455=COLOUR_RGB('',0.509803950786591,0.509803950786591,0.588235318660736);
#456=COLOUR_RGB('',0.509803950786591,0.509803950786591,0.588235318660736);
#457=COLOUR_RGB('',0.509803950786591,0.509803950786591,0.588235318660736);
#458=COLOUR_RGB('',0.509803950786591,0.509803950786591,0.588235318660736);
#459=COLOUR_RGB('',0.509803950786591,0.509803950786591,0.588235318660736);
ENDSEC;
END-ISO-10303-21;
