ISO-10303-21;
HEADER;
FILE_DESCRIPTION(('STEP AP214'),'1');
FILE_NAME(' ','  ',('TraceParts'),('TraceParts S.A.'),'XStep 1.0',' ',' ');
FILE_SCHEMA(('automotive_design'));
ENDSEC;
DATA;
#1=MECHANICAL_DESIGN_GEOMETRIC_PRESENTATION_REPRESENTATION(' ',(#10,#11,#12,#13,#14,#15,#16,#17,#18,#19,#20,#21,#22,#23,#24,#25,#26,#27,#28,#29,#30,#31,#32,#33,#34,#35,#36,#37,#38,#39,#40,#41,#42,#43,#44),#6);
#2=PRODUCT_DEFINITION_CONTEXT('',#45,'design');
#3=APPLICATION_PROTOCOL_DEFINITION('INTERNATIONAL STANDARD','automotive_design',1994,#45);
#4=PRODUCT_CATEGORY_RELATIONSHIP('NONE','NONE',#46,#47);
#5=SHAPE_DEFINITION_REPRESENTATION(#48,#49);
#6= (GEOMETRIC_REPRESENTATION_CONTEXT(3)GLOBAL_UNCERTAINTY_ASSIGNED_CONTEXT((#52))GLOBAL_UNIT_ASSIGNED_CONTEXT((#54,#55,#56))REPRESENTATION_CONTEXT('NONE','WORKSPACE'));
#10=STYLED_ITEM('',(#58),#59);
#11=STYLED_ITEM('',(#60),#61);
#12=STYLED_ITEM('',(#62),#63);
#13=STYLED_ITEM('',(#64),#65);
#14=STYLED_ITEM('',(#66),#67);
#15=STYLED_ITEM('',(#68),#69);
#16=STYLED_ITEM('',(#70),#71);
#17=STYLED_ITEM('',(#72),#73);
#18=STYLED_ITEM('',(#74),#75);
#19=STYLED_ITEM('',(#76),#77);
#20=STYLED_ITEM('',(#78),#79);
#21=STYLED_ITEM('',(#80),#81);
#22=STYLED_ITEM('',(#82),#83);
#23=STYLED_ITEM('',(#84),#85);
#24=STYLED_ITEM('',(#86),#87);
#25=STYLED_ITEM('',(#88),#89);
#26=STYLED_ITEM('',(#90),#91);
#27=STYLED_ITEM('',(#92),#93);
#28=STYLED_ITEM('',(#94),#95);
#29=STYLED_ITEM('',(#96),#97);
#30=STYLED_ITEM('',(#98),#99);
#31=STYLED_ITEM('',(#100),#101);
#32=STYLED_ITEM('',(#102),#103);
#33=STYLED_ITEM('',(#104),#105);
#34=STYLED_ITEM('',(#106),#107);
#35=STYLED_ITEM('',(#108),#109);
#36=STYLED_ITEM('',(#110),#111);
#37=STYLED_ITEM('',(#112),#113);
#38=STYLED_ITEM('',(#114),#115);
#39=STYLED_ITEM('',(#116),#117);
#40=STYLED_ITEM('',(#118),#119);
#41=STYLED_ITEM('',(#120),#121);
#42=STYLED_ITEM('',(#122),#123);
#43=STYLED_ITEM('',(#124),#125);
#44=STYLED_ITEM('',(#126),#127);
#45=APPLICATION_CONTEXT(' ');
#46=PRODUCT_CATEGORY('part','NONE');
#47=PRODUCT_RELATED_PRODUCT_CATEGORY('detail',' ',(#128));
#48=PRODUCT_DEFINITION_SHAPE('NONE','NONE',#129);
#49=ADVANCED_BREP_SHAPE_REPRESENTATION('1',(#99,#130),#6);
#52=UNCERTAINTY_MEASURE_WITH_UNIT(LENGTH_MEASURE(1.0E-006),#54,'','');
#54= (CONVERSION_BASED_UNIT('MILLIMETRE',#133)LENGTH_UNIT()NAMED_UNIT(#136));
#55= (NAMED_UNIT(#138)PLANE_ANGLE_UNIT()SI_UNIT($,.RADIAN.));
#56= (NAMED_UNIT(#138)SOLID_ANGLE_UNIT()SI_UNIT($,.STERADIAN.));
#58=PRESENTATION_STYLE_ASSIGNMENT((#144));
#59=EDGE_CURVE('',#73,#65,#145,.T.);
#60=PRESENTATION_STYLE_ASSIGNMENT((#146));
#61=EDGE_CURVE('',#63,#91,#147,.T.);
#62=PRESENTATION_STYLE_ASSIGNMENT((#148));
#63=VERTEX_POINT('',#149);
#64=PRESENTATION_STYLE_ASSIGNMENT((#150));
#65=VERTEX_POINT('',#151);
#66=PRESENTATION_STYLE_ASSIGNMENT((#152));
#67=ADVANCED_FACE('',(#153),#154,.F.);
#68=PRESENTATION_STYLE_ASSIGNMENT((#155));
#69=EDGE_CURVE('',#89,#119,#156,.T.);
#70=PRESENTATION_STYLE_ASSIGNMENT((#157));
#71=EDGE_CURVE('',#121,#83,#158,.T.);
#72=PRESENTATION_STYLE_ASSIGNMENT((#159));
#73=VERTEX_POINT('',#160);
#74=PRESENTATION_STYLE_ASSIGNMENT((#161));
#75=EDGE_CURVE('',#63,#73,#162,.T.);
#76=PRESENTATION_STYLE_ASSIGNMENT((#163));
#77=EDGE_CURVE('',#91,#63,#164,.T.);
#78=PRESENTATION_STYLE_ASSIGNMENT((#165));
#79=ADVANCED_FACE('',(#166),#167,.T.);
#80=PRESENTATION_STYLE_ASSIGNMENT((#168));
#81=EDGE_CURVE('',#65,#91,#169,.T.);
#82=PRESENTATION_STYLE_ASSIGNMENT((#170));
#83=VERTEX_POINT('',#171);
#84=PRESENTATION_STYLE_ASSIGNMENT((#172));
#85=EDGE_CURVE('',#65,#73,#173,.T.);
#86=PRESENTATION_STYLE_ASSIGNMENT((#174));
#87=EDGE_CURVE('',#93,#125,#175,.T.);
#88=PRESENTATION_STYLE_ASSIGNMENT((#176));
#89=VERTEX_POINT('',#177);
#90=PRESENTATION_STYLE_ASSIGNMENT((#178));
#91=VERTEX_POINT('',#179);
#92=PRESENTATION_STYLE_ASSIGNMENT((#180));
#93=VERTEX_POINT('',#181);
#94=PRESENTATION_STYLE_ASSIGNMENT((#182));
#95=EDGE_CURVE('',#125,#93,#183,.T.);
#96=PRESENTATION_STYLE_ASSIGNMENT((#184));
#97=EDGE_CURVE('',#89,#83,#185,.T.);
#98=PRESENTATION_STYLE_ASSIGNMENT((#186));
#99=MANIFOLD_SOLID_BREP('1',#187);
#100=PRESENTATION_STYLE_ASSIGNMENT((#188));
#101=EDGE_CURVE('',#93,#65,#189,.T.);
#102=PRESENTATION_STYLE_ASSIGNMENT((#190));
#103=ADVANCED_FACE('',(#191),#192,.F.);
#104=PRESENTATION_STYLE_ASSIGNMENT((#193));
#105=ADVANCED_FACE('',(#194),#195,.T.);
#106=PRESENTATION_STYLE_ASSIGNMENT((#196));
#107=EDGE_CURVE('',#121,#119,#197,.T.);
#108=PRESENTATION_STYLE_ASSIGNMENT((#198));
#109=ADVANCED_FACE('',(#199),#200,.F.);
#110=PRESENTATION_STYLE_ASSIGNMENT((#201));
#111=EDGE_CURVE('',#83,#89,#202,.T.);
#112=PRESENTATION_STYLE_ASSIGNMENT((#203));
#113=ADVANCED_FACE('',(#204,#205),#206,.T.);
#114=PRESENTATION_STYLE_ASSIGNMENT((#207));
#115=EDGE_CURVE('',#119,#121,#208,.T.);
#116=PRESENTATION_STYLE_ASSIGNMENT((#209));
#117=ADVANCED_FACE('',(#210,#211),#212,.T.);
#118=PRESENTATION_STYLE_ASSIGNMENT((#213));
#119=VERTEX_POINT('',#214);
#120=PRESENTATION_STYLE_ASSIGNMENT((#215));
#121=VERTEX_POINT('',#216);
#122=PRESENTATION_STYLE_ASSIGNMENT((#217));
#123=ADVANCED_FACE('',(#218),#219,.F.);
#124=PRESENTATION_STYLE_ASSIGNMENT((#220));
#125=VERTEX_POINT('',#221);
#126=PRESENTATION_STYLE_ASSIGNMENT((#222));
#127=EDGE_CURVE('',#73,#125,#223,.T.);
#128=PRODUCT('1','1','PART-1-DESC',(#224));
#129=PRODUCT_DEFINITION('NONE','NONE',#225,#2);
#130=AXIS2_PLACEMENT_3D('',#226,#227,#228);
#133=LENGTH_MEASURE_WITH_UNIT(LENGTH_MEASURE(1.0),#229);
#136=DIMENSIONAL_EXPONENTS(1.0,0.0,0.0,0.0,0.0,0.0,0.0);
#138=DIMENSIONAL_EXPONENTS(0.0,0.0,0.0,0.0,0.0,0.0,0.0);
#144=CURVE_STYLE('',#230,POSITIVE_LENGTH_MEASURE(1.0E-006),#231);
#145=CIRCLE('',#232,3.55000000000001);
#146=CURVE_STYLE('',#233,POSITIVE_LENGTH_MEASURE(1.0E-006),#234);
#147=CIRCLE('',#235,5.5);
#148=POINT_STYLE(' ',#236,POSITIVE_LENGTH_MEASURE(1.0E-006),#237);
#149=CARTESIAN_POINT('',(-5.5,1.12748763827178E-014,3.99999999999997));
#150=POINT_STYLE(' ',#238,POSITIVE_LENGTH_MEASURE(1.0E-006),#239);
#151=CARTESIAN_POINT('',(3.55000000000001,1.30625851963253E-014,2.87416697508021));
#152=SURFACE_STYLE_USAGE(.BOTH.,#240);
#153=FACE_OUTER_BOUND('',#241,.T.);
#154=CYLINDRICAL_SURFACE('',#242,3.55000000000001);
#155=CURVE_STYLE('',#243,POSITIVE_LENGTH_MEASURE(1.0E-006),#244);
#156=LINE('',#245,#246);
#157=CURVE_STYLE('',#247,POSITIVE_LENGTH_MEASURE(1.0E-006),#248);
#158=LINE('',#249,#250);
#159=POINT_STYLE(' ',#251,POSITIVE_LENGTH_MEASURE(1.0E-006),#252);
#160=CARTESIAN_POINT('',(-3.55000000000001,1.14447395079301E-014,2.87416697508021));
#161=CURVE_STYLE('',#253,POSITIVE_LENGTH_MEASURE(1.0E-006),#254);
#162=LINE('',#255,#256);
#163=CURVE_STYLE('',#257,POSITIVE_LENGTH_MEASURE(1.0E-006),#258);
#164=CIRCLE('',#259,5.5);
#165=SURFACE_STYLE_USAGE(.BOTH.,#260);
#166=FACE_OUTER_BOUND('',#261,.T.);
#167=CYLINDRICAL_SURFACE('',#262,8.5);
#168=CURVE_STYLE('',#263,POSITIVE_LENGTH_MEASURE(1.0E-006),#264);
#169=LINE('',#265,#266);
#170=POINT_STYLE(' ',#267,POSITIVE_LENGTH_MEASURE(1.0E-006),#268);
#171=CARTESIAN_POINT('',(8.5,1.4616153598882E-014,3.99999999999997));
#172=CURVE_STYLE('',#269,POSITIVE_LENGTH_MEASURE(1.0E-006),#270);
#173=CIRCLE('',#271,3.55000000000001);
#174=CURVE_STYLE('',#272,POSITIVE_LENGTH_MEASURE(1.0E-006),#273);
#175=CIRCLE('',#274,3.55000000000001);
#176=POINT_STYLE(' ',#275,POSITIVE_LENGTH_MEASURE(1.0E-006),#276);
#177=CARTESIAN_POINT('',(-8.5,1.0907494476571E-014,3.99999999999997));
#178=POINT_STYLE(' ',#277,POSITIVE_LENGTH_MEASURE(1.0E-006),#278);
#179=CARTESIAN_POINT('',(5.5,1.36745969912719E-014,3.99999999999997));
#180=POINT_STYLE(' ',#279,POSITIVE_LENGTH_MEASURE(1.0E-006),#280);
#181=CARTESIAN_POINT('',(3.55000000000001,1.30625851963253E-014,-2.8421709430404E-014));
#182=CURVE_STYLE('',#281,POSITIVE_LENGTH_MEASURE(1.0E-006),#282);
#183=CIRCLE('',#283,3.55000000000001);
#184=CURVE_STYLE('',#284,POSITIVE_LENGTH_MEASURE(1.0E-006),#285);
#185=CIRCLE('',#286,8.5);
#186=SURFACE_STYLE_USAGE(.BOTH.,#287);
#187=CLOSED_SHELL('',(#123,#79,#103,#109,#117,#105,#113,#67));
#188=CURVE_STYLE('',#288,POSITIVE_LENGTH_MEASURE(1.0E-006),#289);
#189=LINE('',#290,#291);
#190=SURFACE_STYLE_USAGE(.BOTH.,#292);
#191=FACE_OUTER_BOUND('',#293,.T.);
#192=CONICAL_SURFACE('',#294,4.52500000000001,1.0471975511966);
#193=SURFACE_STYLE_USAGE(.BOTH.,#295);
#194=FACE_OUTER_BOUND('',#296,.T.);
#195=CYLINDRICAL_SURFACE('',#297,8.5);
#196=CURVE_STYLE('',#298,POSITIVE_LENGTH_MEASURE(1.0E-006),#299);
#197=CIRCLE('',#300,8.5);
#198=SURFACE_STYLE_USAGE(.BOTH.,#301);
#199=FACE_OUTER_BOUND('',#302,.T.);
#200=CONICAL_SURFACE('',#303,4.52500000000001,1.0471975511966);
#201=CURVE_STYLE('',#304,POSITIVE_LENGTH_MEASURE(1.0E-006),#305);
#202=CIRCLE('',#306,8.5);
#203=SURFACE_STYLE_USAGE(.BOTH.,#307);
#204=FACE_BOUND('',#308,.T.);
#205=FACE_OUTER_BOUND('',#309,.T.);
#206=PLANE('',#310);
#207=CURVE_STYLE('',#311,POSITIVE_LENGTH_MEASURE(1.0E-006),#312);
#208=CIRCLE('',#313,8.5);
#209=SURFACE_STYLE_USAGE(.BOTH.,#314);
#210=FACE_OUTER_BOUND('',#315,.T.);
#211=FACE_BOUND('',#316,.T.);
#212=PLANE('',#317);
#213=POINT_STYLE(' ',#318,POSITIVE_LENGTH_MEASURE(1.0E-006),#319);
#214=CARTESIAN_POINT('',(-8.5,1.06625732058066E-014,-2.8421709430404E-014));
#215=POINT_STYLE(' ',#320,POSITIVE_LENGTH_MEASURE(1.0E-006),#321);
#216=CARTESIAN_POINT('',(8.5,1.4616153598882E-014,-2.8421709430404E-014));
#217=SURFACE_STYLE_USAGE(.BOTH.,#322);
#218=FACE_OUTER_BOUND('',#323,.T.);
#219=CYLINDRICAL_SURFACE('',#324,3.55000000000001);
#220=POINT_STYLE(' ',#325,POSITIVE_LENGTH_MEASURE(1.0E-006),#326);
#221=CARTESIAN_POINT('',(-3.55000000000001,1.12687533509486E-014,-2.8421709430404E-014));
#222=CURVE_STYLE('',#327,POSITIVE_LENGTH_MEASURE(1.0E-006),#328);
#223=LINE('',#329,#330);
#224=PRODUCT_CONTEXT('',#45,'mechanical');
#225=PRODUCT_DEFINITION_FORMATION_WITH_SPECIFIED_SOURCE(' ','NONE',#128,.NOT_KNOWN.);
#226=CARTESIAN_POINT('',(0.0,0.0,0.0));
#227=DIRECTION('',(0.0,0.0,1.0));
#228=DIRECTION('',(1.0,0.0,0.0));
#229= (NAMED_UNIT(#136)LENGTH_UNIT()SI_UNIT(.MILLI.,.METRE.));
#230=DRAUGHTING_PRE_DEFINED_CURVE_FONT('continuous');
#231=COLOUR_RGB('',0.509803950786591,0.509803950786591,0.588235318660736);
#232=AXIS2_PLACEMENT_3D('',#332,#333,#334);
#233=DRAUGHTING_PRE_DEFINED_CURVE_FONT('continuous');
#234=COLOUR_RGB('',0.509803950786591,0.509803950786591,0.588235318660736);
#235=AXIS2_PLACEMENT_3D('',#335,#336,#337);
#236=PRE_DEFINED_MARKER('');
#237=COLOUR_RGB('',0.509803950786591,0.509803950786591,0.588235318660736);
#238=PRE_DEFINED_MARKER('');
#239=COLOUR_RGB('',0.509803950786591,0.509803950786591,0.588235318660736);
#240=SURFACE_SIDE_STYLE('',(#338));
#241=EDGE_LOOP('',(#339,#340,#341,#342));
#242=AXIS2_PLACEMENT_3D('',#343,#344,#345);
#243=DRAUGHTING_PRE_DEFINED_CURVE_FONT('continuous');
#244=COLOUR_RGB('',0.509803950786591,0.509803950786591,0.588235318660736);
#245=CARTESIAN_POINT('',(-8.5,9.28066615575814E-015,1.99999999999997));
#246=VECTOR('',#346,1.0);
#247=DRAUGHTING_PRE_DEFINED_CURVE_FONT('continuous');
#248=COLOUR_RGB('',0.509803950786591,0.509803950786591,0.588235318660736);
#249=CARTESIAN_POINT('',(8.5,1.4616153598882E-014,1.99999999999997));
#250=VECTOR('',#347,1.0);
#251=PRE_DEFINED_MARKER('');
#252=COLOUR_RGB('',0.509803950786591,0.509803950786591,0.588235318660736);
#253=DRAUGHTING_PRE_DEFINED_CURVE_FONT('continuous');
#254=COLOUR_RGB('',0.509803950786591,0.509803950786591,0.588235318660736);
#255=CARTESIAN_POINT('',(-4.52500000000001,1.05282286608415E-014,3.43708348754009));
#256=VECTOR('',#348,1.0);
#257=DRAUGHTING_PRE_DEFINED_CURVE_FONT('continuous');
#258=COLOUR_RGB('',0.509803950786591,0.509803950786591,0.588235318660736);
#259=AXIS2_PLACEMENT_3D('',#349,#350,#351);
#260=SURFACE_SIDE_STYLE('',(#352));
#261=EDGE_LOOP('',(#353,#354,#355,#356));
#262=AXIS2_PLACEMENT_3D('',#357,#358,#359);
#263=DRAUGHTING_PRE_DEFINED_CURVE_FONT('continuous');
#264=COLOUR_RGB('',0.509803950786591,0.509803950786591,0.588235318660736);
#265=CARTESIAN_POINT('',(4.52500000000001,1.33685910937986E-014,3.43708348754009));
#266=VECTOR('',#360,1.0);
#267=PRE_DEFINED_MARKER('');
#268=COLOUR_RGB('',0.509803950786591,0.509803950786591,0.588235318660736);
#269=DRAUGHTING_PRE_DEFINED_CURVE_FONT('continuous');
#270=COLOUR_RGB('',0.509803950786591,0.509803950786591,0.588235318660736);
#271=AXIS2_PLACEMENT_3D('',#361,#362,#363);
#272=DRAUGHTING_PRE_DEFINED_CURVE_FONT('continuous');
#273=COLOUR_RGB('',0.509803950786591,0.509803950786591,0.588235318660736);
#274=AXIS2_PLACEMENT_3D('',#364,#365,#366);
#275=PRE_DEFINED_MARKER('');
#276=COLOUR_RGB('',0.509803950786591,0.509803950786591,0.588235318660736);
#277=PRE_DEFINED_MARKER('');
#278=COLOUR_RGB('',0.509803950786591,0.509803950786591,0.588235318660736);
#279=PRE_DEFINED_MARKER('');
#280=COLOUR_RGB('',0.509803950786591,0.509803950786591,0.588235318660736);
#281=DRAUGHTING_PRE_DEFINED_CURVE_FONT('continuous');
#282=COLOUR_RGB('',0.509803950786591,0.509803950786591,0.588235318660736);
#283=AXIS2_PLACEMENT_3D('',#367,#368,#369);
#284=DRAUGHTING_PRE_DEFINED_CURVE_FONT('continuous');
#285=COLOUR_RGB('',0.509803950786591,0.509803950786591,0.588235318660736);
#286=AXIS2_PLACEMENT_3D('',#370,#371,#372);
#287=SURFACE_SIDE_STYLE('',(#373));
#288=DRAUGHTING_PRE_DEFINED_CURVE_FONT('continuous');
#289=COLOUR_RGB('',0.509803950786591,0.509803950786591,0.588235318660736);
#290=CARTESIAN_POINT('',(3.55000000000001,1.30625851963253E-014,1.43708348754009));
#291=VECTOR('',#374,1.0);
#292=SURFACE_SIDE_STYLE('',(#375));
#293=EDGE_LOOP('',(#376,#377,#378,#379));
#294=AXIS2_PLACEMENT_3D('',#380,#381,#382);
#295=SURFACE_SIDE_STYLE('',(#383));
#296=EDGE_LOOP('',(#384,#385,#386,#387));
#297=AXIS2_PLACEMENT_3D('',#388,#389,#390);
#298=DRAUGHTING_PRE_DEFINED_CURVE_FONT('continuous');
#299=COLOUR_RGB('',0.509803950786591,0.509803950786591,0.588235318660736);
#300=AXIS2_PLACEMENT_3D('',#391,#392,#393);
#301=SURFACE_SIDE_STYLE('',(#394));
#302=EDGE_LOOP('',(#395,#396,#397,#398));
#303=AXIS2_PLACEMENT_3D('',#399,#400,#401);
#304=DRAUGHTING_PRE_DEFINED_CURVE_FONT('continuous');
#305=COLOUR_RGB('',0.509803950786591,0.509803950786591,0.588235318660736);
#306=AXIS2_PLACEMENT_3D('',#402,#403,#404);
#307=SURFACE_SIDE_STYLE('',(#405));
#308=EDGE_LOOP('',(#406,#407));
#309=EDGE_LOOP('',(#408,#409));
#310=AXIS2_PLACEMENT_3D('',#410,#411,#412);
#311=DRAUGHTING_PRE_DEFINED_CURVE_FONT('continuous');
#312=COLOUR_RGB('',0.509803950786591,0.509803950786591,0.588235318660736);
#313=AXIS2_PLACEMENT_3D('',#413,#414,#415);
#314=SURFACE_SIDE_STYLE('',(#416));
#315=EDGE_LOOP('',(#417,#418));
#316=EDGE_LOOP('',(#419,#420));
#317=AXIS2_PLACEMENT_3D('',#421,#422,#423);
#318=PRE_DEFINED_MARKER('');
#319=COLOUR_RGB('',0.509803950786591,0.509803950786591,0.588235318660736);
#320=PRE_DEFINED_MARKER('');
#321=COLOUR_RGB('',0.509803950786591,0.509803950786591,0.588235318660736);
#322=SURFACE_SIDE_STYLE('',(#424));
#323=EDGE_LOOP('',(#425,#426,#427,#428));
#324=AXIS2_PLACEMENT_3D('',#429,#430,#431);
#325=PRE_DEFINED_MARKER('');
#326=COLOUR_RGB('',0.509803950786591,0.509803950786591,0.588235318660736);
#327=DRAUGHTING_PRE_DEFINED_CURVE_FONT('continuous');
#328=COLOUR_RGB('',0.509803950786591,0.509803950786591,0.588235318660736);
#329=CARTESIAN_POINT('',(-3.55000000000001,1.08342345583148E-014,1.43708348754009));
#330=VECTOR('',#432,1.0);
#332=CARTESIAN_POINT('',(0.0,1.19484098773201E-014,2.87416697508021));
#333=DIRECTION('',(-0.0,0.0,-1.0));
#334=DIRECTION('',(-1.0,-1.9139156715446E-016,0.0));
#335=CARTESIAN_POINT('',(0.0,1.19484098773201E-014,3.99999999999997));
#336=DIRECTION('',(-0.0,0.0,-1.0));
#337=DIRECTION('',(-1.0,-1.9139156715446E-016,0.0));
#338=SURFACE_STYLE_FILL_AREA(#433);
#339=ORIENTED_EDGE('',*,*,#127,.T.);
#340=ORIENTED_EDGE('',*,*,#95,.T.);
#341=ORIENTED_EDGE('',*,*,#101,.T.);
#342=ORIENTED_EDGE('',*,*,#59,.F.);
#343=CARTESIAN_POINT('',(0.0,1.19484098773201E-014,1.43708348754009));
#344=DIRECTION('',(0.0,-0.0,1.0));
#345=DIRECTION('',(-1.0,-1.9139156715446E-016,0.0));
#346=DIRECTION('',(0.0,0.0,-1.0));
#347=DIRECTION('',(-0.0,-0.0,1.0));
#348=DIRECTION('',(0.86602540378444,2.71803980430479E-016,-0.499999999999998));
#349=CARTESIAN_POINT('',(0.0,1.19484098773201E-014,3.99999999999997));
#350=DIRECTION('',(-0.0,0.0,-1.0));
#351=DIRECTION('',(-1.0,-1.9139156715446E-016,0.0));
#352=SURFACE_STYLE_FILL_AREA(#434);
#353=ORIENTED_EDGE('',*,*,#69,.F.);
#354=ORIENTED_EDGE('',*,*,#97,.T.);
#355=ORIENTED_EDGE('',*,*,#71,.F.);
#356=ORIENTED_EDGE('',*,*,#115,.F.);
#357=CARTESIAN_POINT('',(0.0,1.19484098773201E-014,1.99999999999997));
#358=DIRECTION('',(0.0,-0.0,1.0));
#359=DIRECTION('',(-1.0,-1.9139156715446E-016,0.0));
#360=DIRECTION('',(0.86602540378444,2.71803980430479E-016,0.499999999999998));
#361=CARTESIAN_POINT('',(0.0,1.19484098773201E-014,2.87416697508021));
#362=DIRECTION('',(-0.0,0.0,-1.0));
#363=DIRECTION('',(-1.0,-1.9139156715446E-016,0.0));
#364=CARTESIAN_POINT('',(0.0,1.19484098773201E-014,-2.8421709430404E-014));
#365=DIRECTION('',(-0.0,0.0,-1.0));
#366=DIRECTION('',(-1.0,-1.9139156715446E-016,0.0));
#367=CARTESIAN_POINT('',(0.0,1.19484098773201E-014,-2.8421709430404E-014));
#368=DIRECTION('',(-0.0,0.0,-1.0));
#369=DIRECTION('',(-1.0,-1.9139156715446E-016,0.0));
#370=CARTESIAN_POINT('',(0.0,1.19484098773201E-014,3.99999999999997));
#371=DIRECTION('',(-0.0,0.0,-1.0));
#372=DIRECTION('',(-1.0,-1.9139156715446E-016,0.0));
#373=SURFACE_STYLE_FILL_AREA(#435);
#374=DIRECTION('',(0.0,0.0,1.0));
#375=SURFACE_STYLE_FILL_AREA(#436);
#376=ORIENTED_EDGE('',*,*,#75,.F.);
#377=ORIENTED_EDGE('',*,*,#77,.F.);
#378=ORIENTED_EDGE('',*,*,#81,.F.);
#379=ORIENTED_EDGE('',*,*,#85,.T.);
#380=CARTESIAN_POINT('',(0.0,1.19484098773201E-014,3.43708348754009));
#381=DIRECTION('',(0.0,-0.0,1.0));
#382=DIRECTION('',(-1.0,-1.9139156715446E-016,0.0));
#383=SURFACE_STYLE_FILL_AREA(#437);
#384=ORIENTED_EDGE('',*,*,#69,.T.);
#385=ORIENTED_EDGE('',*,*,#107,.F.);
#386=ORIENTED_EDGE('',*,*,#71,.T.);
#387=ORIENTED_EDGE('',*,*,#111,.T.);
#388=CARTESIAN_POINT('',(0.0,1.19484098773201E-014,1.99999999999997));
#389=DIRECTION('',(0.0,-0.0,1.0));
#390=DIRECTION('',(-1.0,-1.9139156715446E-016,0.0));
#391=CARTESIAN_POINT('',(0.0,1.19484098773201E-014,-2.8421709430404E-014));
#392=DIRECTION('',(-0.0,0.0,-1.0));
#393=DIRECTION('',(-1.0,-1.9139156715446E-016,0.0));
#394=SURFACE_STYLE_FILL_AREA(#438);
#395=ORIENTED_EDGE('',*,*,#75,.T.);
#396=ORIENTED_EDGE('',*,*,#59,.T.);
#397=ORIENTED_EDGE('',*,*,#81,.T.);
#398=ORIENTED_EDGE('',*,*,#61,.F.);
#399=CARTESIAN_POINT('',(0.0,1.19484098773201E-014,3.43708348754009));
#400=DIRECTION('',(0.0,-0.0,1.0));
#401=DIRECTION('',(-1.0,-1.9139156715446E-016,0.0));
#402=CARTESIAN_POINT('',(0.0,1.19484098773201E-014,3.99999999999997));
#403=DIRECTION('',(-0.0,0.0,-1.0));
#404=DIRECTION('',(-1.0,-1.9139156715446E-016,0.0));
#405=SURFACE_STYLE_FILL_AREA(#439);
#406=ORIENTED_EDGE('',*,*,#95,.F.);
#407=ORIENTED_EDGE('',*,*,#87,.F.);
#408=ORIENTED_EDGE('',*,*,#115,.T.);
#409=ORIENTED_EDGE('',*,*,#107,.T.);
#410=CARTESIAN_POINT('',(-6.02500000000001,1.09656632783776E-014,-2.8421709430404E-014));
#411=DIRECTION('',(0.0,0.0,-1.0));
#412=DIRECTION('',(1.0,1.22460635382238E-016,0.0));
#413=CARTESIAN_POINT('',(0.0,1.19484098773201E-014,-2.8421709430404E-014));
#414=DIRECTION('',(-0.0,0.0,-1.0));
#415=DIRECTION('',(-1.0,-1.9139156715446E-016,0.0));
#416=SURFACE_STYLE_FILL_AREA(#440);
#417=ORIENTED_EDGE('',*,*,#97,.F.);
#418=ORIENTED_EDGE('',*,*,#111,.F.);
#419=ORIENTED_EDGE('',*,*,#61,.T.);
#420=ORIENTED_EDGE('',*,*,#77,.T.);
#421=CARTESIAN_POINT('',(-7.0,1.10911854296444E-014,3.99999999999997));
#422=DIRECTION('',(0.0,0.0,1.0));
#423=DIRECTION('',(-1.0,-1.22460635382238E-016,0.0));
#424=SURFACE_STYLE_FILL_AREA(#441);
#425=ORIENTED_EDGE('',*,*,#127,.F.);
#426=ORIENTED_EDGE('',*,*,#85,.F.);
#427=ORIENTED_EDGE('',*,*,#101,.F.);
#428=ORIENTED_EDGE('',*,*,#87,.T.);
#429=CARTESIAN_POINT('',(0.0,1.19484098773201E-014,1.43708348754009));
#430=DIRECTION('',(0.0,-0.0,1.0));
#431=DIRECTION('',(-1.0,-1.9139156715446E-016,0.0));
#432=DIRECTION('',(0.0,0.0,-1.0));
#433=FILL_AREA_STYLE('',(#442));
#434=FILL_AREA_STYLE('',(#443));
#435=FILL_AREA_STYLE('',(#444));
#436=FILL_AREA_STYLE('',(#445));
#437=FILL_AREA_STYLE('',(#446));
#438=FILL_AREA_STYLE('',(#447));
#439=FILL_AREA_STYLE('',(#448));
#440=FILL_AREA_STYLE('',(#449));
#441=FILL_AREA_STYLE('',(#450));
#442=FILL_AREA_STYLE_COLOUR('',#451);
#443=FILL_AREA_STYLE_COLOUR('',#452);
#444=FILL_AREA_STYLE_COLOUR('',#453);
#445=FILL_AREA_STYLE_COLOUR('',#454);
#446=FILL_AREA_STYLE_COLOUR('',#455);
#447=FILL_AREA_STYLE_COLOUR('',#456);
#448=FILL_AREA_STYLE_COLOUR('',#457);
#449=FILL_AREA_STYLE_COLOUR('',#458);
#450=FILL_AREA_STYLE_COLOUR('',#459);
#451=COLOUR_RGB('',0.509803950786591,0.509803950786591,0.588235318660736);
#452=COLOUR_RGB('',0.509803950786591,0.509803950786591,0.588235318660736);
#453=COLOUR_RGB('',0.509803950786591,0.509803950786591,0.588235318660736);
#454=COLOUR_RGB('',0.509803950786591,0.509803950786591,0.588235318660736);
#455=COLOUR_RGB('',0.509803950786591,0.509803950786591,0.588235318660736);
#456=COLOUR_RGB('',0.509803950786591,0.509803950786591,0.588235318660736);
#457=COLOUR_RGB('',0.509803950786591,0.509803950786591,0.588235318660736);
#458=COLOUR_RGB('',0.509803950786591,0.509803950786591,0.588235318660736);
#459=COLOUR_RGB('',0.509803950786591,0.509803950786591,0.588235318660736);
ENDSEC;
END-ISO-10303-21;
