ISO-10303-21;
HEADER;
FILE_DESCRIPTION(('STEP AP214'),'1');
FILE_NAME(' ','  ',('TraceParts'),('TraceParts S.A.'),'XStep 1.0',' ',' ');
FILE_SCHEMA(('automotive_design'));
ENDSEC;
DATA;
#1=MECHANICAL_DESIGN_GEOMETRIC_PRESENTATION_REPRESENTATION(' ',(#10,#11,#12,#13,#14,#15,#16,#17,#18,#19,#20,#21,#22,#23,#24,#25,#26,#27,#28,#29,#30,#31,#32,#33,#34,#35,#36,#37,#38,#39,#40,#41,#42,#43,#44),#6);
#2=PRODUCT_DEFINITION_CONTEXT('',#45,'design');
#3=APPLICATION_PROTOCOL_DEFINITION('INTERNATIONAL STANDARD','automotive_design',1994,#45);
#4=PRODUCT_CATEGORY_RELATIONSHIP('NONE','NONE',#46,#47);
#5=SHAPE_DEFINITION_REPRESENTATION(#48,#49);
#6= (GEOMETRIC_REPRESENTATION_CONTEXT(3)GLOBAL_UNCERTAINTY_ASSIGNED_CONTEXT((#52))GLOBAL_UNIT_ASSIGNED_CONTEXT((#54,#55,#56))REPRESENTATION_CONTEXT('NONE','WORKSPACE'));
#10=STYLED_ITEM('',(#58),#59);
#11=STYLED_ITEM('',(#60),#61);
#12=STYLED_ITEM('',(#62),#63);
#13=STYLED_ITEM('',(#64),#65);
#14=STYLED_ITEM('',(#66),#67);
#15=STYLED_ITEM('',(#68),#69);
#16=STYLED_ITEM('',(#70),#71);
#17=STYLED_ITEM('',(#72),#73);
#18=STYLED_ITEM('',(#74),#75);
#19=STYLED_ITEM('',(#76),#77);
#20=STYLED_ITEM('',(#78),#79);
#21=STYLED_ITEM('',(#80),#81);
#22=STYLED_ITEM('',(#82),#83);
#23=STYLED_ITEM('',(#84),#85);
#24=STYLED_ITEM('',(#86),#87);
#25=STYLED_ITEM('',(#88),#89);
#26=STYLED_ITEM('',(#90),#91);
#27=STYLED_ITEM('',(#92),#93);
#28=STYLED_ITEM('',(#94),#95);
#29=STYLED_ITEM('',(#96),#97);
#30=STYLED_ITEM('',(#98),#99);
#31=STYLED_ITEM('',(#100),#101);
#32=STYLED_ITEM('',(#102),#103);
#33=STYLED_ITEM('',(#104),#105);
#34=STYLED_ITEM('',(#106),#107);
#35=STYLED_ITEM('',(#108),#109);
#36=STYLED_ITEM('',(#110),#111);
#37=STYLED_ITEM('',(#112),#113);
#38=STYLED_ITEM('',(#114),#115);
#39=STYLED_ITEM('',(#116),#117);
#40=STYLED_ITEM('',(#118),#119);
#41=STYLED_ITEM('',(#120),#121);
#42=STYLED_ITEM('',(#122),#123);
#43=STYLED_ITEM('',(#124),#125);
#44=STYLED_ITEM('',(#126),#127);
#45=APPLICATION_CONTEXT(' ');
#46=PRODUCT_CATEGORY('part','NONE');
#47=PRODUCT_RELATED_PRODUCT_CATEGORY('detail',' ',(#128));
#48=PRODUCT_DEFINITION_SHAPE('NONE','NONE',#129);
#49=ADVANCED_BREP_SHAPE_REPRESENTATION('1',(#61,#130),#6);
#52=UNCERTAINTY_MEASURE_WITH_UNIT(LENGTH_MEASURE(1.0E-006),#54,'','');
#54= (CONVERSION_BASED_UNIT('MILLIMETRE',#133)LENGTH_UNIT()NAMED_UNIT(#136));
#55= (NAMED_UNIT(#138)PLANE_ANGLE_UNIT()SI_UNIT($,.RADIAN.));
#56= (NAMED_UNIT(#138)SOLID_ANGLE_UNIT()SI_UNIT($,.STERADIAN.));
#58=PRESENTATION_STYLE_ASSIGNMENT((#144));
#59=EDGE_CURVE('',#111,#113,#145,.T.);
#60=PRESENTATION_STYLE_ASSIGNMENT((#146));
#61=MANIFOLD_SOLID_BREP('1',#147);
#62=PRESENTATION_STYLE_ASSIGNMENT((#148));
#63=EDGE_CURVE('',#73,#101,#149,.T.);
#64=PRESENTATION_STYLE_ASSIGNMENT((#150));
#65=ADVANCED_FACE('',(#151,#152),#153,.T.);
#66=PRESENTATION_STYLE_ASSIGNMENT((#154));
#67=ADVANCED_FACE('',(#155),#156,.F.);
#68=PRESENTATION_STYLE_ASSIGNMENT((#157));
#69=EDGE_CURVE('',#87,#89,#158,.T.);
#70=PRESENTATION_STYLE_ASSIGNMENT((#159));
#71=VERTEX_POINT('',#160);
#72=PRESENTATION_STYLE_ASSIGNMENT((#161));
#73=VERTEX_POINT('',#162);
#74=PRESENTATION_STYLE_ASSIGNMENT((#163));
#75=EDGE_CURVE('',#89,#101,#164,.T.);
#76=PRESENTATION_STYLE_ASSIGNMENT((#165));
#77=ADVANCED_FACE('',(#166),#167,.T.);
#78=PRESENTATION_STYLE_ASSIGNMENT((#168));
#79=EDGE_CURVE('',#113,#71,#169,.T.);
#80=PRESENTATION_STYLE_ASSIGNMENT((#170));
#81=EDGE_CURVE('',#99,#109,#171,.T.);
#82=PRESENTATION_STYLE_ASSIGNMENT((#172));
#83=ADVANCED_FACE('',(#173),#174,.T.);
#84=PRESENTATION_STYLE_ASSIGNMENT((#175));
#85=EDGE_CURVE('',#127,#71,#176,.T.);
#86=PRESENTATION_STYLE_ASSIGNMENT((#177));
#87=VERTEX_POINT('',#178);
#88=PRESENTATION_STYLE_ASSIGNMENT((#179));
#89=VERTEX_POINT('',#180);
#90=PRESENTATION_STYLE_ASSIGNMENT((#181));
#91=EDGE_CURVE('',#71,#109,#182,.T.);
#92=PRESENTATION_STYLE_ASSIGNMENT((#183));
#93=ADVANCED_FACE('',(#184),#185,.F.);
#94=PRESENTATION_STYLE_ASSIGNMENT((#186));
#95=EDGE_CURVE('',#71,#127,#187,.T.);
#96=PRESENTATION_STYLE_ASSIGNMENT((#188));
#97=ADVANCED_FACE('',(#189),#190,.F.);
#98=PRESENTATION_STYLE_ASSIGNMENT((#191));
#99=VERTEX_POINT('',#192);
#100=PRESENTATION_STYLE_ASSIGNMENT((#193));
#101=VERTEX_POINT('',#194);
#102=PRESENTATION_STYLE_ASSIGNMENT((#195));
#103=EDGE_CURVE('',#109,#99,#196,.T.);
#104=PRESENTATION_STYLE_ASSIGNMENT((#197));
#105=ADVANCED_FACE('',(#198),#199,.F.);
#106=PRESENTATION_STYLE_ASSIGNMENT((#200));
#107=EDGE_CURVE('',#101,#73,#201,.T.);
#108=PRESENTATION_STYLE_ASSIGNMENT((#202));
#109=VERTEX_POINT('',#203);
#110=PRESENTATION_STYLE_ASSIGNMENT((#204));
#111=VERTEX_POINT('',#205);
#112=PRESENTATION_STYLE_ASSIGNMENT((#206));
#113=VERTEX_POINT('',#207);
#114=PRESENTATION_STYLE_ASSIGNMENT((#208));
#115=EDGE_CURVE('',#89,#87,#209,.T.);
#116=PRESENTATION_STYLE_ASSIGNMENT((#210));
#117=ADVANCED_FACE('',(#211,#212),#213,.T.);
#118=PRESENTATION_STYLE_ASSIGNMENT((#214));
#119=EDGE_CURVE('',#127,#111,#215,.T.);
#120=PRESENTATION_STYLE_ASSIGNMENT((#216));
#121=EDGE_CURVE('',#113,#111,#217,.T.);
#122=PRESENTATION_STYLE_ASSIGNMENT((#218));
#123=EDGE_CURVE('',#73,#87,#219,.T.);
#124=PRESENTATION_STYLE_ASSIGNMENT((#220));
#125=EDGE_CURVE('',#99,#127,#221,.T.);
#126=PRESENTATION_STYLE_ASSIGNMENT((#222));
#127=VERTEX_POINT('',#223);
#128=PRODUCT('1','1','PART-1-DESC',(#224));
#129=PRODUCT_DEFINITION('NONE','NONE',#225,#2);
#130=AXIS2_PLACEMENT_3D('',#226,#227,#228);
#133=LENGTH_MEASURE_WITH_UNIT(LENGTH_MEASURE(1.0),#229);
#136=DIMENSIONAL_EXPONENTS(1.0,0.0,0.0,0.0,0.0,0.0,0.0);
#138=DIMENSIONAL_EXPONENTS(0.0,0.0,0.0,0.0,0.0,0.0,0.0);
#144=CURVE_STYLE('',#230,POSITIVE_LENGTH_MEASURE(1.0E-006),#231);
#145=CIRCLE('',#232,28.0);
#146=SURFACE_STYLE_USAGE(.BOTH.,#233);
#147=CLOSED_SHELL('',(#67,#83,#97,#105,#117,#77,#65,#93));
#148=CURVE_STYLE('',#234,POSITIVE_LENGTH_MEASURE(1.0E-006),#235);
#149=CIRCLE('',#236,46.0);
#150=SURFACE_STYLE_USAGE(.BOTH.,#237);
#151=FACE_BOUND('',#238,.T.);
#152=FACE_OUTER_BOUND('',#239,.T.);
#153=PLANE('',#240);
#154=SURFACE_STYLE_USAGE(.BOTH.,#241);
#155=FACE_OUTER_BOUND('',#242,.T.);
#156=CYLINDRICAL_SURFACE('',#243,28.0);
#157=CURVE_STYLE('',#244,POSITIVE_LENGTH_MEASURE(1.0E-006),#245);
#158=CIRCLE('',#246,46.0);
#159=POINT_STYLE(' ',#247,POSITIVE_LENGTH_MEASURE(1.0E-006),#248);
#160=CARTESIAN_POINT('',(28.0,2.16480220469818E-014,14.4944465005347));
#161=POINT_STYLE(' ',#249,POSITIVE_LENGTH_MEASURE(1.0E-006),#250);
#162=CARTESIAN_POINT('',(46.0,2.69218747980758E-014,-2.8421709430404E-014));
#163=CURVE_STYLE('',#251,POSITIVE_LENGTH_MEASURE(1.0E-006),#252);
#164=LINE('',#253,#254);
#165=SURFACE_STYLE_USAGE(.BOTH.,#255);
#166=FACE_OUTER_BOUND('',#256,.T.);
#167=CYLINDRICAL_SURFACE('',#257,46.0);
#168=CURVE_STYLE('',#258,POSITIVE_LENGTH_MEASURE(1.0E-006),#259);
#169=LINE('',#260,#261);
#170=CURVE_STYLE('',#262,POSITIVE_LENGTH_MEASURE(1.0E-006),#263);
#171=CIRCLE('',#264,41.0);
#172=SURFACE_STYLE_USAGE(.BOTH.,#265);
#173=FACE_OUTER_BOUND('',#266,.T.);
#174=CYLINDRICAL_SURFACE('',#267,46.0);
#175=CURVE_STYLE('',#268,POSITIVE_LENGTH_MEASURE(1.0E-006),#269);
#176=CIRCLE('',#270,28.0);
#177=POINT_STYLE(' ',#271,POSITIVE_LENGTH_MEASURE(1.0E-006),#272);
#178=CARTESIAN_POINT('',(46.0,2.69218747980758E-014,22.0));
#179=POINT_STYLE(' ',#273,POSITIVE_LENGTH_MEASURE(1.0E-006),#274);
#180=CARTESIAN_POINT('',(-46.0,7.81106187325266E-015,22.0));
#181=CURVE_STYLE('',#275,POSITIVE_LENGTH_MEASURE(1.0E-006),#276);
#182=LINE('',#277,#278);
#183=SURFACE_STYLE_USAGE(.BOTH.,#279);
#184=FACE_OUTER_BOUND('',#280,.T.);
#185=CYLINDRICAL_SURFACE('',#281,28.0);
#186=CURVE_STYLE('',#282,POSITIVE_LENGTH_MEASURE(1.0E-006),#283);
#187=CIRCLE('',#284,28.0);
#188=SURFACE_STYLE_USAGE(.BOTH.,#285);
#189=FACE_OUTER_BOUND('',#286,.T.);
#190=CONICAL_SURFACE('',#287,34.5,1.04719755119659);
#191=POINT_STYLE(' ',#288,POSITIVE_LENGTH_MEASURE(1.0E-006),#289);
#192=CARTESIAN_POINT('',(-41.0,8.42336505016385E-015,22.0));
#193=POINT_STYLE(' ',#290,POSITIVE_LENGTH_MEASURE(1.0E-006),#291);
#194=CARTESIAN_POINT('',(-46.0,6.46399488404805E-015,-2.8421709430404E-014));
#195=CURVE_STYLE('',#292,POSITIVE_LENGTH_MEASURE(1.0E-006),#293);
#196=CIRCLE('',#294,41.0);
#197=SURFACE_STYLE_USAGE(.BOTH.,#295);
#198=FACE_OUTER_BOUND('',#296,.T.);
#199=CONICAL_SURFACE('',#297,34.5,1.04719755119659);
#200=CURVE_STYLE('',#298,POSITIVE_LENGTH_MEASURE(1.0E-006),#299);
#201=CIRCLE('',#300,46.0);
#202=POINT_STYLE(' ',#301,POSITIVE_LENGTH_MEASURE(1.0E-006),#302);
#203=CARTESIAN_POINT('',(41.0,2.54569157005497E-014,22.0));
#204=POINT_STYLE(' ',#303,POSITIVE_LENGTH_MEASURE(1.0E-006),#304);
#205=CARTESIAN_POINT('',(-28.0,8.66828632092833E-015,-2.8421709430404E-014));
#206=POINT_STYLE(' ',#305,POSITIVE_LENGTH_MEASURE(1.0E-006),#306);
#207=CARTESIAN_POINT('',(28.0,2.16480220469818E-014,-2.8421709430404E-014));
#208=CURVE_STYLE('',#307,POSITIVE_LENGTH_MEASURE(1.0E-006),#308);
#209=CIRCLE('',#309,46.0);
#210=SURFACE_STYLE_USAGE(.BOTH.,#310);
#211=FACE_OUTER_BOUND('',#311,.T.);
#212=FACE_BOUND('',#312,.T.);
#213=PLANE('',#313);
#214=CURVE_STYLE('',#314,POSITIVE_LENGTH_MEASURE(1.0E-006),#315);
#215=LINE('',#316,#317);
#216=CURVE_STYLE('',#318,POSITIVE_LENGTH_MEASURE(1.0E-006),#319);
#217=CIRCLE('',#320,28.0);
#218=CURVE_STYLE('',#321,POSITIVE_LENGTH_MEASURE(1.0E-006),#322);
#219=LINE('',#323,#324);
#220=CURVE_STYLE('',#325,POSITIVE_LENGTH_MEASURE(1.0E-006),#326);
#221=LINE('',#327,#328);
#222=POINT_STYLE(' ',#329,POSITIVE_LENGTH_MEASURE(1.0E-006),#330);
#223=CARTESIAN_POINT('',(-28.0,9.55578588491299E-015,14.4944465005347));
#224=PRODUCT_CONTEXT('',#45,'mechanical');
#225=PRODUCT_DEFINITION_FORMATION_WITH_SPECIFIED_SOURCE(' ','NONE',#128,.NOT_KNOWN.);
#226=CARTESIAN_POINT('',(0.0,0.0,0.0));
#227=DIRECTION('',(0.0,0.0,1.0));
#228=DIRECTION('',(1.0,0.0,0.0));
#229= (NAMED_UNIT(#136)LENGTH_UNIT()SI_UNIT(.MILLI.,.METRE.));
#230=DRAUGHTING_PRE_DEFINED_CURVE_FONT('continuous');
#231=COLOUR_RGB('',0.509803950786591,0.509803950786591,0.588235318660736);
#232=AXIS2_PLACEMENT_3D('',#332,#333,#334);
#233=SURFACE_SIDE_STYLE('',(#335));
#234=DRAUGHTING_PRE_DEFINED_CURVE_FONT('continuous');
#235=COLOUR_RGB('',0.509803950786591,0.509803950786591,0.588235318660736);
#236=AXIS2_PLACEMENT_3D('',#336,#337,#338);
#237=SURFACE_SIDE_STYLE('',(#339));
#238=EDGE_LOOP('',(#340,#341));
#239=EDGE_LOOP('',(#342,#343));
#240=AXIS2_PLACEMENT_3D('',#344,#345,#346);
#241=SURFACE_SIDE_STYLE('',(#347));
#242=EDGE_LOOP('',(#348,#349,#350,#351));
#243=AXIS2_PLACEMENT_3D('',#352,#353,#354);
#244=DRAUGHTING_PRE_DEFINED_CURVE_FONT('continuous');
#245=COLOUR_RGB('',0.509803950786591,0.509803950786591,0.588235318660736);
#246=AXIS2_PLACEMENT_3D('',#355,#356,#357);
#247=PRE_DEFINED_MARKER('');
#248=COLOUR_RGB('',0.509803950786591,0.509803950786591,0.588235318660736);
#249=PRE_DEFINED_MARKER('');
#250=COLOUR_RGB('',0.509803950786591,0.509803950786591,0.588235318660736);
#251=DRAUGHTING_PRE_DEFINED_CURVE_FONT('continuous');
#252=COLOUR_RGB('',0.509803950786591,0.509803950786591,0.588235318660736);
#253=CARTESIAN_POINT('',(-46.0,-3.33725964046271E-017,11.0));
#254=VECTOR('',#358,1.0);
#255=SURFACE_SIDE_STYLE('',(#359));
#256=EDGE_LOOP('',(#360,#361,#362,#363));
#257=AXIS2_PLACEMENT_3D('',#364,#365,#366);
#258=DRAUGHTING_PRE_DEFINED_CURVE_FONT('continuous');
#259=COLOUR_RGB('',0.509803950786591,0.509803950786591,0.588235318660736);
#260=CARTESIAN_POINT('',(28.0,2.16480220469818E-014,7.24722325026734));
#261=VECTOR('',#367,1.0);
#262=DRAUGHTING_PRE_DEFINED_CURVE_FONT('continuous');
#263=COLOUR_RGB('',0.509803950786591,0.509803950786591,0.588235318660736);
#264=AXIS2_PLACEMENT_3D('',#368,#369,#370);
#265=SURFACE_SIDE_STYLE('',(#371));
#266=EDGE_LOOP('',(#372,#373,#374,#375));
#267=AXIS2_PLACEMENT_3D('',#376,#377,#378);
#268=DRAUGHTING_PRE_DEFINED_CURVE_FONT('continuous');
#269=COLOUR_RGB('',0.509803950786591,0.509803950786591,0.588235318660736);
#270=AXIS2_PLACEMENT_3D('',#379,#380,#381);
#271=PRE_DEFINED_MARKER('');
#272=COLOUR_RGB('',0.509803950786591,0.509803950786591,0.588235318660736);
#273=PRE_DEFINED_MARKER('');
#274=COLOUR_RGB('',0.509803950786591,0.509803950786591,0.588235318660736);
#275=DRAUGHTING_PRE_DEFINED_CURVE_FONT('continuous');
#276=COLOUR_RGB('',0.509803950786591,0.509803950786591,0.588235318660736);
#277=CARTESIAN_POINT('',(34.5,2.35524688737658E-014,18.2472232502673));
#278=VECTOR('',#382,1.0);
#279=SURFACE_SIDE_STYLE('',(#383));
#280=EDGE_LOOP('',(#384,#385,#386,#387));
#281=AXIS2_PLACEMENT_3D('',#388,#389,#390);
#282=DRAUGHTING_PRE_DEFINED_CURVE_FONT('continuous');
#283=COLOUR_RGB('',0.509803950786591,0.509803950786591,0.588235318660736);
#284=AXIS2_PLACEMENT_3D('',#391,#392,#393);
#285=SURFACE_SIDE_STYLE('',(#394));
#286=EDGE_LOOP('',(#395,#396,#397,#398));
#287=AXIS2_PLACEMENT_3D('',#399,#400,#401);
#288=PRE_DEFINED_MARKER('');
#289=COLOUR_RGB('',0.509803950786591,0.509803950786591,0.588235318660736);
#290=PRE_DEFINED_MARKER('');
#291=COLOUR_RGB('',0.509803950786591,0.509803950786591,0.588235318660736);
#292=DRAUGHTING_PRE_DEFINED_CURVE_FONT('continuous');
#293=COLOUR_RGB('',0.509803950786591,0.509803950786591,0.588235318660736);
#294=AXIS2_PLACEMENT_3D('',#402,#403,#404);
#295=SURFACE_SIDE_STYLE('',(#405));
#296=EDGE_LOOP('',(#406,#407,#408,#409));
#297=AXIS2_PLACEMENT_3D('',#410,#411,#412);
#298=DRAUGHTING_PRE_DEFINED_CURVE_FONT('continuous');
#299=COLOUR_RGB('',0.509803950786591,0.509803950786591,0.588235318660736);
#300=AXIS2_PLACEMENT_3D('',#413,#414,#415);
#301=PRE_DEFINED_MARKER('');
#302=COLOUR_RGB('',0.509803950786591,0.509803950786591,0.588235318660736);
#303=PRE_DEFINED_MARKER('');
#304=COLOUR_RGB('',0.509803950786591,0.509803950786591,0.588235318660736);
#305=PRE_DEFINED_MARKER('');
#306=COLOUR_RGB('',0.509803950786591,0.509803950786591,0.588235318660736);
#307=DRAUGHTING_PRE_DEFINED_CURVE_FONT('continuous');
#308=COLOUR_RGB('',0.509803950786591,0.509803950786591,0.588235318660736);
#309=AXIS2_PLACEMENT_3D('',#416,#417,#418);
#310=SURFACE_SIDE_STYLE('',(#419));
#311=EDGE_LOOP('',(#420,#421));
#312=EDGE_LOOP('',(#422,#423));
#313=AXIS2_PLACEMENT_3D('',#424,#425,#426);
#314=DRAUGHTING_PRE_DEFINED_CURVE_FONT('continuous');
#315=COLOUR_RGB('',0.509803950786591,0.509803950786591,0.588235318660736);
#316=CARTESIAN_POINT('',(-28.0,5.24048015468937E-015,7.24722325026734));
#317=VECTOR('',#427,1.0);
#318=DRAUGHTING_PRE_DEFINED_CURVE_FONT('continuous');
#319=COLOUR_RGB('',0.509803950786591,0.509803950786591,0.588235318660736);
#320=AXIS2_PLACEMENT_3D('',#428,#429,#430);
#321=DRAUGHTING_PRE_DEFINED_CURVE_FONT('continuous');
#322=COLOUR_RGB('',0.509803950786591,0.509803950786591,0.588235318660736);
#323=CARTESIAN_POINT('',(46.0,2.69218747980758E-014,11.0));
#324=VECTOR('',#431,1.0);
#325=DRAUGHTING_PRE_DEFINED_CURVE_FONT('continuous');
#326=COLOUR_RGB('',0.509803950786591,0.509803950786591,0.588235318660736);
#327=CARTESIAN_POINT('',(-34.5,3.33603332790542E-015,18.2472232502673));
#328=VECTOR('',#432,1.0);
#329=PRE_DEFINED_MARKER('');
#330=COLOUR_RGB('',0.509803950786591,0.509803950786591,0.588235318660736);
#332=CARTESIAN_POINT('',(0.0,1.34442511008356E-014,-2.8421709430404E-014));
#333=DIRECTION('',(-0.0,0.0,-1.0));
#334=DIRECTION('',(-1.0,-1.70531184122985E-016,0.0));
#335=SURFACE_STYLE_FILL_AREA(#433);
#336=CARTESIAN_POINT('',(0.0,1.34442511008356E-014,-2.8421709430404E-014));
#337=DIRECTION('',(-0.0,0.0,-1.0));
#338=DIRECTION('',(-1.0,-1.70531184122985E-016,0.0));
#339=SURFACE_STYLE_FILL_AREA(#434);
#340=ORIENTED_EDGE('',*,*,#59,.F.);
#341=ORIENTED_EDGE('',*,*,#121,.F.);
#342=ORIENTED_EDGE('',*,*,#107,.T.);
#343=ORIENTED_EDGE('',*,*,#63,.T.);
#344=CARTESIAN_POINT('',(-37.0,7.56614060248819E-015,-2.8421709430404E-014));
#345=DIRECTION('',(0.0,0.0,-1.0));
#346=DIRECTION('',(1.0,1.22460635382238E-016,0.0));
#347=SURFACE_STYLE_FILL_AREA(#435);
#348=ORIENTED_EDGE('',*,*,#119,.F.);
#349=ORIENTED_EDGE('',*,*,#95,.F.);
#350=ORIENTED_EDGE('',*,*,#79,.F.);
#351=ORIENTED_EDGE('',*,*,#121,.T.);
#352=CARTESIAN_POINT('',(0.0,1.34442511008356E-014,7.24722325026734));
#353=DIRECTION('',(0.0,-0.0,1.0));
#354=DIRECTION('',(-1.0,-1.70531184122985E-016,0.0));
#355=CARTESIAN_POINT('',(0.0,1.34442511008356E-014,22.0));
#356=DIRECTION('',(-0.0,0.0,-1.0));
#357=DIRECTION('',(-1.0,-1.70531184122985E-016,0.0));
#358=DIRECTION('',(0.0,0.0,-1.0));
#359=SURFACE_STYLE_FILL_AREA(#436);
#360=ORIENTED_EDGE('',*,*,#75,.T.);
#361=ORIENTED_EDGE('',*,*,#63,.F.);
#362=ORIENTED_EDGE('',*,*,#123,.T.);
#363=ORIENTED_EDGE('',*,*,#69,.T.);
#364=CARTESIAN_POINT('',(0.0,1.34442511008356E-014,11.0));
#365=DIRECTION('',(0.0,-0.0,1.0));
#366=DIRECTION('',(-1.0,-1.70531184122985E-016,0.0));
#367=DIRECTION('',(0.0,0.0,1.0));
#368=CARTESIAN_POINT('',(0.0,1.34442511008356E-014,22.0));
#369=DIRECTION('',(-0.0,0.0,-1.0));
#370=DIRECTION('',(-1.0,-1.70531184122985E-016,0.0));
#371=SURFACE_STYLE_FILL_AREA(#437);
#372=ORIENTED_EDGE('',*,*,#75,.F.);
#373=ORIENTED_EDGE('',*,*,#115,.T.);
#374=ORIENTED_EDGE('',*,*,#123,.F.);
#375=ORIENTED_EDGE('',*,*,#107,.F.);
#376=CARTESIAN_POINT('',(0.0,1.34442511008356E-014,11.0));
#377=DIRECTION('',(0.0,-0.0,1.0));
#378=DIRECTION('',(-1.0,-1.70531184122985E-016,0.0));
#379=CARTESIAN_POINT('',(0.0,1.34442511008356E-014,14.4944465005347));
#380=DIRECTION('',(-0.0,0.0,-1.0));
#381=DIRECTION('',(-1.0,-1.70531184122985E-016,0.0));
#382=DIRECTION('',(0.866025403784435,2.53738358792546E-016,0.500000000000007));
#383=SURFACE_STYLE_FILL_AREA(#438);
#384=ORIENTED_EDGE('',*,*,#119,.T.);
#385=ORIENTED_EDGE('',*,*,#59,.T.);
#386=ORIENTED_EDGE('',*,*,#79,.T.);
#387=ORIENTED_EDGE('',*,*,#85,.F.);
#388=CARTESIAN_POINT('',(0.0,1.34442511008356E-014,7.24722325026734));
#389=DIRECTION('',(0.0,-0.0,1.0));
#390=DIRECTION('',(-1.0,-1.70531184122985E-016,0.0));
#391=CARTESIAN_POINT('',(0.0,1.34442511008356E-014,14.4944465005347));
#392=DIRECTION('',(-0.0,0.0,-1.0));
#393=DIRECTION('',(-1.0,-1.70531184122985E-016,0.0));
#394=SURFACE_STYLE_FILL_AREA(#439);
#395=ORIENTED_EDGE('',*,*,#125,.F.);
#396=ORIENTED_EDGE('',*,*,#103,.F.);
#397=ORIENTED_EDGE('',*,*,#91,.F.);
#398=ORIENTED_EDGE('',*,*,#95,.T.);
#399=CARTESIAN_POINT('',(0.0,1.34442511008356E-014,18.2472232502673));
#400=DIRECTION('',(0.0,-0.0,1.0));
#401=DIRECTION('',(-1.0,-1.70531184122985E-016,0.0));
#402=CARTESIAN_POINT('',(0.0,1.34442511008356E-014,22.0));
#403=DIRECTION('',(-0.0,0.0,-1.0));
#404=DIRECTION('',(-1.0,-1.70531184122985E-016,0.0));
#405=SURFACE_STYLE_FILL_AREA(#440);
#406=ORIENTED_EDGE('',*,*,#125,.T.);
#407=ORIENTED_EDGE('',*,*,#85,.T.);
#408=ORIENTED_EDGE('',*,*,#91,.T.);
#409=ORIENTED_EDGE('',*,*,#81,.F.);
#410=CARTESIAN_POINT('',(0.0,1.34442511008356E-014,18.2472232502673));
#411=DIRECTION('',(0.0,-0.0,1.0));
#412=DIRECTION('',(-1.0,-1.70531184122985E-016,0.0));
#413=CARTESIAN_POINT('',(0.0,1.34442511008356E-014,-2.8421709430404E-014));
#414=DIRECTION('',(-0.0,0.0,-1.0));
#415=DIRECTION('',(-1.0,-1.70531184122985E-016,0.0));
#416=CARTESIAN_POINT('',(0.0,1.34442511008356E-014,22.0));
#417=DIRECTION('',(-0.0,0.0,-1.0));
#418=DIRECTION('',(-1.0,-1.70531184122985E-016,0.0));
#419=SURFACE_STYLE_FILL_AREA(#441);
#420=ORIENTED_EDGE('',*,*,#115,.F.);
#421=ORIENTED_EDGE('',*,*,#69,.F.);
#422=ORIENTED_EDGE('',*,*,#81,.T.);
#423=ORIENTED_EDGE('',*,*,#103,.T.);
#424=CARTESIAN_POINT('',(-43.5,8.11721346170826E-015,22.0));
#425=DIRECTION('',(0.0,0.0,1.0));
#426=DIRECTION('',(-1.0,-1.22460635382238E-016,0.0));
#427=DIRECTION('',(0.0,0.0,-1.0));
#428=CARTESIAN_POINT('',(0.0,1.34442511008356E-014,-2.8421709430404E-014));
#429=DIRECTION('',(-0.0,0.0,-1.0));
#430=DIRECTION('',(-1.0,-1.70531184122985E-016,0.0));
#431=DIRECTION('',(-0.0,-0.0,1.0));
#432=DIRECTION('',(0.866025403784435,2.53738358792546E-016,-0.500000000000007));
#433=FILL_AREA_STYLE('',(#442));
#434=FILL_AREA_STYLE('',(#443));
#435=FILL_AREA_STYLE('',(#444));
#436=FILL_AREA_STYLE('',(#445));
#437=FILL_AREA_STYLE('',(#446));
#438=FILL_AREA_STYLE('',(#447));
#439=FILL_AREA_STYLE('',(#448));
#440=FILL_AREA_STYLE('',(#449));
#441=FILL_AREA_STYLE('',(#450));
#442=FILL_AREA_STYLE_COLOUR('',#451);
#443=FILL_AREA_STYLE_COLOUR('',#452);
#444=FILL_AREA_STYLE_COLOUR('',#453);
#445=FILL_AREA_STYLE_COLOUR('',#454);
#446=FILL_AREA_STYLE_COLOUR('',#455);
#447=FILL_AREA_STYLE_COLOUR('',#456);
#448=FILL_AREA_STYLE_COLOUR('',#457);
#449=FILL_AREA_STYLE_COLOUR('',#458);
#450=FILL_AREA_STYLE_COLOUR('',#459);
#451=COLOUR_RGB('',0.509803950786591,0.509803950786591,0.588235318660736);
#452=COLOUR_RGB('',0.509803950786591,0.509803950786591,0.588235318660736);
#453=COLOUR_RGB('',0.509803950786591,0.509803950786591,0.588235318660736);
#454=COLOUR_RGB('',0.509803950786591,0.509803950786591,0.588235318660736);
#455=COLOUR_RGB('',0.509803950786591,0.509803950786591,0.588235318660736);
#456=COLOUR_RGB('',0.509803950786591,0.509803950786591,0.588235318660736);
#457=COLOUR_RGB('',0.509803950786591,0.509803950786591,0.588235318660736);
#458=COLOUR_RGB('',0.509803950786591,0.509803950786591,0.588235318660736);
#459=COLOUR_RGB('',0.509803950786591,0.509803950786591,0.588235318660736);
ENDSEC;
END-ISO-10303-21;
