ISO-10303-21;
HEADER;
FILE_DESCRIPTION(('STEP AP214'),'1');
FILE_NAME(' ','  ',('TraceParts'),('TraceParts S.A.'),'XStep 1.0',' ',' ');
FILE_SCHEMA(('automotive_design'));
ENDSEC;
DATA;
#1=MECHANICAL_DESIGN_GEOMETRIC_PRESENTATION_REPRESENTATION(' ',(#10,#11,#12,#13,#14,#15,#16,#17,#18,#19,#20,#21,#22,#23,#24,#25,#26,#27,#28,#29,#30,#31,#32,#33,#34,#35,#36,#37,#38,#39,#40,#41,#42,#43,#44),#6);
#2=PRODUCT_DEFINITION_CONTEXT('',#45,'design');
#3=APPLICATION_PROTOCOL_DEFINITION('INTERNATIONAL STANDARD','automotive_design',1994,#45);
#4=PRODUCT_CATEGORY_RELATIONSHIP('NONE','NONE',#46,#47);
#5=SHAPE_DEFINITION_REPRESENTATION(#48,#49);
#6= (GEOMETRIC_REPRESENTATION_CONTEXT(3)GLOBAL_UNCERTAINTY_ASSIGNED_CONTEXT((#52))GLOBAL_UNIT_ASSIGNED_CONTEXT((#54,#55,#56))REPRESENTATION_CONTEXT('NONE','WORKSPACE'));
#10=STYLED_ITEM('',(#58),#59);
#11=STYLED_ITEM('',(#60),#61);
#12=STYLED_ITEM('',(#62),#63);
#13=STYLED_ITEM('',(#64),#65);
#14=STYLED_ITEM('',(#66),#67);
#15=STYLED_ITEM('',(#68),#69);
#16=STYLED_ITEM('',(#70),#71);
#17=STYLED_ITEM('',(#72),#73);
#18=STYLED_ITEM('',(#74),#75);
#19=STYLED_ITEM('',(#76),#77);
#20=STYLED_ITEM('',(#78),#79);
#21=STYLED_ITEM('',(#80),#81);
#22=STYLED_ITEM('',(#82),#83);
#23=STYLED_ITEM('',(#84),#85);
#24=STYLED_ITEM('',(#86),#87);
#25=STYLED_ITEM('',(#88),#89);
#26=STYLED_ITEM('',(#90),#91);
#27=STYLED_ITEM('',(#92),#93);
#28=STYLED_ITEM('',(#94),#95);
#29=STYLED_ITEM('',(#96),#97);
#30=STYLED_ITEM('',(#98),#99);
#31=STYLED_ITEM('',(#100),#101);
#32=STYLED_ITEM('',(#102),#103);
#33=STYLED_ITEM('',(#104),#105);
#34=STYLED_ITEM('',(#106),#107);
#35=STYLED_ITEM('',(#108),#109);
#36=STYLED_ITEM('',(#110),#111);
#37=STYLED_ITEM('',(#112),#113);
#38=STYLED_ITEM('',(#114),#115);
#39=STYLED_ITEM('',(#116),#117);
#40=STYLED_ITEM('',(#118),#119);
#41=STYLED_ITEM('',(#120),#121);
#42=STYLED_ITEM('',(#122),#123);
#43=STYLED_ITEM('',(#124),#125);
#44=STYLED_ITEM('',(#126),#127);
#45=APPLICATION_CONTEXT(' ');
#46=PRODUCT_CATEGORY('part','NONE');
#47=PRODUCT_RELATED_PRODUCT_CATEGORY('detail',' ',(#128));
#48=PRODUCT_DEFINITION_SHAPE('NONE','NONE',#129);
#49=ADVANCED_BREP_SHAPE_REPRESENTATION('1',(#127,#130),#6);
#52=UNCERTAINTY_MEASURE_WITH_UNIT(LENGTH_MEASURE(1.0E-006),#54,'','');
#54= (CONVERSION_BASED_UNIT('MILLIMETRE',#133)LENGTH_UNIT()NAMED_UNIT(#136));
#55= (NAMED_UNIT(#138)PLANE_ANGLE_UNIT()SI_UNIT($,.RADIAN.));
#56= (NAMED_UNIT(#138)SOLID_ANGLE_UNIT()SI_UNIT($,.STERADIAN.));
#58=PRESENTATION_STYLE_ASSIGNMENT((#144));
#59=EDGE_CURVE('',#117,#91,#145,.T.);
#60=PRESENTATION_STYLE_ASSIGNMENT((#146));
#61=EDGE_CURVE('',#99,#93,#147,.T.);
#62=PRESENTATION_STYLE_ASSIGNMENT((#148));
#63=VERTEX_POINT('',#149);
#64=PRESENTATION_STYLE_ASSIGNMENT((#150));
#65=EDGE_CURVE('',#91,#85,#151,.T.);
#66=PRESENTATION_STYLE_ASSIGNMENT((#152));
#67=ADVANCED_FACE('',(#153),#154,.F.);
#68=PRESENTATION_STYLE_ASSIGNMENT((#155));
#69=VERTEX_POINT('',#156);
#70=PRESENTATION_STYLE_ASSIGNMENT((#157));
#71=EDGE_CURVE('',#91,#117,#158,.T.);
#72=PRESENTATION_STYLE_ASSIGNMENT((#159));
#73=EDGE_CURVE('',#101,#77,#160,.T.);
#74=PRESENTATION_STYLE_ASSIGNMENT((#161));
#75=EDGE_CURVE('',#93,#99,#162,.T.);
#76=PRESENTATION_STYLE_ASSIGNMENT((#163));
#77=VERTEX_POINT('',#164);
#78=PRESENTATION_STYLE_ASSIGNMENT((#165));
#79=ADVANCED_FACE('',(#166),#167,.F.);
#80=PRESENTATION_STYLE_ASSIGNMENT((#168));
#81=ADVANCED_FACE('',(#169),#170,.F.);
#82=PRESENTATION_STYLE_ASSIGNMENT((#171));
#83=EDGE_CURVE('',#85,#63,#172,.T.);
#84=PRESENTATION_STYLE_ASSIGNMENT((#173));
#85=VERTEX_POINT('',#174);
#86=PRESENTATION_STYLE_ASSIGNMENT((#175));
#87=ADVANCED_FACE('',(#176),#177,.F.);
#88=PRESENTATION_STYLE_ASSIGNMENT((#178));
#89=EDGE_CURVE('',#69,#119,#179,.T.);
#90=PRESENTATION_STYLE_ASSIGNMENT((#180));
#91=VERTEX_POINT('',#181);
#92=PRESENTATION_STYLE_ASSIGNMENT((#182));
#93=VERTEX_POINT('',#183);
#94=PRESENTATION_STYLE_ASSIGNMENT((#184));
#95=ADVANCED_FACE('',(#185),#186,.T.);
#96=PRESENTATION_STYLE_ASSIGNMENT((#187));
#97=EDGE_CURVE('',#63,#85,#188,.T.);
#98=PRESENTATION_STYLE_ASSIGNMENT((#189));
#99=VERTEX_POINT('',#190);
#100=PRESENTATION_STYLE_ASSIGNMENT((#191));
#101=VERTEX_POINT('',#192);
#102=PRESENTATION_STYLE_ASSIGNMENT((#193));
#103=ADVANCED_FACE('',(#194,#195),#196,.T.);
#104=PRESENTATION_STYLE_ASSIGNMENT((#197));
#105=EDGE_CURVE('',#85,#119,#198,.T.);
#106=PRESENTATION_STYLE_ASSIGNMENT((#199));
#107=ADVANCED_FACE('',(#200),#201,.T.);
#108=PRESENTATION_STYLE_ASSIGNMENT((#202));
#109=ADVANCED_FACE('',(#203,#204),#205,.T.);
#110=PRESENTATION_STYLE_ASSIGNMENT((#206));
#111=EDGE_CURVE('',#63,#117,#207,.T.);
#112=PRESENTATION_STYLE_ASSIGNMENT((#208));
#113=EDGE_CURVE('',#77,#101,#209,.T.);
#114=PRESENTATION_STYLE_ASSIGNMENT((#210));
#115=EDGE_CURVE('',#119,#69,#211,.T.);
#116=PRESENTATION_STYLE_ASSIGNMENT((#212));
#117=VERTEX_POINT('',#213);
#118=PRESENTATION_STYLE_ASSIGNMENT((#214));
#119=VERTEX_POINT('',#215);
#120=PRESENTATION_STYLE_ASSIGNMENT((#216));
#121=EDGE_CURVE('',#77,#93,#217,.T.);
#122=PRESENTATION_STYLE_ASSIGNMENT((#218));
#123=EDGE_CURVE('',#69,#63,#219,.T.);
#124=PRESENTATION_STYLE_ASSIGNMENT((#220));
#125=EDGE_CURVE('',#99,#101,#221,.T.);
#126=PRESENTATION_STYLE_ASSIGNMENT((#222));
#127=MANIFOLD_SOLID_BREP('1',#223);
#128=PRODUCT('1','1','PART-1-DESC',(#224));
#129=PRODUCT_DEFINITION('NONE','NONE',#225,#2);
#130=AXIS2_PLACEMENT_3D('',#226,#227,#228);
#133=LENGTH_MEASURE_WITH_UNIT(LENGTH_MEASURE(1.0),#229);
#136=DIMENSIONAL_EXPONENTS(1.0,0.0,0.0,0.0,0.0,0.0,0.0);
#138=DIMENSIONAL_EXPONENTS(0.0,0.0,0.0,0.0,0.0,0.0,0.0);
#144=CURVE_STYLE('',#230,POSITIVE_LENGTH_MEASURE(1.0E-006),#231);
#145=CIRCLE('',#232,17.5);
#146=CURVE_STYLE('',#233,POSITIVE_LENGTH_MEASURE(1.0E-006),#234);
#147=CIRCLE('',#235,28.0);
#148=POINT_STYLE(' ',#236,POSITIVE_LENGTH_MEASURE(1.0E-006),#237);
#149=CARTESIAN_POINT('',(-17.5,1.00740455157778E-014,7.95854811567253));
#150=CURVE_STYLE('',#238,POSITIVE_LENGTH_MEASURE(1.0E-006),#239);
#151=LINE('',#240,#241);
#152=SURFACE_STYLE_USAGE(.BOTH.,#242);
#153=FACE_OUTER_BOUND('',#243,.T.);
#154=CONICAL_SURFACE('',#244,21.0,1.04719755119659);
#155=POINT_STYLE(' ',#245,POSITIVE_LENGTH_MEASURE(1.0E-006),#246);
#156=CARTESIAN_POINT('',(-24.5,9.46428045091288E-015,12.0));
#157=CURVE_STYLE('',#247,POSITIVE_LENGTH_MEASURE(1.0E-006),#248);
#158=CIRCLE('',#249,17.5);
#159=CURVE_STYLE('',#250,POSITIVE_LENGTH_MEASURE(1.0E-006),#251);
#160=CIRCLE('',#252,28.0);
#161=CURVE_STYLE('',#253,POSITIVE_LENGTH_MEASURE(1.0E-006),#254);
#162=CIRCLE('',#255,28.0);
#163=POINT_STYLE(' ',#256,POSITIVE_LENGTH_MEASURE(1.0E-006),#257);
#164=CARTESIAN_POINT('',(-28.0,9.03566822707504E-015,12.0));
#165=SURFACE_STYLE_USAGE(.BOTH.,#258);
#166=FACE_OUTER_BOUND('',#259,.T.);
#167=CYLINDRICAL_SURFACE('',#260,17.5);
#168=SURFACE_STYLE_USAGE(.BOTH.,#261);
#169=FACE_OUTER_BOUND('',#262,.T.);
#170=CYLINDRICAL_SURFACE('',#263,17.5);
#171=CURVE_STYLE('',#264,POSITIVE_LENGTH_MEASURE(1.0E-006),#265);
#172=CIRCLE('',#266,17.5);
#173=POINT_STYLE(' ',#267,POSITIVE_LENGTH_MEASURE(1.0E-006),#268);
#174=CARTESIAN_POINT('',(17.5,1.74848526840012E-014,7.95854811567253));
#175=SURFACE_STYLE_USAGE(.BOTH.,#269);
#176=FACE_OUTER_BOUND('',#270,.T.);
#177=CONICAL_SURFACE('',#271,21.0,1.04719755119659);
#178=CURVE_STYLE('',#272,POSITIVE_LENGTH_MEASURE(1.0E-006),#273);
#179=CIRCLE('',#274,24.5);
#180=POINT_STYLE(' ',#275,POSITIVE_LENGTH_MEASURE(1.0E-006),#276);
#181=CARTESIAN_POINT('',(17.5,1.74848526840012E-014,-2.8421709430404E-014));
#182=POINT_STYLE(' ',#277,POSITIVE_LENGTH_MEASURE(1.0E-006),#278);
#183=CARTESIAN_POINT('',(-28.0,8.30090441478162E-015,-2.8421709430404E-014));
#184=SURFACE_STYLE_USAGE(.BOTH.,#279);
#185=FACE_OUTER_BOUND('',#280,.T.);
#186=CYLINDRICAL_SURFACE('',#281,28.0);
#187=CURVE_STYLE('',#282,POSITIVE_LENGTH_MEASURE(1.0E-006),#283);
#188=CIRCLE('',#284,17.5);
#189=POINT_STYLE(' ',#285,POSITIVE_LENGTH_MEASURE(1.0E-006),#286);
#190=CARTESIAN_POINT('',(28.0,2.04970246837353E-014,-2.8421709430404E-014));
#191=POINT_STYLE(' ',#287,POSITIVE_LENGTH_MEASURE(1.0E-006),#288);
#192=CARTESIAN_POINT('',(28.0,2.04970246837353E-014,12.0));
#193=SURFACE_STYLE_USAGE(.BOTH.,#289);
#194=FACE_BOUND('',#290,.T.);
#195=FACE_OUTER_BOUND('',#291,.T.);
#196=PLANE('',#292);
#197=CURVE_STYLE('',#293,POSITIVE_LENGTH_MEASURE(1.0E-006),#294);
#198=LINE('',#295,#296);
#199=SURFACE_STYLE_USAGE(.BOTH.,#297);
#200=FACE_OUTER_BOUND('',#298,.T.);
#201=CYLINDRICAL_SURFACE('',#299,28.0);
#202=SURFACE_STYLE_USAGE(.BOTH.,#300);
#203=FACE_OUTER_BOUND('',#301,.T.);
#204=FACE_BOUND('',#302,.T.);
#205=PLANE('',#303);
#206=CURVE_STYLE('',#304,POSITIVE_LENGTH_MEASURE(1.0E-006),#305);
#207=LINE('',#306,#307);
#208=CURVE_STYLE('',#308,POSITIVE_LENGTH_MEASURE(1.0E-006),#309);
#209=CIRCLE('',#310,28.0);
#210=CURVE_STYLE('',#311,POSITIVE_LENGTH_MEASURE(1.0E-006),#312);
#211=CIRCLE('',#313,24.5);
#212=POINT_STYLE(' ',#314,POSITIVE_LENGTH_MEASURE(1.0E-006),#315);
#213=CARTESIAN_POINT('',(-17.5,9.58674108629511E-015,-2.8421709430404E-014));
#214=POINT_STYLE(' ',#316,POSITIVE_LENGTH_MEASURE(1.0E-006),#317);
#215=CARTESIAN_POINT('',(24.5,1.94929673504906E-014,12.0));
#216=CURVE_STYLE('',#318,POSITIVE_LENGTH_MEASURE(1.0E-006),#319);
#217=LINE('',#320,#321);
#218=CURVE_STYLE('',#322,POSITIVE_LENGTH_MEASURE(1.0E-006),#323);
#219=LINE('',#324,#325);
#220=CURVE_STYLE('',#326,POSITIVE_LENGTH_MEASURE(1.0E-006),#327);
#221=LINE('',#328,#329);
#222=SURFACE_STYLE_USAGE(.BOTH.,#330);
#223=CLOSED_SHELL('',(#81,#95,#67,#87,#109,#107,#103,#79));
#224=PRODUCT_CONTEXT('',#45,'mechanical');
#225=PRODUCT_DEFINITION_FORMATION_WITH_SPECIFIED_SOURCE(' ','NONE',#128,.NOT_KNOWN.);
#226=CARTESIAN_POINT('',(0.0,0.0,0.0));
#227=DIRECTION('',(0.0,0.0,1.0));
#228=DIRECTION('',(1.0,0.0,0.0));
#229= (NAMED_UNIT(#136)LENGTH_UNIT()SI_UNIT(.MILLI.,.METRE.));
#230=DRAUGHTING_PRE_DEFINED_CURVE_FONT('continuous');
#231=COLOUR_RGB('',0.509803950786591,0.509803950786591,0.588235318660736);
#232=AXIS2_PLACEMENT_3D('',#332,#333,#334);
#233=DRAUGHTING_PRE_DEFINED_CURVE_FONT('continuous');
#234=COLOUR_RGB('',0.509803950786591,0.509803950786591,0.588235318660736);
#235=AXIS2_PLACEMENT_3D('',#335,#336,#337);
#236=PRE_DEFINED_MARKER('');
#237=COLOUR_RGB('',0.509803950786591,0.509803950786591,0.588235318660736);
#238=DRAUGHTING_PRE_DEFINED_CURVE_FONT('continuous');
#239=COLOUR_RGB('',0.509803950786591,0.509803950786591,0.588235318660736);
#240=CARTESIAN_POINT('',(17.5,1.74848526840012E-014,3.97927405783625));
#241=VECTOR('',#338,1.0);
#242=SURFACE_SIDE_STYLE('',(#339));
#243=EDGE_LOOP('',(#340,#341,#342,#343));
#244=AXIS2_PLACEMENT_3D('',#344,#345,#346);
#245=PRE_DEFINED_MARKER('');
#246=COLOUR_RGB('',0.509803950786591,0.509803950786591,0.588235318660736);
#247=DRAUGHTING_PRE_DEFINED_CURVE_FONT('continuous');
#248=COLOUR_RGB('',0.509803950786591,0.509803950786591,0.588235318660736);
#249=AXIS2_PLACEMENT_3D('',#347,#348,#349);
#250=DRAUGHTING_PRE_DEFINED_CURVE_FONT('continuous');
#251=COLOUR_RGB('',0.509803950786591,0.509803950786591,0.588235318660736);
#252=AXIS2_PLACEMENT_3D('',#350,#351,#352);
#253=DRAUGHTING_PRE_DEFINED_CURVE_FONT('continuous');
#254=COLOUR_RGB('',0.509803950786591,0.509803950786591,0.588235318660736);
#255=AXIS2_PLACEMENT_3D('',#353,#354,#355);
#256=PRE_DEFINED_MARKER('');
#257=COLOUR_RGB('',0.509803950786591,0.509803950786591,0.588235318660736);
#258=SURFACE_SIDE_STYLE('',(#356));
#259=EDGE_LOOP('',(#357,#358,#359,#360));
#260=AXIS2_PLACEMENT_3D('',#361,#362,#363);
#261=SURFACE_SIDE_STYLE('',(#364));
#262=EDGE_LOOP('',(#365,#366,#367,#368));
#263=AXIS2_PLACEMENT_3D('',#369,#370,#371);
#264=DRAUGHTING_PRE_DEFINED_CURVE_FONT('continuous');
#265=COLOUR_RGB('',0.509803950786591,0.509803950786591,0.588235318660736);
#266=AXIS2_PLACEMENT_3D('',#372,#373,#374);
#267=PRE_DEFINED_MARKER('');
#268=COLOUR_RGB('',0.509803950786591,0.509803950786591,0.588235318660736);
#269=SURFACE_SIDE_STYLE('',(#375));
#270=EDGE_LOOP('',(#376,#377,#378,#379));
#271=AXIS2_PLACEMENT_3D('',#380,#381,#382);
#272=DRAUGHTING_PRE_DEFINED_CURVE_FONT('continuous');
#273=COLOUR_RGB('',0.509803950786591,0.509803950786591,0.588235318660736);
#274=AXIS2_PLACEMENT_3D('',#383,#384,#385);
#275=PRE_DEFINED_MARKER('');
#276=COLOUR_RGB('',0.509803950786591,0.509803950786591,0.588235318660736);
#277=PRE_DEFINED_MARKER('');
#278=COLOUR_RGB('',0.509803950786591,0.509803950786591,0.588235318660736);
#279=SURFACE_SIDE_STYLE('',(#386));
#280=EDGE_LOOP('',(#387,#388,#389,#390));
#281=AXIS2_PLACEMENT_3D('',#391,#392,#393);
#282=DRAUGHTING_PRE_DEFINED_CURVE_FONT('continuous');
#283=COLOUR_RGB('',0.509803950786591,0.509803950786591,0.588235318660736);
#284=AXIS2_PLACEMENT_3D('',#394,#395,#396);
#285=PRE_DEFINED_MARKER('');
#286=COLOUR_RGB('',0.509803950786591,0.509803950786591,0.588235318660736);
#287=PRE_DEFINED_MARKER('');
#288=COLOUR_RGB('',0.509803950786591,0.509803950786591,0.588235318660736);
#289=SURFACE_SIDE_STYLE('',(#397));
#290=EDGE_LOOP('',(#398,#399));
#291=EDGE_LOOP('',(#400,#401));
#292=AXIS2_PLACEMENT_3D('',#402,#403,#404);
#293=DRAUGHTING_PRE_DEFINED_CURVE_FONT('continuous');
#294=COLOUR_RGB('',0.509803950786591,0.509803950786591,0.588235318660736);
#295=CARTESIAN_POINT('',(21.0,1.84889100172459E-014,9.97927405783625));
#296=VECTOR('',#405,1.0);
#297=SURFACE_SIDE_STYLE('',(#406));
#298=EDGE_LOOP('',(#407,#408,#409,#410));
#299=AXIS2_PLACEMENT_3D('',#411,#412,#413);
#300=SURFACE_SIDE_STYLE('',(#414));
#301=EDGE_LOOP('',(#415,#416));
#302=EDGE_LOOP('',(#417,#418));
#303=AXIS2_PLACEMENT_3D('',#419,#420,#421);
#304=DRAUGHTING_PRE_DEFINED_CURVE_FONT('continuous');
#305=COLOUR_RGB('',0.509803950786591,0.509803950786591,0.588235318660736);
#306=CARTESIAN_POINT('',(-17.5,7.44427935155422E-015,3.97927405783625));
#307=VECTOR('',#422,1.0);
#308=DRAUGHTING_PRE_DEFINED_CURVE_FONT('continuous');
#309=COLOUR_RGB('',0.509803950786591,0.509803950786591,0.588235318660736);
#310=AXIS2_PLACEMENT_3D('',#423,#424,#425);
#311=DRAUGHTING_PRE_DEFINED_CURVE_FONT('continuous');
#312=COLOUR_RGB('',0.509803950786591,0.509803950786591,0.588235318660736);
#313=AXIS2_PLACEMENT_3D('',#426,#427,#428);
#314=PRE_DEFINED_MARKER('');
#315=COLOUR_RGB('',0.509803950786591,0.509803950786591,0.588235318660736);
#316=PRE_DEFINED_MARKER('');
#317=COLOUR_RGB('',0.509803950786591,0.509803950786591,0.588235318660736);
#318=DRAUGHTING_PRE_DEFINED_CURVE_FONT('continuous');
#319=COLOUR_RGB('',0.509803950786591,0.509803950786591,0.588235318660736);
#320=CARTESIAN_POINT('',(-28.0,4.43210735182013E-015,5.99999999999997));
#321=VECTOR('',#429,1.0);
#322=DRAUGHTING_PRE_DEFINED_CURVE_FONT('continuous');
#323=COLOUR_RGB('',0.509803950786591,0.509803950786591,0.588235318660736);
#324=CARTESIAN_POINT('',(-21.0,6.44022201830953E-015,9.97927405783625));
#325=VECTOR('',#430,1.0);
#326=DRAUGHTING_PRE_DEFINED_CURVE_FONT('continuous');
#327=COLOUR_RGB('',0.509803950786591,0.509803950786591,0.588235318660736);
#328=CARTESIAN_POINT('',(28.0,2.04970246837353E-014,5.99999999999997));
#329=VECTOR('',#431,1.0);
#330=SURFACE_SIDE_STYLE('',(#432));
#332=CARTESIAN_POINT('',(0.0,1.24645660177777E-014,-2.8421709430404E-014));
#333=DIRECTION('',(-0.0,0.0,-1.0));
#334=DIRECTION('',(-1.0,-1.64412888401961E-016,0.0));
#335=CARTESIAN_POINT('',(0.0,1.24645660177777E-014,-2.8421709430404E-014));
#336=DIRECTION('',(-0.0,0.0,-1.0));
#337=DIRECTION('',(-1.0,-1.64412888401961E-016,0.0));
#338=DIRECTION('',(0.0,0.0,1.0));
#339=SURFACE_STYLE_FILL_AREA(#433);
#340=ORIENTED_EDGE('',*,*,#123,.F.);
#341=ORIENTED_EDGE('',*,*,#115,.F.);
#342=ORIENTED_EDGE('',*,*,#105,.F.);
#343=ORIENTED_EDGE('',*,*,#83,.T.);
#344=CARTESIAN_POINT('',(0.0,1.24645660177777E-014,9.97927405783625));
#345=DIRECTION('',(0.0,-0.0,1.0));
#346=DIRECTION('',(-1.0,-1.64412888401961E-016,0.0));
#347=CARTESIAN_POINT('',(0.0,1.24645660177777E-014,-2.8421709430404E-014));
#348=DIRECTION('',(-0.0,0.0,-1.0));
#349=DIRECTION('',(-1.0,-1.64412888401961E-016,0.0));
#350=CARTESIAN_POINT('',(0.0,1.24645660177777E-014,12.0));
#351=DIRECTION('',(-0.0,0.0,-1.0));
#352=DIRECTION('',(-1.0,-1.64412888401961E-016,0.0));
#353=CARTESIAN_POINT('',(0.0,1.24645660177777E-014,-2.8421709430404E-014));
#354=DIRECTION('',(-0.0,0.0,-1.0));
#355=DIRECTION('',(-1.0,-1.64412888401961E-016,0.0));
#356=SURFACE_STYLE_FILL_AREA(#434);
#357=ORIENTED_EDGE('',*,*,#111,.T.);
#358=ORIENTED_EDGE('',*,*,#59,.T.);
#359=ORIENTED_EDGE('',*,*,#65,.T.);
#360=ORIENTED_EDGE('',*,*,#97,.F.);
#361=CARTESIAN_POINT('',(0.0,1.24645660177777E-014,3.97927405783625));
#362=DIRECTION('',(0.0,-0.0,1.0));
#363=DIRECTION('',(-1.0,-1.64412888401961E-016,0.0));
#364=SURFACE_STYLE_FILL_AREA(#435);
#365=ORIENTED_EDGE('',*,*,#111,.F.);
#366=ORIENTED_EDGE('',*,*,#83,.F.);
#367=ORIENTED_EDGE('',*,*,#65,.F.);
#368=ORIENTED_EDGE('',*,*,#71,.T.);
#369=CARTESIAN_POINT('',(0.0,1.24645660177777E-014,3.97927405783625));
#370=DIRECTION('',(0.0,-0.0,1.0));
#371=DIRECTION('',(-1.0,-1.64412888401961E-016,0.0));
#372=CARTESIAN_POINT('',(0.0,1.24645660177777E-014,7.95854811567253));
#373=DIRECTION('',(-0.0,0.0,-1.0));
#374=DIRECTION('',(-1.0,-1.64412888401961E-016,0.0));
#375=SURFACE_STYLE_FILL_AREA(#436);
#376=ORIENTED_EDGE('',*,*,#123,.T.);
#377=ORIENTED_EDGE('',*,*,#97,.T.);
#378=ORIENTED_EDGE('',*,*,#105,.T.);
#379=ORIENTED_EDGE('',*,*,#89,.F.);
#380=CARTESIAN_POINT('',(0.0,1.24645660177777E-014,9.97927405783625));
#381=DIRECTION('',(0.0,-0.0,1.0));
#382=DIRECTION('',(-1.0,-1.64412888401961E-016,0.0));
#383=CARTESIAN_POINT('',(0.0,1.24645660177777E-014,12.0));
#384=DIRECTION('',(-0.0,0.0,-1.0));
#385=DIRECTION('',(-1.0,-1.64412888401961E-016,0.0));
#386=SURFACE_STYLE_FILL_AREA(#437);
#387=ORIENTED_EDGE('',*,*,#121,.F.);
#388=ORIENTED_EDGE('',*,*,#113,.T.);
#389=ORIENTED_EDGE('',*,*,#125,.F.);
#390=ORIENTED_EDGE('',*,*,#75,.F.);
#391=CARTESIAN_POINT('',(0.0,1.24645660177777E-014,5.99999999999997));
#392=DIRECTION('',(0.0,-0.0,1.0));
#393=DIRECTION('',(-1.0,-1.64412888401961E-016,0.0));
#394=CARTESIAN_POINT('',(0.0,1.24645660177777E-014,7.95854811567253));
#395=DIRECTION('',(-0.0,0.0,-1.0));
#396=DIRECTION('',(-1.0,-1.64412888401961E-016,0.0));
#397=SURFACE_STYLE_FILL_AREA(#438);
#398=ORIENTED_EDGE('',*,*,#59,.F.);
#399=ORIENTED_EDGE('',*,*,#71,.F.);
#400=ORIENTED_EDGE('',*,*,#75,.T.);
#401=ORIENTED_EDGE('',*,*,#61,.T.);
#402=CARTESIAN_POINT('',(-22.75,8.94382275053837E-015,-2.8421709430404E-014));
#403=DIRECTION('',(0.0,0.0,-1.0));
#404=DIRECTION('',(1.0,1.22460635382238E-016,0.0));
#405=DIRECTION('',(0.866025403784435,2.48439759270275E-016,0.500000000000006));
#406=SURFACE_STYLE_FILL_AREA(#439);
#407=ORIENTED_EDGE('',*,*,#121,.T.);
#408=ORIENTED_EDGE('',*,*,#61,.F.);
#409=ORIENTED_EDGE('',*,*,#125,.T.);
#410=ORIENTED_EDGE('',*,*,#73,.T.);
#411=CARTESIAN_POINT('',(0.0,1.24645660177777E-014,5.99999999999997));
#412=DIRECTION('',(0.0,-0.0,1.0));
#413=DIRECTION('',(-1.0,-1.64412888401961E-016,0.0));
#414=SURFACE_STYLE_FILL_AREA(#440);
#415=ORIENTED_EDGE('',*,*,#113,.F.);
#416=ORIENTED_EDGE('',*,*,#73,.F.);
#417=ORIENTED_EDGE('',*,*,#89,.T.);
#418=ORIENTED_EDGE('',*,*,#115,.T.);
#419=CARTESIAN_POINT('',(-26.25,9.24997433899396E-015,12.0));
#420=DIRECTION('',(0.0,0.0,1.0));
#421=DIRECTION('',(-1.0,-1.22460635382238E-016,0.0));
#422=DIRECTION('',(0.0,0.0,-1.0));
#423=CARTESIAN_POINT('',(0.0,1.24645660177777E-014,12.0));
#424=DIRECTION('',(-0.0,0.0,-1.0));
#425=DIRECTION('',(-1.0,-1.64412888401961E-016,0.0));
#426=CARTESIAN_POINT('',(0.0,1.24645660177777E-014,12.0));
#427=DIRECTION('',(-0.0,0.0,-1.0));
#428=DIRECTION('',(-1.0,-1.64412888401961E-016,0.0));
#429=DIRECTION('',(0.0,0.0,-1.0));
#430=DIRECTION('',(0.866025403784435,2.48439759270275E-016,-0.500000000000006));
#431=DIRECTION('',(-0.0,-0.0,1.0));
#432=SURFACE_STYLE_FILL_AREA(#441);
#433=FILL_AREA_STYLE('',(#442));
#434=FILL_AREA_STYLE('',(#443));
#435=FILL_AREA_STYLE('',(#444));
#436=FILL_AREA_STYLE('',(#445));
#437=FILL_AREA_STYLE('',(#446));
#438=FILL_AREA_STYLE('',(#447));
#439=FILL_AREA_STYLE('',(#448));
#440=FILL_AREA_STYLE('',(#449));
#441=FILL_AREA_STYLE('',(#450));
#442=FILL_AREA_STYLE_COLOUR('',#451);
#443=FILL_AREA_STYLE_COLOUR('',#452);
#444=FILL_AREA_STYLE_COLOUR('',#453);
#445=FILL_AREA_STYLE_COLOUR('',#454);
#446=FILL_AREA_STYLE_COLOUR('',#455);
#447=FILL_AREA_STYLE_COLOUR('',#456);
#448=FILL_AREA_STYLE_COLOUR('',#457);
#449=FILL_AREA_STYLE_COLOUR('',#458);
#450=FILL_AREA_STYLE_COLOUR('',#459);
#451=COLOUR_RGB('',0.509803950786591,0.509803950786591,0.588235318660736);
#452=COLOUR_RGB('',0.509803950786591,0.509803950786591,0.588235318660736);
#453=COLOUR_RGB('',0.509803950786591,0.509803950786591,0.588235318660736);
#454=COLOUR_RGB('',0.509803950786591,0.509803950786591,0.588235318660736);
#455=COLOUR_RGB('',0.509803950786591,0.509803950786591,0.588235318660736);
#456=COLOUR_RGB('',0.509803950786591,0.509803950786591,0.588235318660736);
#457=COLOUR_RGB('',0.509803950786591,0.509803950786591,0.588235318660736);
#458=COLOUR_RGB('',0.509803950786591,0.509803950786591,0.588235318660736);
#459=COLOUR_RGB('',0.509803950786591,0.509803950786591,0.588235318660736);
ENDSEC;
END-ISO-10303-21;
