ISO-10303-21;
HEADER;
FILE_DESCRIPTION(('STEP AP214'),'1');
FILE_NAME(' ','  ',('TraceParts'),('TraceParts S.A.'),'XStep 1.0',' ',' ');
FILE_SCHEMA(('automotive_design'));
ENDSEC;
DATA;
#1=MECHANICAL_DESIGN_GEOMETRIC_PRESENTATION_REPRESENTATION(' ',(#10,#11,#12,#13,#14,#15,#16,#17,#18,#19,#20,#21,#22,#23,#24,#25,#26,#27,#28,#29,#30,#31,#32,#33,#34,#35,#36,#37,#38,#39,#40,#41,#42,#43,#44),#6);
#2=PRODUCT_DEFINITION_CONTEXT('',#45,'design');
#3=APPLICATION_PROTOCOL_DEFINITION('INTERNATIONAL STANDARD','automotive_design',1994,#45);
#4=PRODUCT_CATEGORY_RELATIONSHIP('NONE','NONE',#46,#47);
#5=SHAPE_DEFINITION_REPRESENTATION(#48,#49);
#6= (GEOMETRIC_REPRESENTATION_CONTEXT(3)GLOBAL_UNCERTAINTY_ASSIGNED_CONTEXT((#52))GLOBAL_UNIT_ASSIGNED_CONTEXT((#54,#55,#56))REPRESENTATION_CONTEXT('NONE','WORKSPACE'));
#10=STYLED_ITEM('',(#58),#59);
#11=STYLED_ITEM('',(#60),#61);
#12=STYLED_ITEM('',(#62),#63);
#13=STYLED_ITEM('',(#64),#65);
#14=STYLED_ITEM('',(#66),#67);
#15=STYLED_ITEM('',(#68),#69);
#16=STYLED_ITEM('',(#70),#71);
#17=STYLED_ITEM('',(#72),#73);
#18=STYLED_ITEM('',(#74),#75);
#19=STYLED_ITEM('',(#76),#77);
#20=STYLED_ITEM('',(#78),#79);
#21=STYLED_ITEM('',(#80),#81);
#22=STYLED_ITEM('',(#82),#83);
#23=STYLED_ITEM('',(#84),#85);
#24=STYLED_ITEM('',(#86),#87);
#25=STYLED_ITEM('',(#88),#89);
#26=STYLED_ITEM('',(#90),#91);
#27=STYLED_ITEM('',(#92),#93);
#28=STYLED_ITEM('',(#94),#95);
#29=STYLED_ITEM('',(#96),#97);
#30=STYLED_ITEM('',(#98),#99);
#31=STYLED_ITEM('',(#100),#101);
#32=STYLED_ITEM('',(#102),#103);
#33=STYLED_ITEM('',(#104),#105);
#34=STYLED_ITEM('',(#106),#107);
#35=STYLED_ITEM('',(#108),#109);
#36=STYLED_ITEM('',(#110),#111);
#37=STYLED_ITEM('',(#112),#113);
#38=STYLED_ITEM('',(#114),#115);
#39=STYLED_ITEM('',(#116),#117);
#40=STYLED_ITEM('',(#118),#119);
#41=STYLED_ITEM('',(#120),#121);
#42=STYLED_ITEM('',(#122),#123);
#43=STYLED_ITEM('',(#124),#125);
#44=STYLED_ITEM('',(#126),#127);
#45=APPLICATION_CONTEXT(' ');
#46=PRODUCT_CATEGORY('part','NONE');
#47=PRODUCT_RELATED_PRODUCT_CATEGORY('detail',' ',(#128));
#48=PRODUCT_DEFINITION_SHAPE('NONE','NONE',#129);
#49=ADVANCED_BREP_SHAPE_REPRESENTATION('1',(#113,#130),#6);
#52=UNCERTAINTY_MEASURE_WITH_UNIT(LENGTH_MEASURE(1.0E-006),#54,'','');
#54= (CONVERSION_BASED_UNIT('MILLIMETRE',#133)LENGTH_UNIT()NAMED_UNIT(#136));
#55= (NAMED_UNIT(#138)PLANE_ANGLE_UNIT()SI_UNIT($,.RADIAN.));
#56= (NAMED_UNIT(#138)SOLID_ANGLE_UNIT()SI_UNIT($,.STERADIAN.));
#58=PRESENTATION_STYLE_ASSIGNMENT((#144));
#59=ADVANCED_FACE('',(#145),#146,.F.);
#60=PRESENTATION_STYLE_ASSIGNMENT((#147));
#61=EDGE_CURVE('',#73,#105,#148,.T.);
#62=PRESENTATION_STYLE_ASSIGNMENT((#149));
#63=EDGE_CURVE('',#105,#123,#150,.T.);
#64=PRESENTATION_STYLE_ASSIGNMENT((#151));
#65=ADVANCED_FACE('',(#152),#153,.F.);
#66=PRESENTATION_STYLE_ASSIGNMENT((#154));
#67=VERTEX_POINT('',#155);
#68=PRESENTATION_STYLE_ASSIGNMENT((#156));
#69=EDGE_CURVE('',#119,#79,#157,.T.);
#70=PRESENTATION_STYLE_ASSIGNMENT((#158));
#71=EDGE_CURVE('',#119,#67,#159,.T.);
#72=PRESENTATION_STYLE_ASSIGNMENT((#160));
#73=VERTEX_POINT('',#161);
#74=PRESENTATION_STYLE_ASSIGNMENT((#162));
#75=ADVANCED_FACE('',(#163),#164,.T.);
#76=PRESENTATION_STYLE_ASSIGNMENT((#165));
#77=ADVANCED_FACE('',(#166),#167,.T.);
#78=PRESENTATION_STYLE_ASSIGNMENT((#168));
#79=VERTEX_POINT('',#169);
#80=PRESENTATION_STYLE_ASSIGNMENT((#170));
#81=EDGE_CURVE('',#67,#87,#171,.T.);
#82=PRESENTATION_STYLE_ASSIGNMENT((#172));
#83=EDGE_CURVE('',#125,#107,#173,.T.);
#84=PRESENTATION_STYLE_ASSIGNMENT((#174));
#85=ADVANCED_FACE('',(#175,#176),#177,.T.);
#86=PRESENTATION_STYLE_ASSIGNMENT((#178));
#87=VERTEX_POINT('',#179);
#88=PRESENTATION_STYLE_ASSIGNMENT((#180));
#89=EDGE_CURVE('',#101,#123,#181,.T.);
#90=PRESENTATION_STYLE_ASSIGNMENT((#182));
#91=EDGE_CURVE('',#105,#73,#183,.T.);
#92=PRESENTATION_STYLE_ASSIGNMENT((#184));
#93=ADVANCED_FACE('',(#185),#186,.F.);
#94=PRESENTATION_STYLE_ASSIGNMENT((#187));
#95=EDGE_CURVE('',#123,#107,#188,.T.);
#96=PRESENTATION_STYLE_ASSIGNMENT((#189));
#97=ADVANCED_FACE('',(#190,#191),#192,.T.);
#98=PRESENTATION_STYLE_ASSIGNMENT((#193));
#99=EDGE_CURVE('',#107,#125,#194,.T.);
#100=PRESENTATION_STYLE_ASSIGNMENT((#195));
#101=VERTEX_POINT('',#196);
#102=PRESENTATION_STYLE_ASSIGNMENT((#197));
#103=EDGE_CURVE('',#79,#119,#198,.T.);
#104=PRESENTATION_STYLE_ASSIGNMENT((#199));
#105=VERTEX_POINT('',#200);
#106=PRESENTATION_STYLE_ASSIGNMENT((#201));
#107=VERTEX_POINT('',#202);
#108=PRESENTATION_STYLE_ASSIGNMENT((#203));
#109=EDGE_CURVE('',#101,#73,#204,.T.);
#110=PRESENTATION_STYLE_ASSIGNMENT((#205));
#111=EDGE_CURVE('',#87,#79,#206,.T.);
#112=PRESENTATION_STYLE_ASSIGNMENT((#207));
#113=MANIFOLD_SOLID_BREP('1',#208);
#114=PRESENTATION_STYLE_ASSIGNMENT((#209));
#115=EDGE_CURVE('',#123,#101,#210,.T.);
#116=PRESENTATION_STYLE_ASSIGNMENT((#211));
#117=EDGE_CURVE('',#87,#67,#212,.T.);
#118=PRESENTATION_STYLE_ASSIGNMENT((#213));
#119=VERTEX_POINT('',#214);
#120=PRESENTATION_STYLE_ASSIGNMENT((#215));
#121=EDGE_CURVE('',#125,#101,#216,.T.);
#122=PRESENTATION_STYLE_ASSIGNMENT((#217));
#123=VERTEX_POINT('',#218);
#124=PRESENTATION_STYLE_ASSIGNMENT((#219));
#125=VERTEX_POINT('',#220);
#126=PRESENTATION_STYLE_ASSIGNMENT((#221));
#127=ADVANCED_FACE('',(#222),#223,.F.);
#128=PRODUCT('1','1','PART-1-DESC',(#224));
#129=PRODUCT_DEFINITION('NONE','NONE',#225,#2);
#130=AXIS2_PLACEMENT_3D('',#226,#227,#228);
#133=LENGTH_MEASURE_WITH_UNIT(LENGTH_MEASURE(1.0),#229);
#136=DIMENSIONAL_EXPONENTS(1.0,0.0,0.0,0.0,0.0,0.0,0.0);
#138=DIMENSIONAL_EXPONENTS(0.0,0.0,0.0,0.0,0.0,0.0,0.0);
#144=SURFACE_STYLE_USAGE(.BOTH.,#230);
#145=FACE_OUTER_BOUND('',#231,.T.);
#146=CYLINDRICAL_SURFACE('',#232,14.0);
#147=CURVE_STYLE('',#233,POSITIVE_LENGTH_MEASURE(1.0E-006),#234);
#148=CIRCLE('',#235,14.0);
#149=CURVE_STYLE('',#236,POSITIVE_LENGTH_MEASURE(1.0E-006),#237);
#150=LINE('',#238,#239);
#151=SURFACE_STYLE_USAGE(.BOTH.,#240);
#152=FACE_OUTER_BOUND('',#241,.T.);
#153=CYLINDRICAL_SURFACE('',#242,14.0);
#154=POINT_STYLE(' ',#243,POSITIVE_LENGTH_MEASURE(1.0E-006),#244);
#155=CARTESIAN_POINT('',(22.0,1.83374860830723E-014,9.49999999999997));
#156=CURVE_STYLE('',#245,POSITIVE_LENGTH_MEASURE(1.0E-006),#246);
#157=CIRCLE('',#247,22.0);
#158=CURVE_STYLE('',#248,POSITIVE_LENGTH_MEASURE(1.0E-006),#249);
#159=LINE('',#250,#251);
#160=POINT_STYLE(' ',#252,POSITIVE_LENGTH_MEASURE(1.0E-006),#253);
#161=CARTESIAN_POINT('',(-14.0,9.73981688052291E-015,-2.8421709430404E-014));
#162=SURFACE_STYLE_USAGE(.BOTH.,#254);
#163=FACE_OUTER_BOUND('',#255,.T.);
#164=CYLINDRICAL_SURFACE('',#256,22.0);
#165=SURFACE_STYLE_USAGE(.BOTH.,#257);
#166=FACE_OUTER_BOUND('',#258,.T.);
#167=CYLINDRICAL_SURFACE('',#259,22.0);
#168=POINT_STYLE(' ',#260,POSITIVE_LENGTH_MEASURE(1.0E-006),#261);
#169=CARTESIAN_POINT('',(-22.0,8.76013179746501E-015,-2.8421709430404E-014));
#170=CURVE_STYLE('',#262,POSITIVE_LENGTH_MEASURE(1.0E-006),#263);
#171=CIRCLE('',#264,22.0);
#172=CURVE_STYLE('',#265,POSITIVE_LENGTH_MEASURE(1.0E-006),#266);
#173=CIRCLE('',#267,18.5);
#174=SURFACE_STYLE_USAGE(.BOTH.,#268);
#175=FACE_BOUND('',#269,.T.);
#176=FACE_OUTER_BOUND('',#270,.T.);
#177=PLANE('',#271);
#178=POINT_STYLE(' ',#272,POSITIVE_LENGTH_MEASURE(1.0E-006),#273);
#179=CARTESIAN_POINT('',(-22.0,9.34181981553064E-015,9.49999999999997));
#180=CURVE_STYLE('',#274,POSITIVE_LENGTH_MEASURE(1.0E-006),#275);
#181=CIRCLE('',#276,14.0);
#182=CURVE_STYLE('',#277,POSITIVE_LENGTH_MEASURE(1.0E-006),#278);
#183=CIRCLE('',#279,14.0);
#184=SURFACE_STYLE_USAGE(.BOTH.,#280);
#185=FACE_OUTER_BOUND('',#281,.T.);
#186=CONICAL_SURFACE('',#282,16.25,1.04719755119659);
#187=CURVE_STYLE('',#283,POSITIVE_LENGTH_MEASURE(1.0E-006),#284);
#188=LINE('',#285,#286);
#189=SURFACE_STYLE_USAGE(.BOTH.,#287);
#190=FACE_OUTER_BOUND('',#288,.T.);
#191=FACE_BOUND('',#289,.T.);
#192=PLANE('',#290);
#193=CURVE_STYLE('',#291,POSITIVE_LENGTH_MEASURE(1.0E-006),#292);
#194=CIRCLE('',#293,18.5);
#195=POINT_STYLE(' ',#294,POSITIVE_LENGTH_MEASURE(1.0E-006),#295);
#196=CARTESIAN_POINT('',(-14.0,1.01624238667816E-014,6.90192378864663));
#197=CURVE_STYLE('',#296,POSITIVE_LENGTH_MEASURE(1.0E-006),#297);
#198=CIRCLE('',#298,22.0);
#199=POINT_STYLE(' ',#299,POSITIVE_LENGTH_MEASURE(1.0E-006),#300);
#200=CARTESIAN_POINT('',(14.0,1.6046019796115E-014,-2.8421709430404E-014));
#201=POINT_STYLE(' ',#301,POSITIVE_LENGTH_MEASURE(1.0E-006),#302);
#202=CARTESIAN_POINT('',(18.5,1.73349695825285E-014,9.49999999999997));
#203=CURVE_STYLE('',#303,POSITIVE_LENGTH_MEASURE(1.0E-006),#304);
#204=LINE('',#305,#306);
#205=CURVE_STYLE('',#307,POSITIVE_LENGTH_MEASURE(1.0E-006),#308);
#206=LINE('',#309,#310);
#207=SURFACE_STYLE_USAGE(.BOTH.,#311);
#208=CLOSED_SHELL('',(#59,#75,#127,#93,#97,#77,#85,#65));
#209=CURVE_STYLE('',#312,POSITIVE_LENGTH_MEASURE(1.0E-006),#313);
#210=CIRCLE('',#314,14.0);
#211=CURVE_STYLE('',#315,POSITIVE_LENGTH_MEASURE(1.0E-006),#316);
#212=CIRCLE('',#317,22.0);
#213=POINT_STYLE(' ',#318,POSITIVE_LENGTH_MEASURE(1.0E-006),#319);
#214=CARTESIAN_POINT('',(22.0,1.83374860830723E-014,-2.8421709430404E-014));
#215=CURVE_STYLE('',#320,POSITIVE_LENGTH_MEASURE(1.0E-006),#321);
#216=LINE('',#322,#323);
#217=POINT_STYLE(' ',#324,POSITIVE_LENGTH_MEASURE(1.0E-006),#325);
#218=CARTESIAN_POINT('',(14.0,1.6046019796115E-014,6.90192378864663));
#219=POINT_STYLE(' ',#326,POSITIVE_LENGTH_MEASURE(1.0E-006),#327);
#220=CARTESIAN_POINT('',(-18.5,9.77043203936847E-015,9.49999999999997));
#221=SURFACE_STYLE_USAGE(.BOTH.,#328);
#222=FACE_OUTER_BOUND('',#329,.T.);
#223=CONICAL_SURFACE('',#330,16.25,1.04719755119659);
#224=PRODUCT_CONTEXT('',#45,'mechanical');
#225=PRODUCT_DEFINITION_FORMATION_WITH_SPECIFIED_SOURCE(' ','NONE',#128,.NOT_KNOWN.);
#226=CARTESIAN_POINT('',(0.0,0.0,0.0));
#227=DIRECTION('',(0.0,0.0,1.0));
#228=DIRECTION('',(1.0,0.0,0.0));
#229= (NAMED_UNIT(#136)LENGTH_UNIT()SI_UNIT(.MILLI.,.METRE.));
#230=SURFACE_SIDE_STYLE('',(#332));
#231=EDGE_LOOP('',(#333,#334,#335,#336));
#232=AXIS2_PLACEMENT_3D('',#337,#338,#339);
#233=DRAUGHTING_PRE_DEFINED_CURVE_FONT('continuous');
#234=COLOUR_RGB('',0.509803950786591,0.509803950786591,0.588235318660736);
#235=AXIS2_PLACEMENT_3D('',#340,#341,#342);
#236=DRAUGHTING_PRE_DEFINED_CURVE_FONT('continuous');
#237=COLOUR_RGB('',0.509803950786591,0.509803950786591,0.588235318660736);
#238=CARTESIAN_POINT('',(14.0,1.6046019796115E-014,3.4509618943233));
#239=VECTOR('',#343,1.0);
#240=SURFACE_SIDE_STYLE('',(#344));
#241=EDGE_LOOP('',(#345,#346,#347,#348));
#242=AXIS2_PLACEMENT_3D('',#349,#350,#351);
#243=PRE_DEFINED_MARKER('');
#244=COLOUR_RGB('',0.509803950786591,0.509803950786591,0.588235318660736);
#245=DRAUGHTING_PRE_DEFINED_CURVE_FONT('continuous');
#246=COLOUR_RGB('',0.509803950786591,0.509803950786591,0.588235318660736);
#247=AXIS2_PLACEMENT_3D('',#352,#353,#354);
#248=DRAUGHTING_PRE_DEFINED_CURVE_FONT('continuous');
#249=COLOUR_RGB('',0.509803950786591,0.509803950786591,0.588235318660736);
#250=CARTESIAN_POINT('',(22.0,1.83374860830723E-014,4.74999999999997));
#251=VECTOR('',#355,1.0);
#252=PRE_DEFINED_MARKER('');
#253=COLOUR_RGB('',0.509803950786591,0.509803950786591,0.588235318660736);
#254=SURFACE_SIDE_STYLE('',(#356));
#255=EDGE_LOOP('',(#357,#358,#359,#360));
#256=AXIS2_PLACEMENT_3D('',#361,#362,#363);
#257=SURFACE_SIDE_STYLE('',(#364));
#258=EDGE_LOOP('',(#365,#366,#367,#368));
#259=AXIS2_PLACEMENT_3D('',#369,#370,#371);
#260=PRE_DEFINED_MARKER('');
#261=COLOUR_RGB('',0.509803950786591,0.509803950786591,0.588235318660736);
#262=DRAUGHTING_PRE_DEFINED_CURVE_FONT('continuous');
#263=COLOUR_RGB('',0.509803950786591,0.509803950786591,0.588235318660736);
#264=AXIS2_PLACEMENT_3D('',#372,#373,#374);
#265=DRAUGHTING_PRE_DEFINED_CURVE_FONT('continuous');
#266=COLOUR_RGB('',0.509803950786591,0.509803950786591,0.588235318660736);
#267=AXIS2_PLACEMENT_3D('',#375,#376,#377);
#268=SURFACE_SIDE_STYLE('',(#378));
#269=EDGE_LOOP('',(#379,#380));
#270=EDGE_LOOP('',(#381,#382));
#271=AXIS2_PLACEMENT_3D('',#383,#384,#385);
#272=PRE_DEFINED_MARKER('');
#273=COLOUR_RGB('',0.509803950786591,0.509803950786591,0.588235318660736);
#274=DRAUGHTING_PRE_DEFINED_CURVE_FONT('continuous');
#275=COLOUR_RGB('',0.509803950786591,0.509803950786591,0.588235318660736);
#276=AXIS2_PLACEMENT_3D('',#386,#387,#388);
#277=DRAUGHTING_PRE_DEFINED_CURVE_FONT('continuous');
#278=COLOUR_RGB('',0.509803950786591,0.509803950786591,0.588235318660736);
#279=AXIS2_PLACEMENT_3D('',#389,#390,#391);
#280=SURFACE_SIDE_STYLE('',(#392));
#281=EDGE_LOOP('',(#393,#394,#395,#396));
#282=AXIS2_PLACEMENT_3D('',#397,#398,#399);
#283=DRAUGHTING_PRE_DEFINED_CURVE_FONT('continuous');
#284=COLOUR_RGB('',0.509803950786591,0.509803950786591,0.588235318660736);
#285=CARTESIAN_POINT('',(16.25,1.66904946893218E-014,8.2009618943233));
#286=VECTOR('',#400,1.0);
#287=SURFACE_SIDE_STYLE('',(#401));
#288=EDGE_LOOP('',(#402,#403));
#289=EDGE_LOOP('',(#404,#405));
#290=AXIS2_PLACEMENT_3D('',#406,#407,#408);
#291=DRAUGHTING_PRE_DEFINED_CURVE_FONT('continuous');
#292=COLOUR_RGB('',0.509803950786591,0.509803950786591,0.588235318660736);
#293=AXIS2_PLACEMENT_3D('',#409,#410,#411);
#294=PRE_DEFINED_MARKER('');
#295=COLOUR_RGB('',0.509803950786591,0.509803950786591,0.588235318660736);
#296=DRAUGHTING_PRE_DEFINED_CURVE_FONT('continuous');
#297=COLOUR_RGB('',0.509803950786591,0.509803950786591,0.588235318660736);
#298=AXIS2_PLACEMENT_3D('',#412,#413,#414);
#299=PRE_DEFINED_MARKER('');
#300=COLOUR_RGB('',0.509803950786591,0.509803950786591,0.588235318660736);
#301=PRE_DEFINED_MARKER('');
#302=COLOUR_RGB('',0.509803950786591,0.509803950786591,0.588235318660736);
#303=DRAUGHTING_PRE_DEFINED_CURVE_FONT('continuous');
#304=COLOUR_RGB('',0.509803950786591,0.509803950786591,0.588235318660736);
#305=CARTESIAN_POINT('',(-14.0,8.02588779176469E-015,3.4509618943233));
#306=VECTOR('',#415,1.0);
#307=DRAUGHTING_PRE_DEFINED_CURVE_FONT('continuous');
#308=COLOUR_RGB('',0.509803950786591,0.509803950786591,0.588235318660736);
#309=CARTESIAN_POINT('',(-22.0,5.73442150480744E-015,4.74999999999997));
#310=VECTOR('',#416,1.0);
#311=SURFACE_SIDE_STYLE('',(#417));
#312=DRAUGHTING_PRE_DEFINED_CURVE_FONT('continuous');
#313=COLOUR_RGB('',0.509803950786591,0.509803950786591,0.588235318660736);
#314=AXIS2_PLACEMENT_3D('',#418,#419,#420);
#315=DRAUGHTING_PRE_DEFINED_CURVE_FONT('continuous');
#316=COLOUR_RGB('',0.509803950786591,0.509803950786591,0.588235318660736);
#317=AXIS2_PLACEMENT_3D('',#421,#422,#423);
#318=PRE_DEFINED_MARKER('');
#319=COLOUR_RGB('',0.509803950786591,0.509803950786591,0.588235318660736);
#320=DRAUGHTING_PRE_DEFINED_CURVE_FONT('continuous');
#321=COLOUR_RGB('',0.509803950786591,0.509803950786591,0.588235318660736);
#322=CARTESIAN_POINT('',(-16.25,7.38141289855796E-015,8.2009618943233));
#323=VECTOR('',#424,1.0);
#324=PRE_DEFINED_MARKER('');
#325=COLOUR_RGB('',0.509803950786591,0.509803950786591,0.588235318660736);
#326=PRE_DEFINED_MARKER('');
#327=COLOUR_RGB('',0.509803950786591,0.509803950786591,0.588235318660736);
#328=SURFACE_SIDE_STYLE('',(#425));
#329=EDGE_LOOP('',(#426,#427,#428,#429));
#330=AXIS2_PLACEMENT_3D('',#430,#431,#432);
#332=SURFACE_STYLE_FILL_AREA(#433);
#333=ORIENTED_EDGE('',*,*,#109,.F.);
#334=ORIENTED_EDGE('',*,*,#115,.F.);
#335=ORIENTED_EDGE('',*,*,#63,.F.);
#336=ORIENTED_EDGE('',*,*,#91,.T.);
#337=CARTESIAN_POINT('',(0.0,1.20359537939399E-014,3.4509618943233));
#338=DIRECTION('',(0.0,-0.0,1.0));
#339=DIRECTION('',(-1.0,-1.63972650487418E-016,0.0));
#340=CARTESIAN_POINT('',(0.0,1.20359537939399E-014,-2.8421709430404E-014));
#341=DIRECTION('',(-0.0,0.0,-1.0));
#342=DIRECTION('',(-1.0,-1.63972650487418E-016,0.0));
#343=DIRECTION('',(0.0,0.0,1.0));
#344=SURFACE_STYLE_FILL_AREA(#434);
#345=ORIENTED_EDGE('',*,*,#109,.T.);
#346=ORIENTED_EDGE('',*,*,#61,.T.);
#347=ORIENTED_EDGE('',*,*,#63,.T.);
#348=ORIENTED_EDGE('',*,*,#89,.F.);
#349=CARTESIAN_POINT('',(0.0,1.20359537939399E-014,3.4509618943233));
#350=DIRECTION('',(0.0,-0.0,1.0));
#351=DIRECTION('',(-1.0,-1.63972650487418E-016,0.0));
#352=CARTESIAN_POINT('',(0.0,1.20359537939399E-014,-2.8421709430404E-014));
#353=DIRECTION('',(-0.0,0.0,-1.0));
#354=DIRECTION('',(-1.0,-1.63972650487418E-016,0.0));
#355=DIRECTION('',(-0.0,-0.0,1.0));
#356=SURFACE_STYLE_FILL_AREA(#435);
#357=ORIENTED_EDGE('',*,*,#111,.F.);
#358=ORIENTED_EDGE('',*,*,#117,.T.);
#359=ORIENTED_EDGE('',*,*,#71,.F.);
#360=ORIENTED_EDGE('',*,*,#103,.F.);
#361=CARTESIAN_POINT('',(0.0,1.20359537939399E-014,4.74999999999997));
#362=DIRECTION('',(0.0,-0.0,1.0));
#363=DIRECTION('',(-1.0,-1.63972650487418E-016,0.0));
#364=SURFACE_STYLE_FILL_AREA(#436);
#365=ORIENTED_EDGE('',*,*,#111,.T.);
#366=ORIENTED_EDGE('',*,*,#69,.F.);
#367=ORIENTED_EDGE('',*,*,#71,.T.);
#368=ORIENTED_EDGE('',*,*,#81,.T.);
#369=CARTESIAN_POINT('',(0.0,1.20359537939399E-014,4.74999999999997));
#370=DIRECTION('',(0.0,-0.0,1.0));
#371=DIRECTION('',(-1.0,-1.63972650487418E-016,0.0));
#372=CARTESIAN_POINT('',(0.0,1.20359537939399E-014,9.49999999999997));
#373=DIRECTION('',(-0.0,0.0,-1.0));
#374=DIRECTION('',(-1.0,-1.63972650487418E-016,0.0));
#375=CARTESIAN_POINT('',(0.0,1.20359537939399E-014,9.49999999999997));
#376=DIRECTION('',(-0.0,0.0,-1.0));
#377=DIRECTION('',(-1.0,-1.63972650487418E-016,0.0));
#378=SURFACE_STYLE_FILL_AREA(#437);
#379=ORIENTED_EDGE('',*,*,#61,.F.);
#380=ORIENTED_EDGE('',*,*,#91,.F.);
#381=ORIENTED_EDGE('',*,*,#103,.T.);
#382=ORIENTED_EDGE('',*,*,#69,.T.);
#383=CARTESIAN_POINT('',(-18.0,9.24997433899396E-015,-2.8421709430404E-014));
#384=DIRECTION('',(0.0,0.0,-1.0));
#385=DIRECTION('',(1.0,1.22460635382238E-016,0.0));
#386=CARTESIAN_POINT('',(0.0,1.20359537939399E-014,6.90192378864663));
#387=DIRECTION('',(-0.0,0.0,-1.0));
#388=DIRECTION('',(-1.0,-1.63972650487418E-016,0.0));
#389=CARTESIAN_POINT('',(0.0,1.20359537939399E-014,-2.8421709430404E-014));
#390=DIRECTION('',(-0.0,0.0,-1.0));
#391=DIRECTION('',(-1.0,-1.63972650487418E-016,0.0));
#392=SURFACE_STYLE_FILL_AREA(#438);
#393=ORIENTED_EDGE('',*,*,#121,.T.);
#394=ORIENTED_EDGE('',*,*,#89,.T.);
#395=ORIENTED_EDGE('',*,*,#95,.T.);
#396=ORIENTED_EDGE('',*,*,#83,.F.);
#397=CARTESIAN_POINT('',(0.0,1.20359537939399E-014,8.2009618943233));
#398=DIRECTION('',(0.0,-0.0,1.0));
#399=DIRECTION('',(-1.0,-1.63972650487418E-016,0.0));
#400=DIRECTION('',(0.866025403784436,2.48058502052572E-016,0.500000000000004));
#401=SURFACE_STYLE_FILL_AREA(#439);
#402=ORIENTED_EDGE('',*,*,#117,.F.);
#403=ORIENTED_EDGE('',*,*,#81,.F.);
#404=ORIENTED_EDGE('',*,*,#83,.T.);
#405=ORIENTED_EDGE('',*,*,#99,.T.);
#406=CARTESIAN_POINT('',(-20.25,9.55612592744956E-015,9.49999999999997));
#407=DIRECTION('',(0.0,0.0,1.0));
#408=DIRECTION('',(-1.0,-1.22460635382238E-016,0.0));
#409=CARTESIAN_POINT('',(0.0,1.20359537939399E-014,9.49999999999997));
#410=DIRECTION('',(-0.0,0.0,-1.0));
#411=DIRECTION('',(-1.0,-1.63972650487418E-016,0.0));
#412=CARTESIAN_POINT('',(0.0,1.20359537939399E-014,-2.8421709430404E-014));
#413=DIRECTION('',(-0.0,0.0,-1.0));
#414=DIRECTION('',(-1.0,-1.63972650487418E-016,0.0));
#415=DIRECTION('',(0.0,0.0,-1.0));
#416=DIRECTION('',(0.0,0.0,-1.0));
#417=SURFACE_STYLE_FILL_AREA(#440);
#418=CARTESIAN_POINT('',(0.0,1.20359537939399E-014,6.90192378864663));
#419=DIRECTION('',(-0.0,0.0,-1.0));
#420=DIRECTION('',(-1.0,-1.63972650487418E-016,0.0));
#421=CARTESIAN_POINT('',(0.0,1.20359537939399E-014,9.49999999999997));
#422=DIRECTION('',(-0.0,0.0,-1.0));
#423=DIRECTION('',(-1.0,-1.63972650487418E-016,0.0));
#424=DIRECTION('',(0.866025403784436,2.48058502052572E-016,-0.500000000000004));
#425=SURFACE_STYLE_FILL_AREA(#441);
#426=ORIENTED_EDGE('',*,*,#121,.F.);
#427=ORIENTED_EDGE('',*,*,#99,.F.);
#428=ORIENTED_EDGE('',*,*,#95,.F.);
#429=ORIENTED_EDGE('',*,*,#115,.T.);
#430=CARTESIAN_POINT('',(0.0,1.20359537939399E-014,8.2009618943233));
#431=DIRECTION('',(0.0,-0.0,1.0));
#432=DIRECTION('',(-1.0,-1.63972650487418E-016,0.0));
#433=FILL_AREA_STYLE('',(#442));
#434=FILL_AREA_STYLE('',(#443));
#435=FILL_AREA_STYLE('',(#444));
#436=FILL_AREA_STYLE('',(#445));
#437=FILL_AREA_STYLE('',(#446));
#438=FILL_AREA_STYLE('',(#447));
#439=FILL_AREA_STYLE('',(#448));
#440=FILL_AREA_STYLE('',(#449));
#441=FILL_AREA_STYLE('',(#450));
#442=FILL_AREA_STYLE_COLOUR('',#451);
#443=FILL_AREA_STYLE_COLOUR('',#452);
#444=FILL_AREA_STYLE_COLOUR('',#453);
#445=FILL_AREA_STYLE_COLOUR('',#454);
#446=FILL_AREA_STYLE_COLOUR('',#455);
#447=FILL_AREA_STYLE_COLOUR('',#456);
#448=FILL_AREA_STYLE_COLOUR('',#457);
#449=FILL_AREA_STYLE_COLOUR('',#458);
#450=FILL_AREA_STYLE_COLOUR('',#459);
#451=COLOUR_RGB('',0.509803950786591,0.509803950786591,0.588235318660736);
#452=COLOUR_RGB('',0.509803950786591,0.509803950786591,0.588235318660736);
#453=COLOUR_RGB('',0.509803950786591,0.509803950786591,0.588235318660736);
#454=COLOUR_RGB('',0.509803950786591,0.509803950786591,0.588235318660736);
#455=COLOUR_RGB('',0.509803950786591,0.509803950786591,0.588235318660736);
#456=COLOUR_RGB('',0.509803950786591,0.509803950786591,0.588235318660736);
#457=COLOUR_RGB('',0.509803950786591,0.509803950786591,0.588235318660736);
#458=COLOUR_RGB('',0.509803950786591,0.509803950786591,0.588235318660736);
#459=COLOUR_RGB('',0.509803950786591,0.509803950786591,0.588235318660736);
ENDSEC;
END-ISO-10303-21;
